  0
SECTION
  2
HEADER
  9
$ACADVER
  1
AC1027
  9
$ACADMAINTVER
 70
   105
  9
$DWGCODEPAGE
  3
ANSI_1252
  9
$LASTSAVEDBY
  1
Sandra
  9
$REQUIREDVERSIONS
160
                 0
  9
$INSBASE
 10
0.0
 20
0.0
 30
0.0
  9
$EXTMIN
 10
-1545.090165285011
 20
-1546.724674164232
 30
0.0
  9
$EXTMAX
 10
1545.254540157077
 20
1543.620031277854
 30
0.0
  9
$LIMMIN
 10
0.0
 20
0.0
  9
$LIMMAX
 10
12.0
 20
9.0
  9
$ORTHOMODE
 70
     1
  9
$REGENMODE
 70
     1
  9
$FILLMODE
 70
     1
  9
$QTEXTMODE
 70
     0
  9
$MIRRTEXT
 70
     1
  9
$LTSCALE
 40
1.0
  9
$ATTMODE
 70
     1
  9
$TEXTSIZE
 40
0.2
  9
$TRACEWID
 40
0.05
  9
$TEXTSTYLE
  7
Standard
  9
$CLAYER
  8
Default
  9
$CELTYPE
  6
ByLayer
  9
$CECOLOR
 62
   256
  9
$CELTSCALE
 40
1.0
  9
$DISPSILH
 70
     0
  9
$DIMSCALE
 40
1.0
  9
$DIMASZ
 40
0.18
  9
$DIMEXO
 40
0.0625
  9
$DIMDLI
 40
0.38
  9
$DIMRND
 40
0.0
  9
$DIMDLE
 40
0.0
  9
$DIMEXE
 40
0.18
  9
$DIMTP
 40
0.0
  9
$DIMTM
 40
0.0
  9
$DIMTXT
 40
0.18
  9
$DIMCEN
 40
0.09
  9
$DIMTSZ
 40
0.0
  9
$DIMTOL
 70
     0
  9
$DIMLIM
 70
     0
  9
$DIMTIH
 70
     1
  9
$DIMTOH
 70
     1
  9
$DIMSE1
 70
     0
  9
$DIMSE2
 70
     0
  9
$DIMTAD
 70
     0
  9
$DIMZIN
 70
     0
  9
$DIMBLK
  1

  9
$DIMASO
 70
     1
  9
$DIMSHO
 70
     1
  9
$DIMPOST
  1

  9
$DIMAPOST
  1

  9
$DIMALT
 70
     0
  9
$DIMALTD
 70
     2
  9
$DIMALTF
 40
25.4
  9
$DIMLFAC
 40
1.0
  9
$DIMTOFL
 70
     0
  9
$DIMTVP
 40
0.0
  9
$DIMTIX
 70
     0
  9
$DIMSOXD
 70
     0
  9
$DIMSAH
 70
     0
  9
$DIMBLK1
  1

  9
$DIMBLK2
  1

  9
$DIMSTYLE
  2
Standard
  9
$DIMCLRD
 70
     0
  9
$DIMCLRE
 70
     0
  9
$DIMCLRT
 70
     0
  9
$DIMTFAC
 40
1.0
  9
$DIMGAP
 40
0.09
  9
$DIMJUST
 70
     0
  9
$DIMSD1
 70
     0
  9
$DIMSD2
 70
     0
  9
$DIMTOLJ
 70
     1
  9
$DIMTZIN
 70
     0
  9
$DIMALTZ
 70
     0
  9
$DIMALTTZ
 70
     0
  9
$DIMUPT
 70
     0
  9
$DIMDEC
 70
     4
  9
$DIMTDEC
 70
     4
  9
$DIMALTU
 70
     2
  9
$DIMALTTD
 70
     2
  9
$DIMTXSTY
  7
Standard
  9
$DIMAUNIT
 70
     0
  9
$DIMADEC
 70
     0
  9
$DIMALTRND
 40
0.0
  9
$DIMAZIN
 70
     0
  9
$DIMDSEP
 70
    46
  9
$DIMATFIT
 70
     3
  9
$DIMFRAC
 70
     0
  9
$DIMLDRBLK
  1

  9
$DIMLUNIT
 70
     2
  9
$DIMLWD
 70
    -2
  9
$DIMLWE
 70
    -2
  9
$DIMTMOVE
 70
     2
  9
$DIMFXL
 40
1.0
  9
$DIMFXLON
 70
     0
  9
$DIMJOGANG
 40
0.7853981633974483
  9
$DIMTFILL
 70
     0
  9
$DIMTFILLCLR
 70
     0
  9
$DIMARCSYM
 70
     0
  9
$DIMLTYPE
  6

  9
$DIMLTEX1
  6

  9
$DIMLTEX2
  6

  9
$DIMTXTDIRECTION
 70
     0
  9
$LUNITS
 70
     2
  9
$LUPREC
 70
     3
  9
$SKETCHINC
 40
0.1
  9
$FILLETRAD
 40
35.0
  9
$AUNITS
 70
     0
  9
$AUPREC
 70
     0
  9
$MENU
  1
.
  9
$ELEVATION
 40
0.0
  9
$PELEVATION
 40
0.0
  9
$THICKNESS
 40
0.0
  9
$LIMCHECK
 70
     0
  9
$CHAMFERA
 40
0.0
  9
$CHAMFERB
 40
0.0
  9
$CHAMFERC
 40
0.0
  9
$CHAMFERD
 40
0.0
  9
$SKPOLY
 70
     0
  9
$TDCREATE
 40
2456553.280141482
  9
$TDUCREATE
 40
2456553.446808148
  9
$TDUPDATE
 40
2457854.465297709
  9
$TDUUPDATE
 40
2457854.631964375
  9
$TDINDWG
 40
0.0051246181
  9
$TDUSRTIMER
 40
0.0051246181
  9
$USRTIMER
 70
     1
  9
$ANGBASE
 50
0.0
  9
$ANGDIR
 70
     0
  9
$PDMODE
 70
     0
  9
$PDSIZE
 40
0.0
  9
$PLINEWID
 40
0.0
  9
$SPLFRAME
 70
     0
  9
$SPLINETYPE
 70
     6
  9
$SPLINESEGS
 70
     8
  9
$HANDSEED
  5
609
  9
$SURFTAB1
 70
     6
  9
$SURFTAB2
 70
     6
  9
$SURFTYPE
 70
     6
  9
$SURFU
 70
     6
  9
$SURFV
 70
     6
  9
$UCSBASE
  2

  9
$UCSNAME
  2

  9
$UCSORG
 10
0.0
 20
0.0
 30
0.0
  9
$UCSXDIR
 10
1.0
 20
0.0
 30
0.0
  9
$UCSYDIR
 10
0.0
 20
1.0
 30
0.0
  9
$UCSORTHOREF
  2

  9
$UCSORTHOVIEW
 70
     0
  9
$UCSORGTOP
 10
0.0
 20
0.0
 30
0.0
  9
$UCSORGBOTTOM
 10
0.0
 20
0.0
 30
0.0
  9
$UCSORGLEFT
 10
0.0
 20
0.0
 30
0.0
  9
$UCSORGRIGHT
 10
0.0
 20
0.0
 30
0.0
  9
$UCSORGFRONT
 10
0.0
 20
0.0
 30
0.0
  9
$UCSORGBACK
 10
0.0
 20
0.0
 30
0.0
  9
$PUCSBASE
  2

  9
$PUCSNAME
  2

  9
$PUCSORG
 10
0.0
 20
0.0
 30
0.0
  9
$PUCSXDIR
 10
1.0
 20
0.0
 30
0.0
  9
$PUCSYDIR
 10
0.0
 20
1.0
 30
0.0
  9
$PUCSORTHOREF
  2

  9
$PUCSORTHOVIEW
 70
     0
  9
$PUCSORGTOP
 10
0.0
 20
0.0
 30
0.0
  9
$PUCSORGBOTTOM
 10
0.0
 20
0.0
 30
0.0
  9
$PUCSORGLEFT
 10
0.0
 20
0.0
 30
0.0
  9
$PUCSORGRIGHT
 10
0.0
 20
0.0
 30
0.0
  9
$PUCSORGFRONT
 10
0.0
 20
0.0
 30
0.0
  9
$PUCSORGBACK
 10
0.0
 20
0.0
 30
0.0
  9
$USERI1
 70
     0
  9
$USERI2
 70
     0
  9
$USERI3
 70
     0
  9
$USERI4
 70
     0
  9
$USERI5
 70
     0
  9
$USERR1
 40
0.0
  9
$USERR2
 40
0.0
  9
$USERR3
 40
0.0
  9
$USERR4
 40
0.0
  9
$USERR5
 40
0.0
  9
$WORLDVIEW
 70
     1
  9
$SHADEDGE
 70
     3
  9
$SHADEDIF
 70
    70
  9
$TILEMODE
 70
     1
  9
$MAXACTVP
 70
    64
  9
$PINSBASE
 10
0.0
 20
0.0
 30
0.0
  9
$PLIMCHECK
 70
     0
  9
$PEXTMIN
 10
1.000000000000000E+20
 20
1.000000000000000E+20
 30
1.000000000000000E+20
  9
$PEXTMAX
 10
-1.000000000000000E+20
 20
-1.000000000000000E+20
 30
-1.000000000000000E+20
  9
$PLIMMIN
 10
0.0
 20
0.0
  9
$PLIMMAX
 10
12.0
 20
9.0
  9
$UNITMODE
 70
     0
  9
$VISRETAIN
 70
     1
  9
$PLINEGEN
 70
     0
  9
$PSLTSCALE
 70
     1
  9
$TREEDEPTH
 70
  3020
  9
$CMLSTYLE
  2
Standard
  9
$CMLJUST
 70
     0
  9
$CMLSCALE
 40
1.0
  9
$PROXYGRAPHICS
 70
     1
  9
$MEASUREMENT
 70
     0
  9
$CELWEIGHT
370
    -1
  9
$ENDCAPS
280
     0
  9
$JOINSTYLE
280
     0
  9
$LWDISPLAY
290
     0
  9
$INSUNITS
 70
     4
  9
$HYPERLINKBASE
  1

  9
$STYLESHEET
  1

  9
$XEDIT
290
     1
  9
$CEPSNTYPE
380
     0
  9
$PSTYLEMODE
290
     1
  9
$FINGERPRINTGUID
  2
{3F144C62-B65E-4596-BAA7-C647130A3F5D}
  9
$VERSIONGUID
  2
{9388F5EF-0317-48F5-99F3-D8100A03D97A}
  9
$EXTNAMES
290
     1
  9
$PSVPSCALE
 40
0.0
  9
$OLESTARTUP
290
     0
  9
$SORTENTS
280
   127
  9
$INDEXCTL
280
     0
  9
$HIDETEXT
280
     1
  9
$XCLIPFRAME
280
     0
  9
$HALOGAP
280
     0
  9
$OBSCOLOR
 70
   257
  9
$OBSLTYPE
280
     0
  9
$INTERSECTIONDISPLAY
280
     0
  9
$INTERSECTIONCOLOR
 70
   257
  9
$DIMASSOC
280
     2
  9
$PROJECTNAME
  1

  9
$CAMERADISPLAY
290
     0
  9
$LENSLENGTH
 40
50.0
  9
$CAMERAHEIGHT
 40
0.0
  9
$STEPSPERSEC
 40
2.0
  9
$STEPSIZE
 40
6.0
  9
$3DDWFPREC
 40
2.0
  9
$PSOLWIDTH
 40
0.25
  9
$PSOLHEIGHT
 40
4.0
  9
$LOFTANG1
 40
1.570796326794896
  9
$LOFTANG2
 40
1.570796326794896
  9
$LOFTMAG1
 40
0.0
  9
$LOFTMAG2
 40
0.0
  9
$LOFTPARAM
 70
     7
  9
$LOFTNORMALS
280
     1
  9
$LATITUDE
 40
37.795
  9
$LONGITUDE
 40
-122.394
  9
$NORTHDIRECTION
 40
0.0
  9
$TIMEZONE
 70
 -8000
  9
$LIGHTGLYPHDISPLAY
280
     1
  9
$TILEMODELIGHTSYNCH
280
     1
  9
$CMATERIAL
347
44
  9
$SOLIDHIST
280
     0
  9
$SHOWHIST
280
     1
  9
$DWFFRAME
280
     2
  9
$DGNFRAME
280
     0
  9
$REALWORLDSCALE
290
     1
  9
$INTERFERECOLOR
 62
     1
  9
$INTERFEREOBJVS
345
33
  9
$INTERFEREVPVS
346
30
  9
$CSHADOW
280
     0
  9
$SHADOWPLANELOCATION
 40
0.0
  0
ENDSEC
  0
SECTION
  2
CLASSES
  0
CLASS
  1
ACDBDICTIONARYWDFLT
  2
AcDbDictionaryWithDefault
  3
ObjectDBX Classes
 90
        0
 91
        1
280
     0
281
     0
  0
CLASS
  1
VISUALSTYLE
  2
AcDbVisualStyle
  3
ObjectDBX Classes
 90
     4095
 91
       24
280
     0
281
     0
  0
CLASS
  1
MATERIAL
  2
AcDbMaterial
  3
ObjectDBX Classes
 90
     1153
 91
        3
280
     0
281
     0
  0
CLASS
  1
SCALE
  2
AcDbScale
  3
ObjectDBX Classes
 90
     1153
 91
       33
280
     0
281
     0
  0
CLASS
  1
SUN
  2
AcDbSun
  3
SCENEOE
 90
     1153
 91
        1
280
     0
281
     0
  0
CLASS
  1
SURFACE
  2
AcDbSurface
  3
ObjectDBX Classes
 90
     4095
 91
        0
280
     0
281
     1
  0
CLASS
  1
DICTIONARYVAR
  2
AcDbDictionaryVar
  3
ObjectDBX Classes
 90
        0
 91
        9
280
     0
281
     0
  0
CLASS
  1
TABLESTYLE
  2
AcDbTableStyle
  3
ObjectDBX Classes
 90
     4095
 91
        1
280
     0
281
     0
  0
CLASS
  1
MLEADERSTYLE
  2
AcDbMLeaderStyle
  3
ACDB_MLEADERSTYLE_CLASS
 90
     4095
 91
        1
280
     0
281
     0
  0
CLASS
  1
ACDBSECTIONVIEWSTYLE
  2
AcDbSectionViewStyle
  3
ObjectDBX Classes
 90
     1025
 91
        1
280
     0
281
     0
  0
CLASS
  1
ACDBDETAILVIEWSTYLE
  2
AcDbDetailViewStyle
  3
ObjectDBX Classes
 90
     1025
 91
        1
280
     0
281
     0
  0
CLASS
  1
SORTENTSTABLE
  2
AcDbSortentsTable
  3
ObjectDBX Classes
 90
        0
 91
        0
280
     0
281
     0
  0
CLASS
  1
CELLSTYLEMAP
  2
AcDbCellStyleMap
  3
ObjectDBX Classes
 90
     1152
 91
        1
280
     0
281
     0
  0
ENDSEC
  0
SECTION
  2
TABLES
  0
TABLE
  2
VPORT
  5
8
102
{ACAD_XDICTIONARY
360
3B0
102
}
330
0
100
AcDbSymbolTable
 70
     1
  0
VPORT
  5
29
330
8
100
AcDbSymbolTableRecord
100
AcDbViewportTableRecord
  2
*Active
 70
     0
 10
0.0
 20
0.0
 11
1.0
 21
1.0
 12
920.5869199404387
 22
79.61818837441796
 13
0.0
 23
0.0
 14
0.5
 24
0.5
 15
0.5
 25
0.5
 16
0.0
 26
0.0
 36
1.0
 17
0.0
 27
0.0
 37
0.0
 40
7966.292966949402
 41
2.472938144329897
 42
50.0
 43
0.0
 44
0.0
 50
0.0
 51
0.0
 71
     0
 72
   100
 73
     1
 74
     3
 75
     0
 76
     0
 77
     0
 78
     0
281
     0
 65
     1
110
0.0
120
0.0
130
0.0
111
1.0
121
0.0
131
0.0
112
0.0
122
1.0
132
0.0
 79
     0
146
0.0
348
2F
 60
     3
 61
     5
292
     1
282
     1
141
0.0
142
0.0
 63
   250
421
  3355443
361
69
1001
ACAD_NAV_VCDISPLAY
1070
     3
  0
ENDTAB
  0
TABLE
  2
LTYPE
  5
5
330
0
100
AcDbSymbolTable
 70
     1
  0
LTYPE
  5
14
330
5
100
AcDbSymbolTableRecord
100
AcDbLinetypeTableRecord
  2
ByBlock
 70
     0
  3

 72
    65
 73
     0
 40
0.0
  0
LTYPE
  5
15
330
5
100
AcDbSymbolTableRecord
100
AcDbLinetypeTableRecord
  2
ByLayer
 70
     0
  3

 72
    65
 73
     0
 40
0.0
  0
LTYPE
  5
16
330
5
100
AcDbSymbolTableRecord
100
AcDbLinetypeTableRecord
  2
Continuous
 70
     0
  3
Solid line
 72
    65
 73
     0
 40
0.0
  0
ENDTAB
  0
TABLE
  2
LAYER
  5
2
102
{ACAD_XDICTIONARY
360
40C
102
}
330
0
100
AcDbSymbolTable
 70
     2
  0
LAYER
  5
10
102
{ACAD_XDICTIONARY
360
3F9
102
}
330
2
100
AcDbSymbolTableRecord
100
AcDbLayerTableRecord
  2
0
 70
     0
 62
     7
  6
Continuous
370
    -3
390
F
347
46
348
0
  0
LAYER
  5
40A
102
{ACAD_XDICTIONARY
360
40B
102
}
330
2
100
AcDbSymbolTableRecord
100
AcDbLayerTableRecord
  2
Default
 70
     0
 62
     7
  6
Continuous
370
    -3
390
F
347
46
348
0
  0
ENDTAB
  0
TABLE
  2
STYLE
  5
3
330
0
100
AcDbSymbolTable
 70
     1
  0
STYLE
  5
11
330
3
100
AcDbSymbolTableRecord
100
AcDbTextStyleTableRecord
  2
Standard
 70
     0
 40
0.0
 41
1.0
 50
0.0
 71
     0
 42
0.2
  3
txt
  4

  0
ENDTAB
  0
TABLE
  2
VIEW
  5
6
330
0
100
AcDbSymbolTable
 70
     0
  0
ENDTAB
  0
TABLE
  2
UCS
  5
7
330
0
100
AcDbSymbolTable
 70
     0
  0
ENDTAB
  0
TABLE
  2
APPID
  5
9
330
0
100
AcDbSymbolTable
 70
     4
  0
APPID
  5
12
330
9
100
AcDbSymbolTableRecord
100
AcDbRegAppTableRecord
  2
ACAD
 70
     0
  0
APPID
  5
3AD
330
9
100
AcDbSymbolTableRecord
100
AcDbRegAppTableRecord
  2
ACAD_OBJECT_CHANGE_GUID
 70
     0
  0
APPID
  5
3FD
330
9
100
AcDbSymbolTableRecord
100
AcDbRegAppTableRecord
  2
ACAD_NAV_VCDISPLAY
 70
     0
  0
APPID
  5
5C5
330
9
100
AcDbSymbolTableRecord
100
AcDbRegAppTableRecord
  2
ACAD_EXEMPT_FROM_CAD_STANDARDS
 70
     0
  0
ENDTAB
  0
TABLE
  2
DIMSTYLE
  5
A
330
0
100
AcDbSymbolTable
 70
     1
100
AcDbDimStyleTable
 71
     1
340
27
  0
DIMSTYLE
105
27
330
A
100
AcDbSymbolTableRecord
100
AcDbDimStyleTableRecord
  2
Standard
 70
     0
340
11
  0
ENDTAB
  0
TABLE
  2
BLOCK_RECORD
  5
1
330
0
100
AcDbSymbolTable
 70
     1
  0
BLOCK_RECORD
  5
1F
330
1
100
AcDbSymbolTableRecord
100
AcDbBlockTableRecord
  2
*Model_Space
340
22
 70
     0
280
     1
281
     0
  0
BLOCK_RECORD
  5
1B
330
1
100
AcDbSymbolTableRecord
100
AcDbBlockTableRecord
  2
*Paper_Space
340
1E
 70
     0
280
     1
281
     0
  0
BLOCK_RECORD
  5
23
330
1
100
AcDbSymbolTableRecord
100
AcDbBlockTableRecord
  2
*Paper_Space0
340
26
 70
     0
280
     1
281
     0
  0
ENDTAB
  0
ENDSEC
  0
SECTION
  2
BLOCKS
  0
BLOCK
  5
20
330
1F
100
AcDbEntity
  8
0
100
AcDbBlockBegin
  2
*Model_Space
 70
     0
 10
0.0
 20
0.0
 30
0.0
  3
*Model_Space
  1

  0
ENDBLK
  5
21
330
1F
100
AcDbEntity
  8
0
100
AcDbBlockEnd
  0
BLOCK
  5
1C
330
1B
100
AcDbEntity
 67
     1
  8
0
100
AcDbBlockBegin
  2
*Paper_Space
 70
     0
 10
0.0
 20
0.0
 30
0.0
  3
*Paper_Space
  1

  0
ENDBLK
  5
1D
330
1B
100
AcDbEntity
 67
     1
  8
0
100
AcDbBlockEnd
  0
BLOCK
  5
24
330
23
100
AcDbEntity
 67
     1
  8
0
100
AcDbBlockBegin
  2
*Paper_Space0
 70
     0
 10
0.0
 20
0.0
 30
0.0
  3
*Paper_Space0
  1

  0
ENDBLK
  5
25
330
23
100
AcDbEntity
 67
     1
  8
0
100
AcDbBlockEnd
  0
ENDSEC
  0
SECTION
  2
ENTITIES
  0
SPLINE
  5
4EC
330
1F
100
AcDbEntity
  8
Default
100
AcDbSpline
210
0.0
220
0.0
230
1.0
 70
     8
 71
     3
 72
    12
 73
     8
 74
     0
 42
0.000000001
 43
0.0000000001
 40
0.0
 40
0.0
 40
0.0
 40
0.0
 40
0.1510110321465192
 40
0.3037660471064116
 40
0.5900965017365678
 40
0.8249401141264362
 40
1.014583801502342
 40
1.014583801502342
 40
1.014583801502342
 40
1.014583801502342
 10
-10.2065842959164
 20
767.1422399138882
 30
0.0
 10
-10.33145634385437
 20
765.8691859086594
 30
0.0
 10
-10.42873271756616
 20
763.2961696107067
 30
0.0
 10
-9.991550858798291
 20
758.3063950080886
 30
0.0
 10
-8.456061511395091
 20
752.7655558304304
 30
0.0
 10
-5.033466682107246
 20
747.6638448132598
 30
0.0
 10
-1.634508879218628
 20
746.0193338471199
 30
0.0
 10
0.0
 20
746.0511722312203
 30
0.0
  0
SPLINE
  5
4ED
330
1F
100
AcDbEntity
  8
Default
100
AcDbSpline
210
0.0
220
0.0
230
1.0
 70
     8
 71
     3
 72
    12
 73
     8
 74
     0
 42
0.000000001
 43
0.0000000001
 40
-1.014583801502342
 40
-1.014583801502342
 40
-1.014583801502342
 40
-1.014583801502342
 40
-0.8249401141264362
 40
-0.5900965017365678
 40
-0.3037660471064116
 40
-0.1510110321465192
 40
0.0
 40
0.0
 40
0.0
 40
0.0
 10
0.0
 20
746.0511722312203
 30
0.0
 10
1.634508879222266
 20
746.0193338471199
 30
0.0
 10
5.033466682110883
 20
747.6638448132598
 30
0.0
 10
8.456061511398729
 20
752.7655558304304
 30
0.0
 10
9.991550858801929
 20
758.3063950080886
 30
0.0
 10
10.4287327175698
 20
763.2961696107067
 30
0.0
 10
10.331456343858
 20
765.8691859086594
 30
0.0
 10
10.2065842959164
 20
767.1422399138882
 30
0.0
  0
SPLINE
  5
4EE
330
1F
100
AcDbEntity
  8
Default
100
AcDbSpline
210
0.0
220
0.0
230
1.0
 70
    12
 71
     2
 72
     6
 73
     3
 74
     0
 42
0.000000001
 43
0.0000000001
 40
0.0
 40
0.0
 40
0.0
 40
0.1369528492222414
 40
0.1369528492222414
 40
0.1369528492222414
 10
-9.337313896801788
 20
776.7779004504063
 30
0.0
 41
1.0
 10
-9.301003692100493
 20
775.0390081885289
 30
0.0
 41
0.9999966913238282
 10
-9.320096031799039
 20
773.29912760978
 30
0.0
 41
0.9999959461296658
  0
ARC
  5
4EF
330
1F
100
AcDbEntity
  8
Default
100
AcDbCircle
 10
-22.01837869379233
 20
773.0902797318795
 30
0.0
 40
12.7
100
AcDbArc
 50
348.4871521735326
 51
0.9422552251274922
  0
SPLINE
  5
4F0
330
1F
100
AcDbEntity
  8
Default
100
AcDbSpline
210
0.0
220
0.0
230
1.0
 70
     8
 71
     3
 72
    14
 73
    10
 74
     0
 42
0.000000001
 43
0.0000000001
 40
0.2772630823298201
 40
0.2772630823298201
 40
0.2772630823298201
 40
0.2772630823298201
 40
1.0
 40
2.0
 40
3.0
 40
4.0
 40
5.0
 40
6.0
 40
7.0
 40
7.0
 40
7.0
 40
7.0
 10
-9.573903019641875
 20
770.5555163907575
 30
0.0
 10
-9.779573483010608
 20
769.5457727840203
 30
0.0
 10
-10.16225595000651
 20
767.1168780225907
 30
0.0
 10
-10.28268672578997
 20
763.2267522813072
 30
0.0
 10
-9.825121126876183
 20
758.9652339135628
 30
0.0
 10
-8.770275280359783
 20
754.8060907107737
 30
0.0
 10
-6.979870576262328
 20
750.8978553236429
 30
0.0
 10
-4.183200836589094
 20
747.5714843013683
 30
0.0
 10
-1.439760927281895
 20
746.4228911326008
 30
0.0
 10
0.0000126126251416
 20
746.4357817775581
 30
0.0
  0
SPLINE
  5
4F1
330
1F
100
AcDbEntity
  8
Default
100
AcDbSpline
210
0.0
220
0.0
230
1.0
 70
     8
 71
     3
 72
    14
 73
    10
 74
     0
 42
0.000000001
 43
0.0000000001
 40
-7.0
 40
-7.0
 40
-7.0
 40
-7.0
 40
-6.0
 40
-5.0
 40
-4.0
 40
-3.0
 40
-2.0
 40
-1.0
 40
-0.2482205602640466
 40
-0.2482205602640466
 40
-0.2482205602640466
 40
-0.2482205602640466
 10
0.0000126126251416
 20
746.4357817775581
 30
0.0
 10
1.439786152535816
 20
746.4228911326008
 30
0.0
 10
4.183226061843015
 20
747.5714843013683
 30
0.0
 10
6.979895801516249
 20
750.8978553236429
 30
0.0
 10
8.770300505613704
 20
754.8060907107737
 30
0.0
 10
9.825146352130104
 20
758.9652339135628
 30
0.0
 10
10.28271195104389
 20
763.2267522813072
 30
0.0
 10
10.16099658054372
 20
767.1583726899426
 30
0.0
 10
9.766608805515716
 20
769.6276579272071
 30
0.0
 10
9.548916183637629
 20
770.6771982390692
 30
0.0
  0
ARC
  5
4F2
330
1F
100
AcDbEntity
  8
Default
100
AcDbCircle
 10
21.98423762554012
 20
773.2564967166709
 30
0.0
 40
12.7
100
AcDbArc
 50
178.977579807964
 51
191.7179678781646
  0
SPLINE
  5
4F3
330
1F
100
AcDbEntity
  8
Default
100
AcDbSpline
210
0.0
220
0.0
230
1.0
 70
    12
 71
     2
 72
     6
 73
     3
 74
     0
 42
0.000000001
 43
0.0000000001
 40
-0.1297405451143296
 40
-0.1297405451143296
 40
-0.1297405451143296
 40
0.0
 40
0.0
 40
0.0
 10
9.286259600496123
 20
773.4831110927971
 30
0.0
 41
0.9999960316975588
 10
9.315660681637382
 20
775.1305541572419
 30
0.0
 41
0.999996865512317
 10
9.350059294152742
 20
776.7779004504063
 30
0.0
 41
1.0
  0
SPLINE
  5
4F4
330
1F
100
AcDbEntity
  8
Default
100
AcDbSpline
210
0.0
220
0.0
230
1.0
 70
    12
 71
     2
 72
     6
 73
     3
 74
     0
 42
0.000000001
 43
0.0000000001
 40
0.0
 40
0.0
 40
0.0
 40
0.0853474550214741
 40
0.0853474550214741
 40
0.0853474550214741
 10
10.28178462868891
 20
766.2520608078939
 30
0.0
 41
1.0
 10
10.35766402894296
 20
765.1703703505099
 30
0.0
 41
0.9993970637774639
 10
10.35829223530527
 20
764.0860219128135
 30
0.0
 41
1.0
  0
SPLINE
  5
4F5
330
1F
100
AcDbEntity
  8
Default
100
AcDbSpline
210
0.0
220
0.0
230
1.0
 70
    12
 71
     2
 72
     6
 73
     3
 74
     0
 42
0.000000001
 43
0.0000000001
 40
0.0
 40
0.0
 40
0.0
 40
0.0587632096241838
 40
0.0587632096241838
 40
0.0587632096241838
 10
1.476650285872892
 20
746.5587475334014
 30
0.0
 41
1.0
 10
0.7502618474427436
 20
746.3710457489632
 30
0.0
 41
0.9921107855315545
 10
0.0000146309757838
 20
746.3699332941451
 30
0.0
 41
1.0
  0
SPLINE
  5
4F6
330
1F
100
AcDbEntity
  8
Default
100
AcDbSpline
210
0.0
220
0.0
230
1.0
 70
    24
 71
     2
 72
     6
 73
     3
 74
     0
 42
0.000000001
 43
0.0000000001
 40
0.0
 40
0.0
 40
0.0
 40
0.0114467396849787
 40
0.0114467396849787
 40
0.0114467396849787
 10
-0.000000143671059
 20
746.3699332941232
 30
0.0
 10
-0.0000000781474228
 20
746.2245597001256
 30
0.0
 10
-0.0000000126274244
 20
746.0791861061243
 30
0.0
  0
SPLINE
  5
4F7
330
1F
100
AcDbEntity
  8
Default
100
AcDbSpline
210
0.0
220
0.0
230
1.0
 70
    12
 71
     2
 72
     6
 73
     3
 74
     0
 42
0.000000001
 43
0.0000000001
 40
0.0
 40
0.0
 40
0.0
 40
0.0586712320260919
 40
0.0586712320260919
 40
0.0586712320260919
 10
-0.000000143671059
 20
746.3699332941232
 30
0.0
 41
1.0
 10
-0.7490611959801754
 20
746.3710377166371
 30
0.0
 41
0.9921343149382712
 10
-1.474373098608339
 20
746.558164207925
 30
0.0
 41
1.0
  0
SPLINE
  5
4F8
330
1F
100
AcDbEntity
  8
Default
100
AcDbSpline
210
0.0
220
0.0
230
1.0
 70
     8
 71
     3
 72
    22
 73
    18
 74
     0
 42
0.000000001
 43
0.0000000001
 40
0.0
 40
0.0
 40
0.0
 40
0.0
 40
0.2588469591229587
 40
0.6477254461891114
 40
1.024641027840087
 40
1.817983982162573
 40
2.582167143679937
 40
4.062052734317923
 40
7.850412104674
 40
9.497260537102542
 40
10.543391206404
 40
10.8432833113025
 40
12.15829953678302
 40
13.34949093133962
 40
14.77372714428499
 40
17.25709974516987
 40
21.82793658798906
 40
21.82793658798906
 40
21.82793658798906
 40
21.82793658798906
 10
196.5619435307853
 20
1454.735018153062
 30
0.0
 10
196.3586352222628
 20
1452.537235159301
 30
0.0
 10
197.3424644002225
 20
1447.090029170516
 30
0.0
 10
200.5051008716073
 20
1438.999035097435
 30
0.0
 10
206.2026741987829
 20
1427.086444778326
 30
0.0
 10
214.0253364580494
 20
1412.692060434345
 30
0.0
 10
225.2884062707344
 20
1389.567963381139
 30
0.0
 10
246.9121420252923
 20
1343.294865172351
 30
0.0
 10
269.239754573191
 20
1289.142622151792
 30
0.0
 10
289.0475311875598
 20
1237.977078403672
 30
0.0
 10
297.9405658649885
 20
1214.247545783853
 30
0.0
 10
305.5958809226904
 20
1193.045005648697
 30
0.0
 10
310.1301611517265
 20
1169.590224833804
 30
0.0
 10
311.8788726469211
 20
1136.354342083197
 30
0.0
 10
311.4186766644416
 20
1093.142914195183
 30
0.0
 10
302.2861164283386
 20
1021.738919913447
 30
0.0
 10
279.5854479900045
 20
965.4264682259508
 30
0.0
 10
257.5850009947499
 20
933.4822956838706
 30
0.0
  0
SPLINE
  5
4F9
330
1F
100
AcDbEntity
  8
Default
100
AcDbSpline
210
0.0
220
0.0
230
1.0
 70
     8
 71
     3
 72
    19
 73
    15
 74
     0
 42
0.000000001
 43
0.0000000001
 40
-12.0
 40
-12.0
 40
-12.0
 40
-12.0
 40
-11.0
 40
-10.0
 40
-9.0
 40
-8.0
 40
-7.0
 40
-6.0
 40
-5.0
 40
-4.0
 40
-3.0
 40
-2.0
 40
-1.0
 40
0.0
 40
0.0
 40
0.0
 40
0.0
 10
223.195204846379
 20
1498.471170193856
 30
0.0
 10
220.00015402598
 20
1503.834890383716
 30
0.0
 10
207.1784696626055
 20
1507.902453116721
 30
0.0
 10
189.0630576483818
 20
1512.488937410182
 30
0.0
 10
170.2782084919272
 20
1515.894498680214
 30
0.0
 10
151.5575181734639
 20
1518.984442889645
 30
0.0
 10
132.719896860799
 20
1521.512707918444
 30
0.0
 10
113.8376903876851
 20
1523.597958349293
 30
0.0
 10
94.91096382726755
 20
1525.257870845578
 30
0.0
 10
75.95552833298279
 20
1526.535738823402
 30
0.0
 10
56.97984227154666
 20
1527.466381836579
 30
0.0
 10
37.99164488101815
 20
1528.085798998925
 30
0.0
 10
18.99658889957573
 20
1528.42979735596
 30
0.0
 10
6.33139463910993
 20
1528.499400107479
 30
0.0
 10
-0.0011769193843065
 20
1528.500217640672
 30
0.0
  0
SPLINE
  5
4FA
330
1F
100
AcDbEntity
  8
Default
100
AcDbSpline
210
0.0
220
0.0
230
1.0
 70
    12
 71
     2
 72
     6
 73
     3
 74
     0
 42
0.000000001
 43
0.0000000001
 40
-6.233889429224446
 40
-6.233889429224446
 40
-6.233889429224446
 40
0.0
 40
0.0
 40
0.0
 10
-0.0011769193843065
 20
1541.903454747991
 30
0.0
 41
1.0
 10
79.34262533631408
 20
1542.050839366615
 30
0.0
 41
0.996730330589404
 10
157.6737666886329
 20
1529.416518038053
 30
0.0
 41
1.0
  0
SPLINE
  5
4FB
330
1F
100
AcDbEntity
  8
Default
100
AcDbSpline
210
0.0
220
0.0
230
1.0
 70
     8
 71
     3
 72
    12
 73
     8
 74
     0
 42
0.000000001
 43
0.0000000001
 40
0.0
 40
0.0
 40
0.0
 40
0.0
 40
0.8495817757806477
 40
1.391422022197968
 40
2.191064820612614
 40
2.689385262996221
 40
3.111933853859593
 40
3.111933853859593
 40
3.111933853859593
 40
3.111933853859593
 10
157.6737666886329
 20
1529.416518038053
 30
0.0
 10
164.7803980906537
 20
1528.14461115956
 30
0.0
 10
176.3737793658074
 20
1526.367644435266
 30
0.0
 10
194.5825157378058
 20
1522.521606389915
 30
0.0
 10
209.5828074609526
 20
1518.468379327934
 30
0.0
 10
222.4219160193352
 20
1510.725313457455
 30
0.0
 10
224.3447506301854
 20
1502.127697003814
 30
0.0
 10
223.2334795193056
 20
1498.610765576619
 30
0.0
  0
SPLINE
  5
4FC
330
1F
100
AcDbEntity
  8
Default
100
AcDbSpline
210
0.0
220
0.0
230
1.0
 70
    12
 71
     2
 72
     6
 73
     3
 74
     0
 42
0.000000001
 43
0.0000000001
 40
0.0
 40
0.0
 40
0.0
 40
0.443505275079806
 40
0.443505275079806
 40
0.443505275079806
 10
223.2334795193056
 20
1498.610765576619
 30
0.0
 41
1.0
 10
221.6079920386146
 20
1492.984658645329
 30
0.0
 41
0.9799943751373794
 10
218.0055186562713
 20
1488.555635897597
 30
0.0
 41
1.0
  0
SPLINE
  5
4FD
330
1F
100
AcDbEntity
  8
Default
100
AcDbSpline
210
0.0
220
0.0
230
1.0
 70
    12
 71
     2
 72
     6
 73
     3
 74
     0
 42
0.000000001
 43
0.0000000001
 40
-5.654573080352872
 40
-5.654573080352872
 40
-5.654573080352872
 40
0.0
 40
0.0
 40
0.0
 10
142.981744615663
 20
1531.784638066971
 30
0.0
 41
1.0
 10
71.9674671593857
 20
1543.463971868774
 30
0.0
 41
0.9967681786255456
 10
-0.0011769193843065
 20
1543.620031277854
 30
0.0
 41
1.0
  0
SPLINE
  5
4FE
330
1F
100
AcDbEntity
  8
Default
100
AcDbSpline
210
0.0
220
0.0
230
1.0
 70
    12
 71
     2
 72
     6
 73
     3
 74
     0
 42
0.000000001
 43
0.0000000001
 40
-1.281345128275034
 40
-1.281345128275034
 40
-1.281345128275034
 40
0.0
 40
0.0
 40
0.0
 10
9.73911849986689
 20
811.0652343417259
 30
0.0
 41
0.9999999993069707
 10
9.558660454476921
 20
794.7828244334978
 30
0.0
 41
0.9999999996067375
 10
9.378419216518523
 20
778.4990188822648
 30
0.0
 41
1.0
  0
SPLINE
  5
4FF
330
1F
100
AcDbEntity
  8
Default
100
AcDbSpline
210
0.0
220
0.0
230
1.0
 70
     8
 71
     3
 72
    14
 73
    10
 74
     0
 42
0.000000001
 43
0.0000000001
 40
0.0
 40
0.0
 40
0.0
 40
0.0
 40
1.0
 40
2.0
 40
3.0
 40
4.0
 40
5.0
 40
6.0
 40
7.0
 40
7.0
 40
7.0
 40
7.0
 10
9.378419216518523
 20
778.4990188822648
 30
0.0
 10
9.35175204295956
 20
776.7132563109208
 30
0.0
 10
8.836206551950454
 20
773.3443033738312
 30
0.0
 10
6.657271192481857
 20
768.7119232103523
 30
0.0
 10
2.608639035213855
 20
765.2877227241024
 30
0.0
 10
-2.806322574349906
 20
765.373506507074
 30
0.0
 10
-6.772694368264637
 20
768.8779778673797
 30
0.0
 10
-8.891578485658101
 20
773.5360654638516
 30
0.0
 10
-9.371842130454751
 20
776.9101329355089
 30
0.0
 10
-9.372600145910837
 20
778.5975415078228
 30
0.0
  0
SPLINE
  5
500
330
1F
100
AcDbEntity
  8
Default
100
AcDbSpline
210
0.0
220
0.0
230
1.0
 70
    12
 71
     2
 72
     6
 73
     3
 74
     0
 42
0.000000001
 43
0.0000000001
 40
0.0
 40
0.0
 40
0.0
 40
1.278324852146924
 40
1.278324852146924
 40
1.278324852146924
 10
-9.372600145910837
 20
778.5975415078228
 30
0.0
 41
1.0
 10
-9.551595131804788
 20
794.8312803393691
 30
0.0
 41
0.9999999996076647
 10
-9.73090331559797
 20
811.0650157145338
 30
0.0
 41
0.9999999993083845
  0
SPLINE
  5
501
330
1F
100
AcDbEntity
  8
Default
100
AcDbSpline
210
0.0
220
0.0
230
1.0
 70
     8
 71
     3
 72
    47
 73
    43
 74
     0
 42
0.000000001
 43
0.0000000001
 40
36.00001859489052
 40
36.00001859489052
 40
36.00001859489052
 40
36.00001859489052
 40
37.0
 40
38.0
 40
39.0
 40
40.0
 40
41.0
 40
42.0
 40
43.0
 40
44.0
 40
45.0
 40
46.0
 40
47.0
 40
48.0
 40
49.0
 40
50.0
 40
51.0
 40
52.0
 40
53.0
 40
53.0
 40
53.0
 40
54.0
 40
55.0
 40
56.0
 40
57.0
 40
58.0
 40
59.0
 40
60.0
 40
60.0
 40
60.0
 40
61.0
 40
62.0
 40
63.0
 40
64.0
 40
65.0
 40
66.0
 40
67.0
 40
68.0
 40
69.0
 40
70.0
 40
71.0
 40
72.0
 40
72.0
 40
72.0
 40
72.0
 10
0.0
 20
810.9610332551302
 30
0.0
 10
11.18512948279885
 20
810.9421075354426
 30
0.0
 10
33.55782902624105
 20
811.857620260349
 30
0.0
 10
66.87234624374832
 20
816.1395937452379
 30
0.0
 10
99.65983975486961
 20
823.4611527584766
 30
0.0
 10
131.5635626885814
 20
834.0004847167092
 30
0.0
 10
162.1598405565419
 20
847.9244088303802
 30
0.0
 10
190.8141274383815
 20
865.498402437408
 30
0.0
 10
217.2322674415773
 20
886.2947674978114
 30
0.0
 10
240.6928693911286
 20
910.3871844672958
 30
0.0
 10
260.9058679041445
 20
937.2592318166589
 30
0.0
 10
277.243602306975
 20
966.6778647541631
 30
0.0
 10
288.9176660071425
 20
998.2301323156006
 30
0.0
 10
296.589145489048
 20
1030.944414077063
 30
0.0
 10
301.302604709821
 20
1064.192246537996
 30
0.0
 10
303.5707799914344
 20
1097.697795906488
 30
0.0
 10
303.6447058398881
 20
1131.252278859416
 30
0.0
 10
302.2704190781151
 20
1164.831484745331
 30
0.0
 10
297.9122935261294
 20
1186.865314344055
 30
0.0
 10
294.5055886748487
 20
1197.527299170089
 30
0.0
 10
291.1810863575884
 20
1208.000987865811
 30
0.0
 10
284.428947149936
 20
1228.916047347071
 30
0.0
 10
273.7768208095876
 20
1260.115189113881
 30
0.0
 10
262.519840857618
 20
1291.101528860892
 30
0.0
 10
250.578927551076
 20
1321.831825973093
 30
0.0
 10
237.8513592978816
 20
1352.244180764648
 30
0.0
 10
224.3126728419083
 20
1382.30809344967
 30
0.0
 10
214.4653812841352
 20
1401.960745859958
 30
0.0
 10
209.4012806355058
 20
1411.712684439599
 30
0.0
 10
208.366227399034
 20
1413.715463127633
 30
0.0
 10
206.3064929021675
 20
1417.726492172923
 30
0.0
 10
203.3440034828782
 20
1423.807283299802
 30
0.0
 10
200.5948721734712
 20
1429.98782460797
 30
0.0
 10
198.1946521799618
 20
1436.31755932552
 30
0.0
 10
196.3680323917506
 20
1442.831290046013
 30
0.0
 10
195.4353499317294
 20
1449.584753100147
 30
0.0
 10
196.5831776746636
 20
1456.325287716883
 30
0.0
 10
199.5354174644526
 20
1462.4490678489
 30
0.0
 10
202.4767069016925
 20
1468.530324538786
 30
0.0
 10
205.9312424328055
 20
1474.357904874165
 30
0.0
 10
209.8919010838581
 20
1479.844803203616
 30
0.0
 10
216.582901658403
 20
1486.80661449587
 30
0.0
 10
218.0055186562713
 20
1488.555635897597
 30
0.0
  0
SPLINE
  5
502
330
1F
100
AcDbEntity
  8
Default
100
AcDbSpline
210
0.0
220
0.0
230
1.0
 70
     8
 71
     3
 72
    12
 73
     8
 74
     0
 42
0.000000001
 43
0.0000000001
 40
0.0
 40
0.0
 40
0.0
 40
0.0
 40
1.918305221504867
 40
3.868777778011241
 40
7.624449324857683
 40
11.42846767657462
 40
15.35241906764609
 40
15.35241906764609
 40
15.35241906764609
 40
15.35241906764609
 10
-0.0006503481999971
 20
1314.102778167306
 30
0.0
 10
16.23942581041774
 20
1314.116257557509
 30
0.0
 10
49.0016741775471
 20
1310.946076728569
 30
0.0
 10
111.1282600983104
 20
1292.300317043055
 30
0.0
 10
179.1979189590165
 20
1246.206775360684
 30
0.0
 10
232.6517144400277
 20
1162.648503638485
 30
0.0
 10
244.4745622025075
 20
1097.070609515789
 30
0.0
 10
244.4740198429536
 20
1063.86308986215
 30
0.0
  0
SPLINE
  5
503
330
1F
100
AcDbEntity
  8
Default
100
AcDbSpline
210
0.0
220
0.0
230
1.0
 70
     8
 71
     3
 72
    12
 73
     8
 74
     0
 42
0.000000001
 43
0.0000000001
 40
-14.89017236839833
 40
-14.89017236839833
 40
-14.89017236839833
 40
-14.89017236839833
 40
-11.21816917573749
 40
-7.516682162771167
 40
-3.774519558109396
 40
-1.88935509827327
 40
0.0
 40
0.0
 40
0.0
 40
0.0
 10
244.4740198429536
 20
1063.86308986215
 30
0.0
 10
244.4823525904394
 20
1032.76929333669
 30
0.0
 10
231.6006665251553
 20
970.3565291067771
 30
0.0
 10
176.9397175158628
 20
891.4432343816752
 30
0.0
 10
109.2967631917672
 20
847.8346357200988
 30
0.0
 10
47.95406486354477
 20
829.8590472612977
 30
0.0
 10
15.9945601284744
 20
826.7853063272832
 30
0.0
 10
-0.0006513949301734
 20
826.7835850480132
 30
0.0
  0
SPLINE
  5
504
330
1F
100
AcDbEntity
  8
Default
100
AcDbSpline
210
0.0
220
0.0
230
1.0
 70
    12
 71
     2
 72
     6
 73
     3
 74
     0
 42
0.000000001
 43
0.0000000001
 40
0.0
 40
0.0
 40
0.0
 40
0.0853474550214741
 40
0.0853474550214741
 40
0.0853474550214741
 10
-351.8926805540432
 20
1128.426526282395
 30
0.0
 41
1.0
 10
-352.9743710114308
 20
1128.50240568265
 30
0.0
 41
0.9993970637774639
 10
-354.0587194491272
 20
1128.503033889012
 30
0.0
 41
1.0
  0
SPLINE
  5
505
330
1F
100
AcDbEntity
  8
Default
100
AcDbSpline
210
0.0
220
0.0
230
1.0
 70
     8
 71
     3
 72
    12
 73
     8
 74
     0
 42
0.000000001
 43
0.0000000001
 40
0.0
 40
0.0
 40
0.0
 40
0.0
 40
0.1510110321465192
 40
0.3037660471064116
 40
0.5900965017365678
 40
0.8249401141264362
 40
1.014583801502342
 40
1.014583801502342
 40
1.014583801502342
 40
1.014583801502342
 10
-351.0025014480488
 20
1107.93815735779
 30
0.0
 10
-352.2755554532814
 20
1107.813285309852
 30
0.0
 10
-354.848571751234
 20
1107.71600893614
 30
0.0
 10
-359.8383463538485
 20
1108.153190794908
 30
0.0
 10
-365.379185531503
 20
1109.688680142311
 30
0.0
 10
-370.4808965486773
 20
1113.111274971599
 30
0.0
 10
-372.1254075148172
 20
1116.510232774488
 30
0.0
 10
-372.0935691307204
 20
1118.144741653706
 30
0.0
  0
SPLINE
  5
506
330
1F
100
AcDbEntity
  8
Default
100
AcDbSpline
210
0.0
220
0.0
230
1.0
 70
     8
 71
     3
 72
    12
 73
     8
 74
     0
 42
0.000000001
 43
0.0000000001
 40
-1.014583801502342
 40
-1.014583801502342
 40
-1.014583801502342
 40
-1.014583801502342
 40
-0.8249401141264362
 40
-0.5900965017365678
 40
-0.3037660471064116
 40
-0.1510110321465192
 40
0.0
 40
0.0
 40
0.0
 40
0.0
 10
-372.0935691307204
 20
1118.144741653706
 30
0.0
 10
-372.1254075148172
 20
1119.779250532929
 30
0.0
 10
-370.4808965486773
 20
1123.178208335817
 30
0.0
 10
-365.379185531503
 20
1126.600803165105
 30
0.0
 10
-359.8383463538485
 20
1128.136292512508
 30
0.0
 10
-354.848571751234
 20
1128.573474371276
 30
0.0
 10
-352.2755554532814
 20
1128.476197997565
 30
0.0
 10
-351.0025014480488
 20
1128.351325949626
 30
0.0
  0
SPLINE
  5
507
330
1F
100
AcDbEntity
  8
Default
100
AcDbSpline
210
0.0
220
0.0
230
1.0
 70
    12
 71
     2
 72
     6
 73
     3
 74
     0
 42
0.000000001
 43
0.0000000001
 40
0.0
 40
0.0
 40
0.0
 40
0.1369528492222414
 40
0.1369528492222414
 40
0.1369528492222414
 10
-341.3668409115307
 20
1108.807427756905
 30
0.0
 41
1.0
 10
-343.1057331734046
 20
1108.843737961606
 30
0.0
 41
0.9999966913238282
 10
-344.8456137521607
 20
1108.824645621907
 30
0.0
 41
0.9999959461296658
  0
ARC
  5
508
330
1F
100
AcDbEntity
  8
Default
100
AcDbCircle
 10
-345.0544616300613
 20
1096.126362959914
 30
0.0
 40
12.7
100
AcDbArc
 50
89.05774477487231
 51
101.5128478264683
  0
SPLINE
  5
509
330
1F
100
AcDbEntity
  8
Default
100
AcDbSpline
210
0.0
220
0.0
230
1.0
 70
     8
 71
     3
 72
    14
 73
    10
 74
     0
 42
0.000000001
 43
0.0000000001
 40
0.2772630823298201
 40
0.2772630823298201
 40
0.2772630823298201
 40
0.2772630823298201
 40
1.0
 40
2.0
 40
3.0
 40
4.0
 40
5.0
 40
6.0
 40
7.0
 40
7.0
 40
7.0
 40
7.0
 10
-347.5892249711833
 20
1108.570838634065
 30
0.0
 10
-348.5989685779204
 20
1108.365168170696
 30
0.0
 10
-351.0278633393464
 20
1107.9824857037
 30
0.0
 10
-354.9179890806336
 20
1107.862054927917
 30
0.0
 10
-359.1795074483743
 20
1108.31962052683
 30
0.0
 10
-363.3386506511633
 20
1109.374466373347
 30
0.0
 10
-367.2468860382978
 20
1111.164871077444
 30
0.0
 10
-370.5732570605687
 20
1113.961540817117
 30
0.0
 10
-371.7218502293363
 20
1116.704980726424
 30
0.0
 10
-371.708959584379
 20
1118.144754266335
 30
0.0
  0
SPLINE
  5
50A
330
1F
100
AcDbEntity
  8
Default
100
AcDbSpline
210
0.0
220
0.0
230
1.0
 70
     8
 71
     3
 72
    14
 73
    10
 74
     0
 42
0.000000001
 43
0.0000000001
 40
-7.0
 40
-7.0
 40
-7.0
 40
-7.0
 40
-6.0
 40
-5.0
 40
-4.0
 40
-3.0
 40
-2.0
 40
-1.0
 40
-0.2482205602640466
 40
-0.2482205602640466
 40
-0.2482205602640466
 40
-0.2482205602640466
 10
-371.708959584379
 20
1118.144754266335
 30
0.0
 10
-371.7218502293363
 20
1119.584527806239
 30
0.0
 10
-370.5732570605687
 20
1122.327967715549
 30
0.0
 10
-367.2468860382978
 20
1125.124637455223
 30
0.0
 10
-363.3386506511633
 20
1126.91504215932
 30
0.0
 10
-359.1795074483743
 20
1127.969888005837
 30
0.0
 10
-354.9179890806336
 20
1128.42745360475
 30
0.0
 10
-350.9863686719982
 20
1128.30573823425
 30
0.0
 10
-348.51708343473
 20
1127.911350459222
 30
0.0
 10
-347.4675431228716
 20
1127.693657837344
 30
0.0
  0
ARC
  5
50B
330
1F
100
AcDbEntity
  8
Default
100
AcDbCircle
 10
-344.8882446452626
 20
1140.128979279247
 30
0.0
 40
12.7
100
AcDbArc
 50
258.28203212184
 51
271.022420192049
  0
SPLINE
  5
50C
330
1F
100
AcDbEntity
  8
Default
100
AcDbSpline
210
0.0
220
0.0
230
1.0
 70
    12
 71
     2
 72
     6
 73
     3
 74
     0
 42
0.000000001
 43
0.0000000001
 40
-0.1297405451143296
 40
-0.1297405451143296
 40
-0.1297405451143296
 40
0.0
 40
0.0
 40
0.0
 10
-344.66163026914
 20
1127.431001254203
 30
0.0
 41
0.9999960316975588
 10
-343.0141872046988
 20
1127.460402335344
 30
0.0
 41
0.999996865512317
 10
-341.3668409115307
 20
1127.494800947859
 30
0.0
 41
1.0
  0
SPLINE
  5
50D
330
1F
100
AcDbEntity
  8
Default
100
AcDbSpline
210
0.0
220
0.0
230
1.0
 70
     8
 71
     3
 72
    22
 73
    18
 74
     0
 42
0.000000001
 43
0.0000000001
 40
0.0
 40
0.0
 40
0.0
 40
0.0
 40
0.2588469591229587
 40
0.6477254461891114
 40
1.024641027840087
 40
1.817983982162573
 40
2.582167143679937
 40
4.062052734317923
 40
7.850412104674
 40
9.497260537102542
 40
10.543391206404
 40
10.8432833113025
 40
12.15829953678302
 40
13.34949093133962
 40
14.77372714428499
 40
17.25709974516987
 40
21.82793658798906
 40
21.82793658798906
 40
21.82793658798906
 40
21.82793658798906
 10
-196.5619435307853
 20
1454.735018153062
 30
0.0
 10
-196.3586352222628
 20
1452.537235159301
 30
0.0
 10
-197.3424644002225
 20
1447.090029170516
 30
0.0
 10
-200.5051008716073
 20
1438.999035097435
 30
0.0
 10
-206.2026741987829
 20
1427.086444778326
 30
0.0
 10
-214.0253364580494
 20
1412.692060434345
 30
0.0
 10
-225.2884062707344
 20
1389.567963381139
 30
0.0
 10
-246.9121420252923
 20
1343.294865172351
 30
0.0
 10
-269.239754573191
 20
1289.142622151792
 30
0.0
 10
-289.0475311875598
 20
1237.977078403672
 30
0.0
 10
-297.9405658649885
 20
1214.247545783853
 30
0.0
 10
-305.5958809226904
 20
1193.045005648697
 30
0.0
 10
-310.1301611517265
 20
1169.590224833804
 30
0.0
 10
-311.8788726469211
 20
1136.354342083197
 30
0.0
 10
-311.4186766644416
 20
1093.142914195183
 30
0.0
 10
-302.2861164283386
 20
1021.738919913447
 30
0.0
 10
-279.5854479900045
 20
965.4264682259508
 30
0.0
 10
-257.5850009947499
 20
933.4822956838706
 30
0.0
  0
SPLINE
  5
50E
330
1F
100
AcDbEntity
  8
Default
100
AcDbSpline
210
0.0
220
0.0
230
1.0
 70
     8
 71
     3
 72
    19
 73
    15
 74
     0
 42
0.000000001
 43
0.0000000001
 40
-12.0
 40
-12.0
 40
-12.0
 40
-12.0
 40
-11.0
 40
-10.0
 40
-9.0
 40
-8.0
 40
-7.0
 40
-6.0
 40
-5.0
 40
-4.0
 40
-3.0
 40
-2.0
 40
-1.0
 40
0.0
 40
0.0
 40
0.0
 40
0.0
 10
-223.195204846379
 20
1498.471170193856
 30
0.0
 10
-220.00015402598
 20
1503.834890383716
 30
0.0
 10
-207.1784696626055
 20
1507.902453116721
 30
0.0
 10
-189.0630576483818
 20
1512.488937410182
 30
0.0
 10
-170.2782084919272
 20
1515.894498680214
 30
0.0
 10
-151.5575181734639
 20
1518.984442889645
 30
0.0
 10
-132.719896860799
 20
1521.512707918444
 30
0.0
 10
-113.8376903876851
 20
1523.597958349293
 30
0.0
 10
-94.91096382726755
 20
1525.257870845578
 30
0.0
 10
-75.95552833298279
 20
1526.535738823402
 30
0.0
 10
-56.97984227154666
 20
1527.466381836579
 30
0.0
 10
-37.99164488101815
 20
1528.085798998925
 30
0.0
 10
-18.99658889957573
 20
1528.42979735596
 30
0.0
 10
-6.33139463910993
 20
1528.499400107479
 30
0.0
 10
0.0011769193843065
 20
1528.500217640672
 30
0.0
  0
SPLINE
  5
50F
330
1F
100
AcDbEntity
  8
Default
100
AcDbSpline
210
0.0
220
0.0
230
1.0
 70
    12
 71
     2
 72
     6
 73
     3
 74
     0
 42
0.000000001
 43
0.0000000001
 40
-6.233889429224446
 40
-6.233889429224446
 40
-6.233889429224446
 40
0.0
 40
0.0
 40
0.0
 10
0.0011769193843065
 20
1541.903454747991
 30
0.0
 41
1.0
 10
-79.34262533631408
 20
1542.050839366615
 30
0.0
 41
0.996730330589404
 10
-157.6737666886329
 20
1529.416518038053
 30
0.0
 41
1.0
  0
SPLINE
  5
510
330
1F
100
AcDbEntity
  8
Default
100
AcDbSpline
210
0.0
220
0.0
230
1.0
 70
     8
 71
     3
 72
    12
 73
     8
 74
     0
 42
0.000000001
 43
0.0000000001
 40
0.0
 40
0.0
 40
0.0
 40
0.0
 40
0.8495817757806477
 40
1.391422022197968
 40
2.191064820612614
 40
2.689385262996221
 40
3.111933853859593
 40
3.111933853859593
 40
3.111933853859593
 40
3.111933853859593
 10
-157.6737666886329
 20
1529.416518038053
 30
0.0
 10
-164.7803980906537
 20
1528.14461115956
 30
0.0
 10
-176.3737793658074
 20
1526.367644435266
 30
0.0
 10
-194.5825157378058
 20
1522.521606389915
 30
0.0
 10
-209.5828074609526
 20
1518.468379327934
 30
0.0
 10
-222.4219160193352
 20
1510.725313457455
 30
0.0
 10
-224.3447506301854
 20
1502.127697003814
 30
0.0
 10
-223.2334795193056
 20
1498.610765576619
 30
0.0
  0
SPLINE
  5
511
330
1F
100
AcDbEntity
  8
Default
100
AcDbSpline
210
0.0
220
0.0
230
1.0
 70
    12
 71
     2
 72
     6
 73
     3
 74
     0
 42
0.000000001
 43
0.0000000001
 40
0.0
 40
0.0
 40
0.0
 40
0.443505275079806
 40
0.443505275079806
 40
0.443505275079806
 10
-223.2334795193056
 20
1498.610765576619
 30
0.0
 41
1.0
 10
-221.6079920386146
 20
1492.984658645329
 30
0.0
 41
0.9799943751373794
 10
-218.0055186562713
 20
1488.555635897597
 30
0.0
 41
1.0
  0
SPLINE
  5
512
330
1F
100
AcDbEntity
  8
Default
100
AcDbSpline
210
0.0
220
0.0
230
1.0
 70
    12
 71
     2
 72
     6
 73
     3
 74
     0
 42
0.000000001
 43
0.0000000001
 40
-5.654573080352872
 40
-5.654573080352872
 40
-5.654573080352872
 40
0.0
 40
0.0
 40
0.0
 10
-142.981744615663
 20
1531.784638066971
 30
0.0
 41
1.0
 10
-71.9674671593857
 20
1543.463971868774
 30
0.0
 41
0.9967681786255456
 10
0.0011769193843065
 20
1543.620031277854
 30
0.0
 41
1.0
  0
SPLINE
  5
513
330
1F
100
AcDbEntity
  8
Default
100
AcDbSpline
210
0.0
220
0.0
230
1.0
 70
    12
 71
     2
 72
     6
 73
     3
 74
     0
 42
0.000000001
 43
0.0000000001
 40
-1.102413928352738
 40
-1.102413928352738
 40
-1.102413928352738
 40
0.0
 40
0.0
 40
0.0
 10
-311.6269915583616
 20
1127.833464884943
 30
0.0
 41
0.9999999993925147
 10
-325.6358404821149
 20
1127.678232635664
 30
0.0
 41
0.9999999996616539
 10
-339.6457224796723
 20
1127.523160870225
 30
0.0
 41
1.0
  0
SPLINE
  5
514
330
1F
100
AcDbEntity
  8
Default
100
AcDbSpline
210
0.0
220
0.0
230
1.0
 70
     8
 71
     3
 72
    14
 73
    10
 74
     0
 42
0.000000001
 43
0.0000000001
 40
0.0
 40
0.0
 40
0.0
 40
0.0
 40
1.0
 40
2.0
 40
3.0
 40
4.0
 40
5.0
 40
6.0
 40
7.0
 40
7.0
 40
7.0
 40
7.0
 10
-339.6457224796723
 20
1127.523160870225
 30
0.0
 10
-341.4314850510164
 20
1127.496493696666
 30
0.0
 10
-344.8004379881095
 20
1126.980948205661
 30
0.0
 10
-349.4328181515848
 20
1124.802012846188
 30
0.0
 10
-352.8570186378347
 20
1120.75338068892
 30
0.0
 10
-352.771234854863
 20
1115.338419079357
 30
0.0
 10
-349.2667634945537
 20
1111.372047285438
 30
0.0
 10
-344.6086758980855
 20
1109.253163168048
 30
0.0
 10
-341.2346084264282
 20
1108.772899523252
 30
0.0
 10
-339.5471998541143
 20
1108.772141507796
 30
0.0
  0
SPLINE
  5
515
330
1F
100
AcDbEntity
  8
Default
100
AcDbSpline
210
0.0
220
0.0
230
1.0
 70
    12
 71
     2
 72
     6
 73
     3
 74
     0
 42
0.000000001
 43
0.0000000001
 40
0.0
 40
0.0
 40
0.0
 40
1.112498698414412
 40
1.112498698414412
 40
1.112498698414412
 10
-339.5471998541143
 20
1108.772141507796
 30
0.0
 41
1.0
 10
-325.419325167768
 20
1108.616366011074
 30
0.0
 41
0.9999999996585591
 10
-311.2914530989328
 20
1108.460353303026
 30
0.0
 41
0.9999999993875963
  0
SPLINE
  5
516
330
1F
100
AcDbEntity
  8
Default
100
AcDbSpline
210
0.0
220
0.0
230
1.0
 70
     8
 71
     3
 72
    47
 73
    43
 74
     0
 42
0.000000001
 43
0.0000000001
 40
36.00001859489052
 40
36.00001859489052
 40
36.00001859489052
 40
36.00001859489052
 40
37.0
 40
38.0
 40
39.0
 40
40.0
 40
41.0
 40
42.0
 40
43.0
 40
44.0
 40
45.0
 40
46.0
 40
47.0
 40
48.0
 40
49.0
 40
50.0
 40
51.0
 40
52.0
 40
53.0
 40
53.0
 40
53.0
 40
54.0
 40
55.0
 40
56.0
 40
57.0
 40
58.0
 40
59.0
 40
60.0
 40
60.0
 40
60.0
 40
61.0
 40
62.0
 40
63.0
 40
64.0
 40
65.0
 40
66.0
 40
67.0
 40
68.0
 40
69.0
 40
70.0
 40
71.0
 40
72.0
 40
72.0
 40
72.0
 40
72.0
 10
0.0
 20
810.9610332551302
 30
0.0
 10
-11.18512948279885
 20
810.9421075354426
 30
0.0
 10
-33.55782902624105
 20
811.857620260349
 30
0.0
 10
-66.87234624374832
 20
816.1395937452379
 30
0.0
 10
-99.65983975486961
 20
823.4611527584766
 30
0.0
 10
-131.5635626885814
 20
834.0004847167092
 30
0.0
 10
-162.1598405565419
 20
847.9244088303802
 30
0.0
 10
-190.8141274383815
 20
865.498402437408
 30
0.0
 10
-217.2322674415773
 20
886.2947674978114
 30
0.0
 10
-240.6928693911286
 20
910.3871844672958
 30
0.0
 10
-260.9058679041445
 20
937.2592318166589
 30
0.0
 10
-277.243602306975
 20
966.6778647541631
 30
0.0
 10
-288.9176660071425
 20
998.2301323156006
 30
0.0
 10
-296.589145489048
 20
1030.944414077063
 30
0.0
 10
-301.302604709821
 20
1064.192246537996
 30
0.0
 10
-303.5707799914344
 20
1097.697795906488
 30
0.0
 10
-303.6447058398881
 20
1131.252278859416
 30
0.0
 10
-302.2704190781151
 20
1164.831484745331
 30
0.0
 10
-297.9122935261294
 20
1186.865314344055
 30
0.0
 10
-294.5055886748487
 20
1197.527299170089
 30
0.0
 10
-291.1810863575884
 20
1208.000987865811
 30
0.0
 10
-284.428947149936
 20
1228.916047347071
 30
0.0
 10
-273.7768208095876
 20
1260.115189113881
 30
0.0
 10
-262.519840857618
 20
1291.101528860892
 30
0.0
 10
-250.578927551076
 20
1321.831825973093
 30
0.0
 10
-237.8513592978816
 20
1352.244180764648
 30
0.0
 10
-224.3126728419083
 20
1382.30809344967
 30
0.0
 10
-214.4653812841352
 20
1401.960745859958
 30
0.0
 10
-209.4012806355058
 20
1411.712684439599
 30
0.0
 10
-208.366227399034
 20
1413.715463127633
 30
0.0
 10
-206.3064929021675
 20
1417.726492172923
 30
0.0
 10
-203.3440034828782
 20
1423.807283299802
 30
0.0
 10
-200.5948721734712
 20
1429.98782460797
 30
0.0
 10
-198.1946521799618
 20
1436.31755932552
 30
0.0
 10
-196.3680323917506
 20
1442.831290046013
 30
0.0
 10
-195.4353499317294
 20
1449.584753100147
 30
0.0
 10
-196.5831776746636
 20
1456.325287716883
 30
0.0
 10
-199.5354174644526
 20
1462.4490678489
 30
0.0
 10
-202.4767069016925
 20
1468.530324538786
 30
0.0
 10
-205.9312424328055
 20
1474.357904874165
 30
0.0
 10
-209.8919010838581
 20
1479.844803203616
 30
0.0
 10
-216.582901658403
 20
1486.80661449587
 30
0.0
 10
-218.0055186562713
 20
1488.555635897597
 30
0.0
  0
SPLINE
  5
517
330
1F
100
AcDbEntity
  8
Default
100
AcDbSpline
210
0.0
220
0.0
230
1.0
 70
     8
 71
     3
 72
    12
 73
     8
 74
     0
 42
0.000000001
 43
0.0000000001
 40
0.0
 40
0.0
 40
0.0
 40
0.0
 40
1.918305221504867
 40
3.868777778011241
 40
7.624449324857683
 40
11.42846767657462
 40
15.35241906764609
 40
15.35241906764609
 40
15.35241906764609
 40
15.35241906764609
 10
0.0006503481999971
 20
1314.102778167306
 30
0.0
 10
-16.23942581041774
 20
1314.116257557509
 30
0.0
 10
-49.0016741775471
 20
1310.946076728569
 30
0.0
 10
-111.1282600983104
 20
1292.300317043055
 30
0.0
 10
-179.1979189590165
 20
1246.206775360684
 30
0.0
 10
-232.6517144400277
 20
1162.648503638485
 30
0.0
 10
-244.4745622025075
 20
1097.070609515789
 30
0.0
 10
-244.4740198429536
 20
1063.86308986215
 30
0.0
  0
SPLINE
  5
518
330
1F
100
AcDbEntity
  8
Default
100
AcDbSpline
210
0.0
220
0.0
230
1.0
 70
     8
 71
     3
 72
    12
 73
     8
 74
     0
 42
0.000000001
 43
0.0000000001
 40
-14.89017236839833
 40
-14.89017236839833
 40
-14.89017236839833
 40
-14.89017236839833
 40
-11.21816917573749
 40
-7.516682162771167
 40
-3.774519558109396
 40
-1.88935509827327
 40
0.0
 40
0.0
 40
0.0
 40
0.0
 10
-244.4740198429536
 20
1063.86308986215
 30
0.0
 10
-244.4823525904394
 20
1032.76929333669
 30
0.0
 10
-231.6006665251553
 20
970.3565291067771
 30
0.0
 10
-176.9397175158628
 20
891.4432343816752
 30
0.0
 10
-109.2967631917672
 20
847.8346357200988
 30
0.0
 10
-47.95406486354477
 20
829.8590472612977
 30
0.0
 10
-15.9945601284744
 20
826.7853063272832
 30
0.0
 10
0.0006513949301734
 20
826.7835850480132
 30
0.0
  0
SPLINE
  5
519
330
1F
100
AcDbEntity
  8
Default
100
AcDbSpline
210
0.0
220
0.0
230
1.0
 70
     8
 71
     3
 72
    12
 73
     8
 74
     0
 42
0.000000001
 43
0.0000000001
 40
0.0
 40
0.0
 40
0.0
 40
0.0
 40
0.1510110321465192
 40
0.3037660471064116
 40
0.5900965017365678
 40
0.8249401141264362
 40
1.014583801502342
 40
1.014583801502342
 40
1.014583801502342
 40
1.014583801502342
 10
-10.2065842959164
 20
-770.2468828002661
 30
0.0
 10
-10.33145634385437
 20
-768.9738287950372
 30
0.0
 10
-10.42873271756616
 20
-766.4008124970846
 30
0.0
 10
-9.991550858798291
 20
-761.4110378944665
 30
0.0
 10
-8.456061511395091
 20
-755.8701987168083
 30
0.0
 10
-5.033466682107246
 20
-750.7684876996377
 30
0.0
 10
-1.634508879218628
 20
-749.1239767334977
 30
0.0
 10
0.0
 20
-749.1558151175982
 30
0.0
  0
SPLINE
  5
51A
330
1F
100
AcDbEntity
  8
Default
100
AcDbSpline
210
0.0
220
0.0
230
1.0
 70
     8
 71
     3
 72
    12
 73
     8
 74
     0
 42
0.000000001
 43
0.0000000001
 40
-1.014583801502342
 40
-1.014583801502342
 40
-1.014583801502342
 40
-1.014583801502342
 40
-0.8249401141264362
 40
-0.5900965017365678
 40
-0.3037660471064116
 40
-0.1510110321465192
 40
0.0
 40
0.0
 40
0.0
 40
0.0
 10
0.0
 20
-749.1558151175982
 30
0.0
 10
1.634508879222266
 20
-749.1239767334977
 30
0.0
 10
5.033466682110883
 20
-750.7684876996377
 30
0.0
 10
8.456061511398729
 20
-755.8701987168083
 30
0.0
 10
9.991550858801929
 20
-761.4110378944665
 30
0.0
 10
10.4287327175698
 20
-766.4008124970846
 30
0.0
 10
10.331456343858
 20
-768.9738287950372
 30
0.0
 10
10.2065842959164
 20
-770.2468828002661
 30
0.0
  0
SPLINE
  5
51B
330
1F
100
AcDbEntity
  8
Default
100
AcDbSpline
210
0.0
220
0.0
230
1.0
 70
    12
 71
     2
 72
     6
 73
     3
 74
     0
 42
0.000000001
 43
0.0000000001
 40
0.0
 40
0.0
 40
0.0
 40
0.1369528492222414
 40
0.1369528492222414
 40
0.1369528492222414
 10
-9.337313896801788
 20
-779.8825433367842
 30
0.0
 41
1.0
 10
-9.301003692100493
 20
-778.1436510749068
 30
0.0
 41
0.9999966913238282
 10
-9.320096031799039
 20
-776.4037704961578
 30
0.0
 41
0.9999959461296658
  0
ARC
  5
51C
330
1F
100
AcDbEntity
  8
Default
100
AcDbCircle
 10
-22.01837869379233
 20
-776.1949226182573
 30
0.0
 40
12.7
100
AcDbArc
 50
359.0577447748725
 51
11.51284782646736
  0
SPLINE
  5
51D
330
1F
100
AcDbEntity
  8
Default
100
AcDbSpline
210
0.0
220
0.0
230
1.0
 70
     8
 71
     3
 72
    14
 73
    10
 74
     0
 42
0.000000001
 43
0.0000000001
 40
0.2772630823298201
 40
0.2772630823298201
 40
0.2772630823298201
 40
0.2772630823298201
 40
1.0
 40
2.0
 40
3.0
 40
4.0
 40
5.0
 40
6.0
 40
7.0
 40
7.0
 40
7.0
 40
7.0
 10
-9.573903019641875
 20
-773.6601592771353
 30
0.0
 10
-9.779573483010608
 20
-772.6504156703981
 30
0.0
 10
-10.16225595000651
 20
-770.2215209089686
 30
0.0
 10
-10.28268672578997
 20
-766.331395167685
 30
0.0
 10
-9.825121126876183
 20
-762.0698767999406
 30
0.0
 10
-8.770275280359783
 20
-757.9107335971516
 30
0.0
 10
-6.979870576262328
 20
-754.0024982100208
 30
0.0
 10
-4.183200836589094
 20
-750.6761271877462
 30
0.0
 10
-1.439760927281895
 20
-749.5275340189786
 30
0.0
 10
0.0000126126251416
 20
-749.5404246639359
 30
0.0
  0
SPLINE
  5
51E
330
1F
100
AcDbEntity
  8
Default
100
AcDbSpline
210
0.0
220
0.0
230
1.0
 70
     8
 71
     3
 72
    14
 73
    10
 74
     0
 42
0.000000001
 43
0.0000000001
 40
-7.0
 40
-7.0
 40
-7.0
 40
-7.0
 40
-6.0
 40
-5.0
 40
-4.0
 40
-3.0
 40
-2.0
 40
-1.0
 40
-0.2482205602640466
 40
-0.2482205602640466
 40
-0.2482205602640466
 40
-0.2482205602640466
 10
0.0000126126251416
 20
-749.5404246639359
 30
0.0
 10
1.439786152535816
 20
-749.5275340189786
 30
0.0
 10
4.183226061843015
 20
-750.6761271877462
 30
0.0
 10
6.979895801516249
 20
-754.0024982100208
 30
0.0
 10
8.770300505613704
 20
-757.9107335971516
 30
0.0
 10
9.825146352130104
 20
-762.0698767999406
 30
0.0
 10
10.28271195104389
 20
-766.331395167685
 30
0.0
 10
10.16099658054372
 20
-770.2630155763204
 30
0.0
 10
9.766608805515716
 20
-772.7323008135849
 30
0.0
 10
9.548916183637629
 20
-773.781841125447
 30
0.0
  0
ARC
  5
51F
330
1F
100
AcDbEntity
  8
Default
100
AcDbCircle
 10
21.98423762554012
 20
-776.3611396030487
 30
0.0
 40
12.7
100
AcDbArc
 50
168.2820321218351
 51
181.0224201920359
  0
SPLINE
  5
520
330
1F
100
AcDbEntity
  8
Default
100
AcDbSpline
210
0.0
220
0.0
230
1.0
 70
    12
 71
     2
 72
     6
 73
     3
 74
     0
 42
0.000000001
 43
0.0000000001
 40
-0.1297405451143296
 40
-0.1297405451143296
 40
-0.1297405451143296
 40
0.0
 40
0.0
 40
0.0
 10
9.286259600496123
 20
-776.5877539791749
 30
0.0
 41
0.9999960316975588
 10
9.315660681637382
 20
-778.2351970436198
 30
0.0
 41
0.999996865512317
 10
9.350059294152742
 20
-779.8825433367842
 30
0.0
 41
1.0
  0
SPLINE
  5
521
330
1F
100
AcDbEntity
  8
Default
100
AcDbSpline
210
0.0
220
0.0
230
1.0
 70
    12
 71
     2
 72
     6
 73
     3
 74
     0
 42
0.000000001
 43
0.0000000001
 40
0.0
 40
0.0
 40
0.0
 40
0.0853474550214741
 40
0.0853474550214741
 40
0.0853474550214741
 10
10.28178462868891
 20
-769.3567036942718
 30
0.0
 41
1.0
 10
10.35766402894296
 20
-768.2750132368878
 30
0.0
 41
0.9993970637774639
 10
10.35829223530527
 20
-767.1906647991914
 30
0.0
 41
1.0
  0
SPLINE
  5
522
330
1F
100
AcDbEntity
  8
Default
100
AcDbSpline
210
0.0
220
0.0
230
1.0
 70
    12
 71
     2
 72
     6
 73
     3
 74
     0
 42
0.000000001
 43
0.0000000001
 40
0.0
 40
0.0
 40
0.0
 40
0.0853474550214741
 40
0.0853474550214741
 40
0.0853474550214741
 10
351.8926805540432
 20
-1131.531169168773
 30
0.0
 41
1.0
 10
352.9743710114308
 20
-1131.607048569027
 30
0.0
 41
0.9993970637774639
 10
354.0587194491272
 20
-1131.60767677539
 30
0.0
 41
1.0
  0
SPLINE
  5
523
330
1F
100
AcDbEntity
  8
Default
100
AcDbSpline
210
0.0
220
0.0
230
1.0
 70
     8
 71
     3
 72
    12
 73
     8
 74
     0
 42
0.000000001
 43
0.0000000001
 40
0.0
 40
0.0
 40
0.0
 40
0.0
 40
0.1510110321465192
 40
0.3037660471064116
 40
0.5900965017365678
 40
0.8249401141264362
 40
1.014583801502342
 40
1.014583801502342
 40
1.014583801502342
 40
1.014583801502342
 10
351.0025014480488
 20
-1111.042800244168
 30
0.0
 10
352.2755554532814
 20
-1110.91792819623
 30
0.0
 10
354.848571751234
 20
-1110.820651822518
 30
0.0
 10
359.8383463538485
 20
-1111.257833681286
 30
0.0
 10
365.379185531503
 20
-1112.793323028689
 30
0.0
 10
370.4808965486773
 20
-1116.215917857977
 30
0.0
 10
372.1254075148172
 20
-1119.614875660866
 30
0.0
 10
372.0935691307204
 20
-1121.249384540084
 30
0.0
  0
SPLINE
  5
524
330
1F
100
AcDbEntity
  8
Default
100
AcDbSpline
210
0.0
220
0.0
230
1.0
 70
     8
 71
     3
 72
    12
 73
     8
 74
     0
 42
0.000000001
 43
0.0000000001
 40
-1.014583801502342
 40
-1.014583801502342
 40
-1.014583801502342
 40
-1.014583801502342
 40
-0.8249401141264362
 40
-0.5900965017365678
 40
-0.3037660471064116
 40
-0.1510110321465192
 40
0.0
 40
0.0
 40
0.0
 40
0.0
 10
372.0935691307204
 20
-1121.249384540084
 30
0.0
 10
372.1254075148172
 20
-1122.883893419307
 30
0.0
 10
370.4808965486773
 20
-1126.282851222195
 30
0.0
 10
365.379185531503
 20
-1129.705446051483
 30
0.0
 10
359.8383463538485
 20
-1131.240935398886
 30
0.0
 10
354.848571751234
 20
-1131.678117257654
 30
0.0
 10
352.2755554532814
 20
-1131.580840883942
 30
0.0
 10
351.0025014480488
 20
-1131.455968836004
 30
0.0
  0
SPLINE
  5
525
330
1F
100
AcDbEntity
  8
Default
100
AcDbSpline
210
0.0
220
0.0
230
1.0
 70
    12
 71
     2
 72
     6
 73
     3
 74
     0
 42
0.000000001
 43
0.0000000001
 40
0.0
 40
0.0
 40
0.0
 40
0.1369528492222414
 40
0.1369528492222414
 40
0.1369528492222414
 10
341.3668409115307
 20
-1111.912070643283
 30
0.0
 41
1.0
 10
343.1057331734046
 20
-1111.948380847984
 30
0.0
 41
0.9999966913238282
 10
344.8456137521607
 20
-1111.929288508285
 30
0.0
 41
0.9999959461296658
  0
ARC
  5
526
330
1F
100
AcDbEntity
  8
Default
100
AcDbCircle
 10
345.0544616300613
 20
-1099.231005846292
 30
0.0
 40
12.7
100
AcDbArc
 50
269.0577447748723
 51
281.5128478264683
  0
SPLINE
  5
527
330
1F
100
AcDbEntity
  8
Default
100
AcDbSpline
210
0.0
220
0.0
230
1.0
 70
     8
 71
     3
 72
    14
 73
    10
 74
     0
 42
0.000000001
 43
0.0000000001
 40
0.2772630823298201
 40
0.2772630823298201
 40
0.2772630823298201
 40
0.2772630823298201
 40
1.0
 40
2.0
 40
3.0
 40
4.0
 40
5.0
 40
6.0
 40
7.0
 40
7.0
 40
7.0
 40
7.0
 10
347.5892249711833
 20
-1111.675481520443
 30
0.0
 10
348.5989685779204
 20
-1111.469811057074
 30
0.0
 10
351.0278633393464
 20
-1111.087128590078
 30
0.0
 10
354.9179890806336
 20
-1110.966697814294
 30
0.0
 10
359.1795074483743
 20
-1111.424263413208
 30
0.0
 10
363.3386506511633
 20
-1112.479109259725
 30
0.0
 10
367.2468860382978
 20
-1114.269513963822
 30
0.0
 10
370.5732570605687
 20
-1117.066183703495
 30
0.0
 10
371.7218502293363
 20
-1119.809623612803
 30
0.0
 10
371.708959584379
 20
-1121.249397152713
 30
0.0
  0
SPLINE
  5
528
330
1F
100
AcDbEntity
  8
Default
100
AcDbSpline
210
0.0
220
0.0
230
1.0
 70
     8
 71
     3
 72
    14
 73
    10
 74
     0
 42
0.000000001
 43
0.0000000001
 40
-7.0
 40
-7.0
 40
-7.0
 40
-7.0
 40
-6.0
 40
-5.0
 40
-4.0
 40
-3.0
 40
-2.0
 40
-1.0
 40
-0.2482205602640466
 40
-0.2482205602640466
 40
-0.2482205602640466
 40
-0.2482205602640466
 10
371.708959584379
 20
-1121.249397152713
 30
0.0
 10
371.7218502293363
 20
-1122.689170692616
 30
0.0
 10
370.5732570605687
 20
-1125.432610601927
 30
0.0
 10
367.2468860382978
 20
-1128.2292803416
 30
0.0
 10
363.3386506511633
 20
-1130.019685045698
 30
0.0
 10
359.1795074483743
 20
-1131.074530892214
 30
0.0
 10
354.9179890806336
 20
-1131.532096491128
 30
0.0
 10
350.9863686719982
 20
-1131.410381120628
 30
0.0
 10
348.51708343473
 20
-1131.0159933456
 30
0.0
 10
347.4675431228716
 20
-1130.798300723722
 30
0.0
  0
ARC
  5
529
330
1F
100
AcDbEntity
  8
Default
100
AcDbCircle
 10
344.8882446452626
 20
-1143.233622165624
 30
0.0
 40
12.7
100
AcDbArc
 50
78.28203212183996
 51
91.02242019204899
  0
SPLINE
  5
52A
330
1F
100
AcDbEntity
  8
Default
100
AcDbSpline
210
0.0
220
0.0
230
1.0
 70
    12
 71
     2
 72
     6
 73
     3
 74
     0
 42
0.000000001
 43
0.0000000001
 40
-0.1297405451143296
 40
-0.1297405451143296
 40
-0.1297405451143296
 40
0.0
 40
0.0
 40
0.0
 10
344.66163026914
 20
-1130.53564414058
 30
0.0
 41
0.9999960316975588
 10
343.0141872046988
 20
-1130.565045221722
 30
0.0
 41
0.999996865512317
 10
341.3668409115307
 20
-1130.599443834237
 30
0.0
 41
1.0
  0
SPLINE
  5
52B
330
1F
100
AcDbEntity
  8
Default
100
AcDbSpline
210
0.0
220
0.0
230
1.0
 70
    12
 71
     2
 72
     6
 73
     3
 74
     0
 42
0.000000001
 43
0.0000000001
 40
0.0
 40
0.0
 40
0.0
 40
0.0587632096241838
 40
0.0587632096241838
 40
0.0587632096241838
 10
1.476650285872892
 20
-749.6633904197793
 30
0.0
 41
1.0
 10
0.7502618474427436
 20
-749.4756886353411
 30
0.0
 41
0.9921107855315545
 10
0.0000146309757838
 20
-749.4745761805229
 30
0.0
 41
1.0
  0
SPLINE
  5
52C
330
1F
100
AcDbEntity
  8
Default
100
AcDbSpline
210
0.0
220
0.0
230
1.0
 70
    24
 71
     2
 72
     6
 73
     3
 74
     0
 42
0.000000001
 43
0.0000000001
 40
0.0
 40
0.0
 40
0.0
 40
0.0114467396849787
 40
0.0114467396849787
 40
0.0114467396849787
 10
-0.000000143671059
 20
-749.4745761805011
 30
0.0
 10
-0.0000000781474228
 20
-749.3292025865034
 30
0.0
 10
-0.0000000126274244
 20
-749.1838289925022
 30
0.0
  0
SPLINE
  5
52D
330
1F
100
AcDbEntity
  8
Default
100
AcDbSpline
210
0.0
220
0.0
230
1.0
 70
    12
 71
     2
 72
     6
 73
     3
 74
     0
 42
0.000000001
 43
0.0000000001
 40
0.0
 40
0.0
 40
0.0
 40
0.0586712320260919
 40
0.0586712320260919
 40
0.0586712320260919
 10
-0.000000143671059
 20
-749.4745761805011
 30
0.0
 41
1.0
 10
-0.7490611959801754
 20
-749.4756806030149
 30
0.0
 41
0.9921343149382712
 10
-1.474373098608339
 20
-749.6628070943029
 30
0.0
 41
1.0
  0
SPLINE
  5
52E
330
1F
100
AcDbEntity
  8
Default
100
AcDbSpline
210
0.0
220
0.0
230
1.0
 70
     8
 71
     3
 72
    22
 73
    18
 74
     0
 42
0.000000001
 43
0.0000000001
 40
0.0
 40
0.0
 40
0.0
 40
0.0
 40
0.2588469591229587
 40
0.6477254461891114
 40
1.024641027840087
 40
1.817983982162573
 40
2.582167143679937
 40
4.062052734317923
 40
7.850412104674
 40
9.497260537102542
 40
10.543391206404
 40
10.8432833113025
 40
12.15829953678302
 40
13.34949093133962
 40
14.77372714428499
 40
17.25709974516987
 40
21.82793658798906
 40
21.82793658798906
 40
21.82793658798906
 40
21.82793658798906
 10
196.5619435307853
 20
-1457.83966103944
 30
0.0
 10
196.3586352222628
 20
-1455.641878045679
 30
0.0
 10
197.3424644002225
 20
-1450.194672056894
 30
0.0
 10
200.5051008716073
 20
-1442.103677983813
 30
0.0
 10
206.2026741987829
 20
-1430.191087664704
 30
0.0
 10
214.0253364580494
 20
-1415.796703320723
 30
0.0
 10
225.2884062707344
 20
-1392.672606267517
 30
0.0
 10
246.9121420252923
 20
-1346.399508058729
 30
0.0
 10
269.239754573191
 20
-1292.24726503817
 30
0.0
 10
289.0475311875598
 20
-1241.08172129005
 30
0.0
 10
297.9405658649885
 20
-1217.352188670231
 30
0.0
 10
305.5958809226904
 20
-1196.149648535075
 30
0.0
 10
310.1301611517265
 20
-1172.694867720182
 30
0.0
 10
311.8788726469211
 20
-1139.458984969575
 30
0.0
 10
311.4186766644416
 20
-1096.247557081561
 30
0.0
 10
302.2861164283386
 20
-1024.843562799824
 30
0.0
 10
279.5854479900045
 20
-968.5311111123287
 30
0.0
 10
257.5850009947499
 20
-936.5869385702485
 30
0.0
  0
SPLINE
  5
52F
330
1F
100
AcDbEntity
  8
Default
100
AcDbSpline
210
0.0
220
0.0
230
1.0
 70
     8
 71
     3
 72
    19
 73
    15
 74
     0
 42
0.000000001
 43
0.0000000001
 40
-12.0
 40
-12.0
 40
-12.0
 40
-12.0
 40
-11.0
 40
-10.0
 40
-9.0
 40
-8.0
 40
-7.0
 40
-6.0
 40
-5.0
 40
-4.0
 40
-3.0
 40
-2.0
 40
-1.0
 40
0.0
 40
0.0
 40
0.0
 40
0.0
 10
223.195204846379
 20
-1501.575813080234
 30
0.0
 10
220.00015402598
 20
-1506.939533270094
 30
0.0
 10
207.1784696626055
 20
-1511.007096003099
 30
0.0
 10
189.0630576483818
 20
-1515.59358029656
 30
0.0
 10
170.2782084919272
 20
-1518.999141566592
 30
0.0
 10
151.5575181734639
 20
-1522.089085776023
 30
0.0
 10
132.719896860799
 20
-1524.617350804822
 30
0.0
 10
113.8376903876851
 20
-1526.702601235671
 30
0.0
 10
94.91096382726755
 20
-1528.362513731956
 30
0.0
 10
75.95552833298279
 20
-1529.64038170978
 30
0.0
 10
56.97984227154666
 20
-1530.571024722957
 30
0.0
 10
37.99164488101815
 20
-1531.190441885303
 30
0.0
 10
18.99658889957573
 20
-1531.534440242338
 30
0.0
 10
6.33139463910993
 20
-1531.604042993857
 30
0.0
 10
-0.0011769193843065
 20
-1531.60486052705
 30
0.0
  0
SPLINE
  5
530
330
1F
100
AcDbEntity
  8
Default
100
AcDbSpline
210
0.0
220
0.0
230
1.0
 70
    12
 71
     2
 72
     6
 73
     3
 74
     0
 42
0.000000001
 43
0.0000000001
 40
-6.233889429224446
 40
-6.233889429224446
 40
-6.233889429224446
 40
0.0
 40
0.0
 40
0.0
 10
-0.0011769193843065
 20
-1545.008097634369
 30
0.0
 41
1.0
 10
79.34262533631408
 20
-1545.155482252993
 30
0.0
 41
0.996730330589404
 10
157.6737666886329
 20
-1532.521160924431
 30
0.0
 41
1.0
  0
SPLINE
  5
531
330
1F
100
AcDbEntity
  8
Default
100
AcDbSpline
210
0.0
220
0.0
230
1.0
 70
     8
 71
     3
 72
    12
 73
     8
 74
     0
 42
0.000000001
 43
0.0000000001
 40
0.0
 40
0.0
 40
0.0
 40
0.0
 40
0.8495817757806477
 40
1.391422022197968
 40
2.191064820612614
 40
2.689385262996221
 40
3.111933853859593
 40
3.111933853859593
 40
3.111933853859593
 40
3.111933853859593
 10
157.6737666886329
 20
-1532.521160924431
 30
0.0
 10
164.7803980906537
 20
-1531.249254045937
 30
0.0
 10
176.3737793658074
 20
-1529.472287321644
 30
0.0
 10
194.5825157378058
 20
-1525.626249276293
 30
0.0
 10
209.5828074609526
 20
-1521.573022214312
 30
0.0
 10
222.4219160193352
 20
-1513.829956343833
 30
0.0
 10
224.3447506301854
 20
-1505.232339890192
 30
0.0
 10
223.2334795193056
 20
-1501.715408462997
 30
0.0
  0
SPLINE
  5
532
330
1F
100
AcDbEntity
  8
Default
100
AcDbSpline
210
0.0
220
0.0
230
1.0
 70
    12
 71
     2
 72
     6
 73
     3
 74
     0
 42
0.000000001
 43
0.0000000001
 40
0.0
 40
0.0
 40
0.0
 40
0.443505275079806
 40
0.443505275079806
 40
0.443505275079806
 10
223.2334795193056
 20
-1501.715408462997
 30
0.0
 41
1.0
 10
221.6079920386146
 20
-1496.089301531707
 30
0.0
 41
0.9799943751373794
 10
218.0055186562713
 20
-1491.660278783975
 30
0.0
 41
1.0
  0
SPLINE
  5
533
330
1F
100
AcDbEntity
  8
Default
100
AcDbSpline
210
0.0
220
0.0
230
1.0
 70
    12
 71
     2
 72
     6
 73
     3
 74
     0
 42
0.000000001
 43
0.0000000001
 40
-5.654573080352872
 40
-5.654573080352872
 40
-5.654573080352872
 40
0.0
 40
0.0
 40
0.0
 10
142.981744615663
 20
-1534.889280953349
 30
0.0
 41
1.0
 10
71.9674671593857
 20
-1546.568614755152
 30
0.0
 41
0.9967681786255456
 10
-0.0011769193843065
 20
-1546.724674164232
 30
0.0
 41
1.0
  0
SPLINE
  5
534
330
1F
100
AcDbEntity
  8
Default
100
AcDbSpline
210
0.0
220
0.0
230
1.0
 70
    12
 71
     2
 72
     6
 73
     3
 74
     0
 42
0.000000001
 43
0.0000000001
 40
-1.102413928352738
 40
-1.102413928352738
 40
-1.102413928352738
 40
0.0
 40
0.0
 40
0.0
 10
311.6269915583616
 20
-1130.938107771321
 30
0.0
 41
0.9999999993925147
 10
325.6358404821149
 20
-1130.782875522042
 30
0.0
 41
0.9999999996616539
 10
339.6457224796723
 20
-1130.627803756603
 30
0.0
 41
1.0
  0
SPLINE
  5
535
330
1F
100
AcDbEntity
  8
Default
100
AcDbSpline
210
0.0
220
0.0
230
1.0
 70
     8
 71
     3
 72
    14
 73
    10
 74
     0
 42
0.000000001
 43
0.0000000001
 40
0.0
 40
0.0
 40
0.0
 40
0.0
 40
1.0
 40
2.0
 40
3.0
 40
4.0
 40
5.0
 40
6.0
 40
7.0
 40
7.0
 40
7.0
 40
7.0
 10
339.6457224796723
 20
-1130.627803756603
 30
0.0
 10
341.4314850510164
 20
-1130.601136583044
 30
0.0
 10
344.8004379881095
 20
-1130.085591092038
 30
0.0
 10
349.4328181515848
 20
-1127.906655732566
 30
0.0
 10
352.8570186378347
 20
-1123.858023575298
 30
0.0
 10
352.771234854863
 20
-1118.443061965734
 30
0.0
 10
349.2667634945537
 20
-1114.476690171816
 30
0.0
 10
344.6086758980855
 20
-1112.357806054426
 30
0.0
 10
341.2346084264282
 20
-1111.877542409629
 30
0.0
 10
339.5471998541143
 20
-1111.876784394174
 30
0.0
  0
SPLINE
  5
536
330
1F
100
AcDbEntity
  8
Default
100
AcDbSpline
210
0.0
220
0.0
230
1.0
 70
    12
 71
     2
 72
     6
 73
     3
 74
     0
 42
0.000000001
 43
0.0000000001
 40
0.0
 40
0.0
 40
0.0
 40
1.112498698414412
 40
1.112498698414412
 40
1.112498698414412
 10
339.5471998541143
 20
-1111.876784394174
 30
0.0
 41
1.0
 10
325.419325167768
 20
-1111.721008897452
 30
0.0
 41
0.9999999996585591
 10
311.2914530989328
 20
-1111.564996189404
 30
0.0
 41
0.9999999993875963
  0
SPLINE
  5
537
330
1F
100
AcDbEntity
  8
Default
100
AcDbSpline
210
0.0
220
0.0
230
1.0
 70
    12
 71
     2
 72
     6
 73
     3
 74
     0
 42
0.000000001
 43
0.0000000001
 40
-1.281345128275034
 40
-1.281345128275034
 40
-1.281345128275034
 40
0.0
 40
0.0
 40
0.0
 10
9.73911849986689
 20
-814.1698772281038
 30
0.0
 41
0.9999999993069707
 10
9.558660454476921
 20
-797.8874673198756
 30
0.0
 41
0.9999999996067375
 10
9.378419216518523
 20
-781.6036617686427
 30
0.0
 41
1.0
  0
SPLINE
  5
538
330
1F
100
AcDbEntity
  8
Default
100
AcDbSpline
210
0.0
220
0.0
230
1.0
 70
     8
 71
     3
 72
    14
 73
    10
 74
     0
 42
0.000000001
 43
0.0000000001
 40
0.0
 40
0.0
 40
0.0
 40
0.0
 40
1.0
 40
2.0
 40
3.0
 40
4.0
 40
5.0
 40
6.0
 40
7.0
 40
7.0
 40
7.0
 40
7.0
 10
9.378419216518523
 20
-781.6036617686427
 30
0.0
 10
9.35175204295956
 20
-779.8178991972986
 30
0.0
 10
8.836206551950454
 20
-776.4489462602091
 30
0.0
 10
6.657271192481857
 20
-771.8165660967302
 30
0.0
 10
2.608639035213855
 20
-768.3923656104803
 30
0.0
 10
-2.806322574349906
 20
-768.478149393452
 30
0.0
 10
-6.772694368264637
 20
-771.9826207537575
 30
0.0
 10
-8.891578485658101
 20
-776.6407083502294
 30
0.0
 10
-9.371842130454751
 20
-780.0147758218868
 30
0.0
 10
-9.372600145910837
 20
-781.7021843942007
 30
0.0
  0
SPLINE
  5
539
330
1F
100
AcDbEntity
  8
Default
100
AcDbSpline
210
0.0
220
0.0
230
1.0
 70
    12
 71
     2
 72
     6
 73
     3
 74
     0
 42
0.000000001
 43
0.0000000001
 40
0.0
 40
0.0
 40
0.0
 40
1.278324852146924
 40
1.278324852146924
 40
1.278324852146924
 10
-9.372600145910837
 20
-781.7021843942007
 30
0.0
 41
1.0
 10
-9.551595131804788
 20
-797.935923225747
 30
0.0
 41
0.9999999996076647
 10
-9.73090331559797
 20
-814.1696586009116
 30
0.0
 41
0.9999999993083845
  0
SPLINE
  5
53A
330
1F
100
AcDbEntity
  8
Default
100
AcDbSpline
210
0.0
220
0.0
230
1.0
 70
     8
 71
     3
 72
    47
 73
    43
 74
     0
 42
0.000000001
 43
0.0000000001
 40
36.00001859489052
 40
36.00001859489052
 40
36.00001859489052
 40
36.00001859489052
 40
37.0
 40
38.0
 40
39.0
 40
40.0
 40
41.0
 40
42.0
 40
43.0
 40
44.0
 40
45.0
 40
46.0
 40
47.0
 40
48.0
 40
49.0
 40
50.0
 40
51.0
 40
52.0
 40
53.0
 40
53.0
 40
53.0
 40
54.0
 40
55.0
 40
56.0
 40
57.0
 40
58.0
 40
59.0
 40
60.0
 40
60.0
 40
60.0
 40
61.0
 40
62.0
 40
63.0
 40
64.0
 40
65.0
 40
66.0
 40
67.0
 40
68.0
 40
69.0
 40
70.0
 40
71.0
 40
72.0
 40
72.0
 40
72.0
 40
72.0
 10
0.0
 20
-814.0656761415078
 30
0.0
 10
11.18512948279885
 20
-814.0467504218205
 30
0.0
 10
33.55782902624105
 20
-814.9622631467268
 30
0.0
 10
66.87234624374832
 20
-819.2442366316159
 30
0.0
 10
99.65983975486961
 20
-826.5657956448544
 30
0.0
 10
131.5635626885814
 20
-837.105127603087
 30
0.0
 10
162.1598405565419
 20
-851.0290517167582
 30
0.0
 10
190.8141274383815
 20
-868.6030453237858
 30
0.0
 10
217.2322674415773
 20
-889.3994103841892
 30
0.0
 10
240.6928693911286
 20
-913.4918273536737
 30
0.0
 10
260.9058679041445
 20
-940.3638747030369
 30
0.0
 10
277.243602306975
 20
-969.7825076405411
 30
0.0
 10
288.9176660071425
 20
-1001.334775201978
 30
0.0
 10
296.589145489048
 20
-1034.049056963441
 30
0.0
 10
301.302604709821
 20
-1067.296889424373
 30
0.0
 10
303.5707799914344
 20
-1100.802438792866
 30
0.0
 10
303.6447058398881
 20
-1134.356921745794
 30
0.0
 10
302.2704190781151
 20
-1167.936127631709
 30
0.0
 10
297.9122935261294
 20
-1189.969957230433
 30
0.0
 10
294.5055886748487
 20
-1200.631942056467
 30
0.0
 10
291.1810863575884
 20
-1211.105630752189
 30
0.0
 10
284.428947149936
 20
-1232.020690233449
 30
0.0
 10
273.7768208095876
 20
-1263.219832000259
 30
0.0
 10
262.519840857618
 20
-1294.20617174727
 30
0.0
 10
250.578927551076
 20
-1324.936468859471
 30
0.0
 10
237.8513592978816
 20
-1355.348823651026
 30
0.0
 10
224.3126728419083
 20
-1385.412736336048
 30
0.0
 10
214.4653812841352
 20
-1405.065388746336
 30
0.0
 10
209.4012806355058
 20
-1414.817327325977
 30
0.0
 10
208.366227399034
 20
-1416.820106014011
 30
0.0
 10
206.3064929021675
 20
-1420.831135059302
 30
0.0
 10
203.3440034828782
 20
-1426.91192618618
 30
0.0
 10
200.5948721734712
 20
-1433.092467494347
 30
0.0
 10
198.1946521799618
 20
-1439.422202211898
 30
0.0
 10
196.3680323917506
 20
-1445.935932932391
 30
0.0
 10
195.4353499317294
 20
-1452.689395986525
 30
0.0
 10
196.5831776746636
 20
-1459.429930603261
 30
0.0
 10
199.5354174644526
 20
-1465.553710735278
 30
0.0
 10
202.4767069016925
 20
-1471.634967425164
 30
0.0
 10
205.9312424328055
 20
-1477.462547760542
 30
0.0
 10
209.8919010838581
 20
-1482.949446089994
 30
0.0
 10
216.582901658403
 20
-1489.911257382248
 30
0.0
 10
218.0055186562713
 20
-1491.660278783975
 30
0.0
  0
SPLINE
  5
53B
330
1F
100
AcDbEntity
  8
Default
100
AcDbSpline
210
0.0
220
0.0
230
1.0
 70
     8
 71
     3
 72
    12
 73
     8
 74
     0
 42
0.000000001
 43
0.0000000001
 40
0.0
 40
0.0
 40
0.0
 40
0.0
 40
1.918305221504867
 40
3.868777778011241
 40
7.624449324857683
 40
11.42846767657462
 40
15.35241906764609
 40
15.35241906764609
 40
15.35241906764609
 40
15.35241906764609
 10
-0.0006503481999971
 20
-1317.207421053683
 30
0.0
 10
16.23942581041774
 20
-1317.220900443887
 30
0.0
 10
49.0016741775471
 20
-1314.050719614947
 30
0.0
 10
111.1282600983104
 20
-1295.404959929432
 30
0.0
 10
179.1979189590165
 20
-1249.311418247062
 30
0.0
 10
232.6517144400277
 20
-1165.753146524863
 30
0.0
 10
244.4745622025075
 20
-1100.175252402167
 30
0.0
 10
244.4740198429536
 20
-1066.967732748528
 30
0.0
  0
SPLINE
  5
53C
330
1F
100
AcDbEntity
  8
Default
100
AcDbSpline
210
0.0
220
0.0
230
1.0
 70
     8
 71
     3
 72
    12
 73
     8
 74
     0
 42
0.000000001
 43
0.0000000001
 40
-14.89017236839833
 40
-14.89017236839833
 40
-14.89017236839833
 40
-14.89017236839833
 40
-11.21816917573749
 40
-7.516682162771167
 40
-3.774519558109396
 40
-1.88935509827327
 40
0.0
 40
0.0
 40
0.0
 40
0.0
 10
244.4740198429536
 20
-1066.967732748528
 30
0.0
 10
244.4823525904394
 20
-1035.873936223068
 30
0.0
 10
231.6006665251553
 20
-973.461171993155
 30
0.0
 10
176.9397175158628
 20
-894.547877268053
 30
0.0
 10
109.2967631917672
 20
-850.9392786064768
 30
0.0
 10
47.95406486354477
 20
-832.9636901476757
 30
0.0
 10
15.9945601284744
 20
-829.8899492136611
 30
0.0
 10
-0.0006513949301734
 20
-829.888227934391
 30
0.0
  0
SPLINE
  5
53D
330
1F
100
AcDbEntity
  8
Default
100
AcDbSpline
210
0.0
220
0.0
230
1.0
 70
    12
 71
     2
 72
     6
 73
     3
 74
     0
 42
0.000000001
 43
0.0000000001
 40
0.0
 40
0.0
 40
0.0
 40
0.0853474550214741
 40
0.0853474550214741
 40
0.0853474550214741
 10
-351.8926805540432
 20
-1131.531169168773
 30
0.0
 41
1.0
 10
-352.9743710114308
 20
-1131.607048569027
 30
0.0
 41
0.9993970637774639
 10
-354.0587194491272
 20
-1131.60767677539
 30
0.0
 41
1.0
  0
SPLINE
  5
53E
330
1F
100
AcDbEntity
  8
Default
100
AcDbSpline
210
0.0
220
0.0
230
1.0
 70
     8
 71
     3
 72
    12
 73
     8
 74
     0
 42
0.000000001
 43
0.0000000001
 40
0.0
 40
0.0
 40
0.0
 40
0.0
 40
0.1510110321465192
 40
0.3037660471064116
 40
0.5900965017365678
 40
0.8249401141264362
 40
1.014583801502342
 40
1.014583801502342
 40
1.014583801502342
 40
1.014583801502342
 10
-351.0025014480488
 20
-1111.042800244168
 30
0.0
 10
-352.2755554532814
 20
-1110.91792819623
 30
0.0
 10
-354.848571751234
 20
-1110.820651822518
 30
0.0
 10
-359.8383463538485
 20
-1111.257833681286
 30
0.0
 10
-365.379185531503
 20
-1112.793323028689
 30
0.0
 10
-370.4808965486773
 20
-1116.215917857977
 30
0.0
 10
-372.1254075148172
 20
-1119.614875660866
 30
0.0
 10
-372.0935691307204
 20
-1121.249384540084
 30
0.0
  0
SPLINE
  5
53F
330
1F
100
AcDbEntity
  8
Default
100
AcDbSpline
210
0.0
220
0.0
230
1.0
 70
     8
 71
     3
 72
    12
 73
     8
 74
     0
 42
0.000000001
 43
0.0000000001
 40
-1.014583801502342
 40
-1.014583801502342
 40
-1.014583801502342
 40
-1.014583801502342
 40
-0.8249401141264362
 40
-0.5900965017365678
 40
-0.3037660471064116
 40
-0.1510110321465192
 40
0.0
 40
0.0
 40
0.0
 40
0.0
 10
-372.0935691307204
 20
-1121.249384540084
 30
0.0
 10
-372.1254075148172
 20
-1122.883893419307
 30
0.0
 10
-370.4808965486773
 20
-1126.282851222195
 30
0.0
 10
-365.379185531503
 20
-1129.705446051483
 30
0.0
 10
-359.8383463538485
 20
-1131.240935398886
 30
0.0
 10
-354.848571751234
 20
-1131.678117257654
 30
0.0
 10
-352.2755554532814
 20
-1131.580840883942
 30
0.0
 10
-351.0025014480488
 20
-1131.455968836004
 30
0.0
  0
SPLINE
  5
540
330
1F
100
AcDbEntity
  8
Default
100
AcDbSpline
210
0.0
220
0.0
230
1.0
 70
    12
 71
     2
 72
     6
 73
     3
 74
     0
 42
0.000000001
 43
0.0000000001
 40
0.0
 40
0.0
 40
0.0
 40
0.1369528492222414
 40
0.1369528492222414
 40
0.1369528492222414
 10
-341.3668409115307
 20
-1111.912070643283
 30
0.0
 41
1.0
 10
-343.1057331734046
 20
-1111.948380847984
 30
0.0
 41
0.9999966913238282
 10
-344.8456137521607
 20
-1111.929288508285
 30
0.0
 41
0.9999959461296658
  0
ARC
  5
541
330
1F
100
AcDbEntity
  8
Default
100
AcDbCircle
 10
-345.0544616300613
 20
-1099.231005846292
 30
0.0
 40
12.7
100
AcDbArc
 50
258.4871521735316
 51
270.9422552251277
  0
SPLINE
  5
542
330
1F
100
AcDbEntity
  8
Default
100
AcDbSpline
210
0.0
220
0.0
230
1.0
 70
     8
 71
     3
 72
    14
 73
    10
 74
     0
 42
0.000000001
 43
0.0000000001
 40
0.2772630823298201
 40
0.2772630823298201
 40
0.2772630823298201
 40
0.2772630823298201
 40
1.0
 40
2.0
 40
3.0
 40
4.0
 40
5.0
 40
6.0
 40
7.0
 40
7.0
 40
7.0
 40
7.0
 10
-347.5892249711833
 20
-1111.675481520443
 30
0.0
 10
-348.5989685779204
 20
-1111.469811057074
 30
0.0
 10
-351.0278633393464
 20
-1111.087128590078
 30
0.0
 10
-354.9179890806336
 20
-1110.966697814294
 30
0.0
 10
-359.1795074483743
 20
-1111.424263413208
 30
0.0
 10
-363.3386506511633
 20
-1112.479109259725
 30
0.0
 10
-367.2468860382978
 20
-1114.269513963822
 30
0.0
 10
-370.5732570605687
 20
-1117.066183703495
 30
0.0
 10
-371.7218502293363
 20
-1119.809623612803
 30
0.0
 10
-371.708959584379
 20
-1121.249397152713
 30
0.0
  0
SPLINE
  5
543
330
1F
100
AcDbEntity
  8
Default
100
AcDbSpline
210
0.0
220
0.0
230
1.0
 70
     8
 71
     3
 72
    14
 73
    10
 74
     0
 42
0.000000001
 43
0.0000000001
 40
-7.0
 40
-7.0
 40
-7.0
 40
-7.0
 40
-6.0
 40
-5.0
 40
-4.0
 40
-3.0
 40
-2.0
 40
-1.0
 40
-0.2482205602640466
 40
-0.2482205602640466
 40
-0.2482205602640466
 40
-0.2482205602640466
 10
-371.708959584379
 20
-1121.249397152713
 30
0.0
 10
-371.7218502293363
 20
-1122.689170692616
 30
0.0
 10
-370.5732570605687
 20
-1125.432610601927
 30
0.0
 10
-367.2468860382978
 20
-1128.2292803416
 30
0.0
 10
-363.3386506511633
 20
-1130.019685045698
 30
0.0
 10
-359.1795074483743
 20
-1131.074530892214
 30
0.0
 10
-354.9179890806336
 20
-1131.532096491128
 30
0.0
 10
-350.9863686719982
 20
-1131.410381120628
 30
0.0
 10
-348.51708343473
 20
-1131.0159933456
 30
0.0
 10
-347.4675431228716
 20
-1130.798300723722
 30
0.0
  0
ARC
  5
544
330
1F
100
AcDbEntity
  8
Default
100
AcDbCircle
 10
-344.8882446452626
 20
-1143.233622165624
 30
0.0
 40
12.7
100
AcDbArc
 50
88.977579807951
 51
101.71796787816
  0
SPLINE
  5
545
330
1F
100
AcDbEntity
  8
Default
100
AcDbSpline
210
0.0
220
0.0
230
1.0
 70
    12
 71
     2
 72
     6
 73
     3
 74
     0
 42
0.000000001
 43
0.0000000001
 40
-0.1297405451143296
 40
-0.1297405451143296
 40
-0.1297405451143296
 40
0.0
 40
0.0
 40
0.0
 10
-344.66163026914
 20
-1130.53564414058
 30
0.0
 41
0.9999960316975588
 10
-343.0141872046988
 20
-1130.565045221722
 30
0.0
 41
0.999996865512317
 10
-341.3668409115307
 20
-1130.599443834237
 30
0.0
 41
1.0
  0
SPLINE
  5
546
330
1F
100
AcDbEntity
  8
Default
100
AcDbSpline
210
0.0
220
0.0
230
1.0
 70
     8
 71
     3
 72
    22
 73
    18
 74
     0
 42
0.000000001
 43
0.0000000001
 40
0.0
 40
0.0
 40
0.0
 40
0.0
 40
0.2588469591229587
 40
0.6477254461891114
 40
1.024641027840087
 40
1.817983982162573
 40
2.582167143679937
 40
4.062052734317923
 40
7.850412104674
 40
9.497260537102542
 40
10.543391206404
 40
10.8432833113025
 40
12.15829953678302
 40
13.34949093133962
 40
14.77372714428499
 40
17.25709974516987
 40
21.82793658798906
 40
21.82793658798906
 40
21.82793658798906
 40
21.82793658798906
 10
-196.5619435307853
 20
-1457.83966103944
 30
0.0
 10
-196.3586352222628
 20
-1455.641878045679
 30
0.0
 10
-197.3424644002225
 20
-1450.194672056894
 30
0.0
 10
-200.5051008716073
 20
-1442.103677983813
 30
0.0
 10
-206.2026741987829
 20
-1430.191087664704
 30
0.0
 10
-214.0253364580494
 20
-1415.796703320723
 30
0.0
 10
-225.2884062707344
 20
-1392.672606267517
 30
0.0
 10
-246.9121420252923
 20
-1346.399508058729
 30
0.0
 10
-269.239754573191
 20
-1292.24726503817
 30
0.0
 10
-289.0475311875598
 20
-1241.08172129005
 30
0.0
 10
-297.9405658649885
 20
-1217.352188670231
 30
0.0
 10
-305.5958809226904
 20
-1196.149648535075
 30
0.0
 10
-310.1301611517265
 20
-1172.694867720182
 30
0.0
 10
-311.8788726469211
 20
-1139.458984969575
 30
0.0
 10
-311.4186766644416
 20
-1096.247557081561
 30
0.0
 10
-302.2861164283386
 20
-1024.843562799824
 30
0.0
 10
-279.5854479900045
 20
-968.5311111123287
 30
0.0
 10
-257.5850009947499
 20
-936.5869385702485
 30
0.0
  0
SPLINE
  5
547
330
1F
100
AcDbEntity
  8
Default
100
AcDbSpline
210
0.0
220
0.0
230
1.0
 70
     8
 71
     3
 72
    19
 73
    15
 74
     0
 42
0.000000001
 43
0.0000000001
 40
-12.0
 40
-12.0
 40
-12.0
 40
-12.0
 40
-11.0
 40
-10.0
 40
-9.0
 40
-8.0
 40
-7.0
 40
-6.0
 40
-5.0
 40
-4.0
 40
-3.0
 40
-2.0
 40
-1.0
 40
0.0
 40
0.0
 40
0.0
 40
0.0
 10
-223.195204846379
 20
-1501.575813080234
 30
0.0
 10
-220.00015402598
 20
-1506.939533270094
 30
0.0
 10
-207.1784696626055
 20
-1511.007096003099
 30
0.0
 10
-189.0630576483818
 20
-1515.59358029656
 30
0.0
 10
-170.2782084919272
 20
-1518.999141566592
 30
0.0
 10
-151.5575181734639
 20
-1522.089085776023
 30
0.0
 10
-132.719896860799
 20
-1524.617350804822
 30
0.0
 10
-113.8376903876851
 20
-1526.702601235671
 30
0.0
 10
-94.91096382726755
 20
-1528.362513731956
 30
0.0
 10
-75.95552833298279
 20
-1529.64038170978
 30
0.0
 10
-56.97984227154666
 20
-1530.571024722957
 30
0.0
 10
-37.99164488101815
 20
-1531.190441885303
 30
0.0
 10
-18.99658889957573
 20
-1531.534440242338
 30
0.0
 10
-6.33139463910993
 20
-1531.604042993857
 30
0.0
 10
0.0011769193843065
 20
-1531.60486052705
 30
0.0
  0
SPLINE
  5
548
330
1F
100
AcDbEntity
  8
Default
100
AcDbSpline
210
0.0
220
0.0
230
1.0
 70
    12
 71
     2
 72
     6
 73
     3
 74
     0
 42
0.000000001
 43
0.0000000001
 40
-6.233889429224446
 40
-6.233889429224446
 40
-6.233889429224446
 40
0.0
 40
0.0
 40
0.0
 10
0.0011769193843065
 20
-1545.008097634369
 30
0.0
 41
1.0
 10
-79.34262533631408
 20
-1545.155482252993
 30
0.0
 41
0.996730330589404
 10
-157.6737666886329
 20
-1532.521160924431
 30
0.0
 41
1.0
  0
SPLINE
  5
549
330
1F
100
AcDbEntity
  8
Default
100
AcDbSpline
210
0.0
220
0.0
230
1.0
 70
     8
 71
     3
 72
    12
 73
     8
 74
     0
 42
0.000000001
 43
0.0000000001
 40
0.0
 40
0.0
 40
0.0
 40
0.0
 40
0.8495817757806477
 40
1.391422022197968
 40
2.191064820612614
 40
2.689385262996221
 40
3.111933853859593
 40
3.111933853859593
 40
3.111933853859593
 40
3.111933853859593
 10
-157.6737666886329
 20
-1532.521160924431
 30
0.0
 10
-164.7803980906537
 20
-1531.249254045937
 30
0.0
 10
-176.3737793658074
 20
-1529.472287321644
 30
0.0
 10
-194.5825157378058
 20
-1525.626249276293
 30
0.0
 10
-209.5828074609526
 20
-1521.573022214312
 30
0.0
 10
-222.4219160193352
 20
-1513.829956343833
 30
0.0
 10
-224.3447506301854
 20
-1505.232339890192
 30
0.0
 10
-223.2334795193056
 20
-1501.715408462997
 30
0.0
  0
SPLINE
  5
54A
330
1F
100
AcDbEntity
  8
Default
100
AcDbSpline
210
0.0
220
0.0
230
1.0
 70
    12
 71
     2
 72
     6
 73
     3
 74
     0
 42
0.000000001
 43
0.0000000001
 40
0.0
 40
0.0
 40
0.0
 40
0.443505275079806
 40
0.443505275079806
 40
0.443505275079806
 10
-223.2334795193056
 20
-1501.715408462997
 30
0.0
 41
1.0
 10
-221.6079920386146
 20
-1496.089301531707
 30
0.0
 41
0.9799943751373794
 10
-218.0055186562713
 20
-1491.660278783975
 30
0.0
 41
1.0
  0
SPLINE
  5
54B
330
1F
100
AcDbEntity
  8
Default
100
AcDbSpline
210
0.0
220
0.0
230
1.0
 70
    12
 71
     2
 72
     6
 73
     3
 74
     0
 42
0.000000001
 43
0.0000000001
 40
-5.654573080352872
 40
-5.654573080352872
 40
-5.654573080352872
 40
0.0
 40
0.0
 40
0.0
 10
-142.981744615663
 20
-1534.889280953349
 30
0.0
 41
1.0
 10
-71.9674671593857
 20
-1546.568614755152
 30
0.0
 41
0.9967681786255456
 10
0.0011769193843065
 20
-1546.724674164232
 30
0.0
 41
1.0
  0
SPLINE
  5
54C
330
1F
100
AcDbEntity
  8
Default
100
AcDbSpline
210
0.0
220
0.0
230
1.0
 70
    12
 71
     2
 72
     6
 73
     3
 74
     0
 42
0.000000001
 43
0.0000000001
 40
-1.102413928352738
 40
-1.102413928352738
 40
-1.102413928352738
 40
0.0
 40
0.0
 40
0.0
 10
-311.6269915583616
 20
-1130.938107771321
 30
0.0
 41
0.9999999993925147
 10
-325.6358404821149
 20
-1130.782875522042
 30
0.0
 41
0.9999999996616539
 10
-339.6457224796723
 20
-1130.627803756603
 30
0.0
 41
1.0
  0
SPLINE
  5
54D
330
1F
100
AcDbEntity
  8
Default
100
AcDbSpline
210
0.0
220
0.0
230
1.0
 70
     8
 71
     3
 72
    14
 73
    10
 74
     0
 42
0.000000001
 43
0.0000000001
 40
0.0
 40
0.0
 40
0.0
 40
0.0
 40
1.0
 40
2.0
 40
3.0
 40
4.0
 40
5.0
 40
6.0
 40
7.0
 40
7.0
 40
7.0
 40
7.0
 10
-339.6457224796723
 20
-1130.627803756603
 30
0.0
 10
-341.4314850510164
 20
-1130.601136583044
 30
0.0
 10
-344.8004379881095
 20
-1130.085591092038
 30
0.0
 10
-349.4328181515848
 20
-1127.906655732566
 30
0.0
 10
-352.8570186378347
 20
-1123.858023575298
 30
0.0
 10
-352.771234854863
 20
-1118.443061965734
 30
0.0
 10
-349.2667634945537
 20
-1114.476690171816
 30
0.0
 10
-344.6086758980855
 20
-1112.357806054426
 30
0.0
 10
-341.2346084264282
 20
-1111.877542409629
 30
0.0
 10
-339.5471998541143
 20
-1111.876784394174
 30
0.0
  0
SPLINE
  5
54E
330
1F
100
AcDbEntity
  8
Default
100
AcDbSpline
210
0.0
220
0.0
230
1.0
 70
    12
 71
     2
 72
     6
 73
     3
 74
     0
 42
0.000000001
 43
0.0000000001
 40
0.0
 40
0.0
 40
0.0
 40
1.112498698414412
 40
1.112498698414412
 40
1.112498698414412
 10
-339.5471998541143
 20
-1111.876784394174
 30
0.0
 41
1.0
 10
-325.419325167768
 20
-1111.721008897452
 30
0.0
 41
0.9999999996585591
 10
-311.2914530989328
 20
-1111.564996189404
 30
0.0
 41
0.9999999993875963
  0
SPLINE
  5
54F
330
1F
100
AcDbEntity
  8
Default
100
AcDbSpline
210
0.0
220
0.0
230
1.0
 70
     8
 71
     3
 72
    47
 73
    43
 74
     0
 42
0.000000001
 43
0.0000000001
 40
36.00001859489052
 40
36.00001859489052
 40
36.00001859489052
 40
36.00001859489052
 40
37.0
 40
38.0
 40
39.0
 40
40.0
 40
41.0
 40
42.0
 40
43.0
 40
44.0
 40
45.0
 40
46.0
 40
47.0
 40
48.0
 40
49.0
 40
50.0
 40
51.0
 40
52.0
 40
53.0
 40
53.0
 40
53.0
 40
54.0
 40
55.0
 40
56.0
 40
57.0
 40
58.0
 40
59.0
 40
60.0
 40
60.0
 40
60.0
 40
61.0
 40
62.0
 40
63.0
 40
64.0
 40
65.0
 40
66.0
 40
67.0
 40
68.0
 40
69.0
 40
70.0
 40
71.0
 40
72.0
 40
72.0
 40
72.0
 40
72.0
 10
0.0
 20
-814.0656761415078
 30
0.0
 10
-11.18512948279885
 20
-814.0467504218205
 30
0.0
 10
-33.55782902624105
 20
-814.9622631467268
 30
0.0
 10
-66.87234624374832
 20
-819.2442366316159
 30
0.0
 10
-99.65983975486961
 20
-826.5657956448544
 30
0.0
 10
-131.5635626885814
 20
-837.105127603087
 30
0.0
 10
-162.1598405565419
 20
-851.0290517167582
 30
0.0
 10
-190.8141274383815
 20
-868.6030453237858
 30
0.0
 10
-217.2322674415773
 20
-889.3994103841892
 30
0.0
 10
-240.6928693911286
 20
-913.4918273536737
 30
0.0
 10
-260.9058679041445
 20
-940.3638747030369
 30
0.0
 10
-277.243602306975
 20
-969.7825076405411
 30
0.0
 10
-288.9176660071425
 20
-1001.334775201978
 30
0.0
 10
-296.589145489048
 20
-1034.049056963441
 30
0.0
 10
-301.302604709821
 20
-1067.296889424373
 30
0.0
 10
-303.5707799914344
 20
-1100.802438792866
 30
0.0
 10
-303.6447058398881
 20
-1134.356921745794
 30
0.0
 10
-302.2704190781151
 20
-1167.936127631709
 30
0.0
 10
-297.9122935261294
 20
-1189.969957230433
 30
0.0
 10
-294.5055886748487
 20
-1200.631942056467
 30
0.0
 10
-291.1810863575884
 20
-1211.105630752189
 30
0.0
 10
-284.428947149936
 20
-1232.020690233449
 30
0.0
 10
-273.7768208095876
 20
-1263.219832000259
 30
0.0
 10
-262.519840857618
 20
-1294.20617174727
 30
0.0
 10
-250.578927551076
 20
-1324.936468859471
 30
0.0
 10
-237.8513592978816
 20
-1355.348823651026
 30
0.0
 10
-224.3126728419083
 20
-1385.412736336048
 30
0.0
 10
-214.4653812841352
 20
-1405.065388746336
 30
0.0
 10
-209.4012806355058
 20
-1414.817327325977
 30
0.0
 10
-208.366227399034
 20
-1416.820106014011
 30
0.0
 10
-206.3064929021675
 20
-1420.831135059302
 30
0.0
 10
-203.3440034828782
 20
-1426.91192618618
 30
0.0
 10
-200.5948721734712
 20
-1433.092467494347
 30
0.0
 10
-198.1946521799618
 20
-1439.422202211898
 30
0.0
 10
-196.3680323917506
 20
-1445.935932932391
 30
0.0
 10
-195.4353499317294
 20
-1452.689395986525
 30
0.0
 10
-196.5831776746636
 20
-1459.429930603261
 30
0.0
 10
-199.5354174644526
 20
-1465.553710735278
 30
0.0
 10
-202.4767069016925
 20
-1471.634967425164
 30
0.0
 10
-205.9312424328055
 20
-1477.462547760542
 30
0.0
 10
-209.8919010838581
 20
-1482.949446089994
 30
0.0
 10
-216.582901658403
 20
-1489.911257382248
 30
0.0
 10
-218.0055186562713
 20
-1491.660278783975
 30
0.0
  0
SPLINE
  5
550
330
1F
100
AcDbEntity
  8
Default
100
AcDbSpline
210
0.0
220
0.0
230
1.0
 70
     8
 71
     3
 72
    12
 73
     8
 74
     0
 42
0.000000001
 43
0.0000000001
 40
0.0
 40
0.0
 40
0.0
 40
0.0
 40
1.918305221504867
 40
3.868777778011241
 40
7.624449324857683
 40
11.42846767657462
 40
15.35241906764609
 40
15.35241906764609
 40
15.35241906764609
 40
15.35241906764609
 10
0.0006503481999971
 20
-1317.207421053683
 30
0.0
 10
-16.23942581041774
 20
-1317.220900443887
 30
0.0
 10
-49.0016741775471
 20
-1314.050719614947
 30
0.0
 10
-111.1282600983104
 20
-1295.404959929432
 30
0.0
 10
-179.1979189590165
 20
-1249.311418247062
 30
0.0
 10
-232.6517144400277
 20
-1165.753146524863
 30
0.0
 10
-244.4745622025075
 20
-1100.175252402167
 30
0.0
 10
-244.4740198429536
 20
-1066.967732748528
 30
0.0
  0
SPLINE
  5
551
330
1F
100
AcDbEntity
  8
Default
100
AcDbSpline
210
0.0
220
0.0
230
1.0
 70
     8
 71
     3
 72
    12
 73
     8
 74
     0
 42
0.000000001
 43
0.0000000001
 40
-14.89017236839833
 40
-14.89017236839833
 40
-14.89017236839833
 40
-14.89017236839833
 40
-11.21816917573749
 40
-7.516682162771167
 40
-3.774519558109396
 40
-1.88935509827327
 40
0.0
 40
0.0
 40
0.0
 40
0.0
 10
-244.4740198429536
 20
-1066.967732748528
 30
0.0
 10
-244.4823525904394
 20
-1035.873936223068
 30
0.0
 10
-231.6006665251553
 20
-973.461171993155
 30
0.0
 10
-176.9397175158628
 20
-894.547877268053
 30
0.0
 10
-109.2967631917672
 20
-850.9392786064768
 30
0.0
 10
-47.95406486354477
 20
-832.9636901476757
 30
0.0
 10
-15.9945601284744
 20
-829.8899492136611
 30
0.0
 10
0.0006513949301734
 20
-829.888227934391
 30
0.0
  0
SPLINE
  5
552
330
1F
100
AcDbEntity
  8
Default
100
AcDbSpline
210
0.0
220
0.0
230
1.0
 70
     8
 71
     3
 72
    12
 73
     8
 74
     0
 42
0.000000001
 43
0.0000000001
 40
0.0
 40
0.0
 40
0.0
 40
0.0
 40
0.1510110321465192
 40
0.3037660471064116
 40
0.5900965017365678
 40
0.8249401141264362
 40
1.014583801502342
 40
1.014583801502342
 40
1.014583801502342
 40
1.014583801502342
 10
768.7767487931105
 20
-11.84109317513867
 30
0.0
 10
767.5036947878815
 20
-11.96596522307664
 30
0.0
 10
764.930678489929
 20
-12.06324159678843
 30
0.0
 10
759.9409038873109
 20
-11.62605973802055
 30
0.0
 10
754.4000647096527
 20
-10.09057039061736
 30
0.0
 10
749.2983536924821
 20
-6.667975561329512
 30
0.0
 10
747.6538427263421
 20
-3.269017758440895
 30
0.0
 10
747.6856811104426
 20
-1.634508879222266
 30
0.0
  0
SPLINE
  5
553
330
1F
100
AcDbEntity
  8
Default
100
AcDbSpline
210
0.0
220
0.0
230
1.0
 70
     8
 71
     3
 72
    12
 73
     8
 74
     0
 42
0.000000001
 43
0.0000000001
 40
-1.014583801502342
 40
-1.014583801502342
 40
-1.014583801502342
 40
-1.014583801502342
 40
-0.8249401141264362
 40
-0.5900965017365678
 40
-0.3037660471064116
 40
-0.1510110321465192
 40
0.0
 40
0.0
 40
0.0
 40
0.0
 10
747.6856811104426
 20
-1.634508879222266
 30
0.0
 10
747.6538427263421
 20
0.0
 30
0.0
 10
749.2983536924821
 20
3.398957802888617
 30
0.0
 10
754.4000647096527
 20
6.821552632176462
 30
0.0
 10
759.9409038873109
 20
8.357041979579662
 30
0.0
 10
764.930678489929
 20
8.794223838347534
 30
0.0
 10
767.5036947878815
 20
8.696947464635741
 30
0.0
 10
768.7767487931105
 20
8.572075416694133
 30
0.0
  0
SPLINE
  5
554
330
1F
100
AcDbEntity
  8
Default
100
AcDbSpline
210
0.0
220
0.0
230
1.0
 70
    12
 71
     2
 72
     6
 73
     3
 74
     0
 42
0.000000001
 43
0.0000000001
 40
0.0
 40
0.0
 40
0.0
 40
0.1369528492222414
 40
0.1369528492222414
 40
0.1369528492222414
 10
778.4124093296286
 20
-10.97182277602405
 30
0.0
 41
1.0
 10
776.6735170677511
 20
-10.93551257132276
 30
0.0
 41
0.9999966913238282
 10
774.9336364890023
 20
-10.9546049110213
 30
0.0
 41
0.9999959461296658
  0
ARC
  5
555
330
1F
100
AcDbEntity
  8
Default
100
AcDbCircle
 10
774.7247886111018
 20
-23.6528875730146
 30
0.0
 40
12.7
100
AcDbArc
 50
89.05774477487231
 51
101.5128478264683
  0
SPLINE
  5
556
330
1F
100
AcDbEntity
  8
Default
100
AcDbSpline
210
0.0
220
0.0
230
1.0
 70
     8
 71
     3
 72
    14
 73
    10
 74
     0
 42
0.000000001
 43
0.0000000001
 40
0.2772630823298201
 40
0.2772630823298201
 40
0.2772630823298201
 40
0.2772630823298201
 40
1.0
 40
2.0
 40
3.0
 40
4.0
 40
5.0
 40
6.0
 40
7.0
 40
7.0
 40
7.0
 40
7.0
 10
772.1900252699797
 20
-11.20841189886414
 30
0.0
 10
771.1802816632426
 20
-11.41408236223287
 30
0.0
 10
768.751386901813
 20
-11.79676482922878
 30
0.0
 10
764.8612611605294
 20
-11.91719560501224
 30
0.0
 10
760.599742792785
 20
-11.45963000609845
 30
0.0
 10
756.440599589996
 20
-10.40478415958205
 30
0.0
 10
752.5323642028652
 20
-8.614379455484595
 30
0.0
 10
749.2059931805906
 20
-5.817709715811361
 30
0.0
 10
748.0574000118231
 20
-3.074269806504162
 30
0.0
 10
748.0702906567803
 20
-1.634496266597125
 30
0.0
  0
SPLINE
  5
557
330
1F
100
AcDbEntity
  8
Default
100
AcDbSpline
210
0.0
220
0.0
230
1.0
 70
     8
 71
     3
 72
    14
 73
    10
 74
     0
 42
0.000000001
 43
0.0000000001
 40
-7.0
 40
-7.0
 40
-7.0
 40
-7.0
 40
-6.0
 40
-5.0
 40
-4.0
 40
-3.0
 40
-2.0
 40
-1.0
 40
-0.2482205602640466
 40
-0.2482205602640466
 40
-0.2482205602640466
 40
-0.2482205602640466
 10
748.0702906567803
 20
-1.634496266597125
 30
0.0
 10
748.0574000118231
 20
-0.1947227266864502
 30
0.0
 10
749.2059931805906
 20
2.548717182620748
 30
0.0
 10
752.5323642028652
 20
5.345386922293982
 30
0.0
 10
756.440599589996
 20
7.135791626391437
 30
0.0
 10
760.599742792785
 20
8.190637472907837
 30
0.0
 10
764.8612611605294
 20
8.648203071821626
 30
0.0
 10
768.7928815691648
 20
8.526487701321457
 30
0.0
 10
771.2621668064294
 20
8.132099926293449
 30
0.0
 10
772.3117071182914
 20
7.914407304415362
 30
0.0
  0
ARC
  5
558
330
1F
100
AcDbEntity
  8
Default
100
AcDbCircle
 10
774.8910055958931
 20
20.34972874631785
 30
0.0
 40
12.7
100
AcDbArc
 50
258.28203212184
 51
271.022420192049
  0
SPLINE
  5
559
330
1F
100
AcDbEntity
  8
Default
100
AcDbSpline
210
0.0
220
0.0
230
1.0
 70
    12
 71
     2
 72
     6
 73
     3
 74
     0
 42
0.000000001
 43
0.0000000001
 40
-0.1297405451143296
 40
-0.1297405451143296
 40
-0.1297405451143296
 40
0.0
 40
0.0
 40
0.0
 10
775.1176199720194
 20
7.651750721273856
 30
0.0
 41
0.9999960316975588
 10
776.7650630364641
 20
7.681151802415115
 30
0.0
 41
0.999996865512317
 10
778.4124093296286
 20
7.715550414930476
 30
0.0
 41
1.0
  0
SPLINE
  5
55A
330
1F
100
AcDbEntity
  8
Default
100
AcDbSpline
210
0.0
220
0.0
230
1.0
 70
    12
 71
     2
 72
     6
 73
     3
 74
     0
 42
0.000000001
 43
0.0000000001
 40
0.0
 40
0.0
 40
0.0
 40
0.0853474550214741
 40
0.0853474550214741
 40
0.0853474550214741
 10
767.8865696871162
 20
8.647275749466643
 30
0.0
 41
1.0
 10
766.8048792297322
 20
8.723155149720696
 30
0.0
 41
0.9993970637774639
 10
765.7205307920357
 20
8.723783356083004
 30
0.0
 41
1.0
  0
SPLINE
  5
55B
330
1F
100
AcDbEntity
  8
Default
100
AcDbSpline
210
0.0
220
0.0
230
1.0
 70
    12
 71
     2
 72
     6
 73
     3
 74
     0
 42
0.000000001
 43
0.0000000001
 40
0.0
 40
0.0
 40
0.0
 40
0.0853474550214741
 40
0.0853474550214741
 40
0.0853474550214741
 10
1130.061035161618
 20
350.2581716748209
 30
0.0
 41
1.0
 10
1130.136914561872
 20
351.3398621322085
 30
0.0
 41
0.9993970637774639
 10
1130.137542768234
 20
352.424210569905
 30
0.0
 41
1.0
  0
SPLINE
  5
55C
330
1F
100
AcDbEntity
  8
Default
100
AcDbSpline
210
0.0
220
0.0
230
1.0
 70
     8
 71
     3
 72
    12
 73
     8
 74
     0
 42
0.000000001
 43
0.0000000001
 40
0.0
 40
0.0
 40
0.0
 40
0.0
 40
0.1510110321465192
 40
0.3037660471064116
 40
0.5900965017365678
 40
0.8249401141264362
 40
1.014583801502342
 40
1.014583801502342
 40
1.014583801502342
 40
1.014583801502342
 10
1109.572666237012
 20
349.3679925688266
 30
0.0
 10
1109.447794189074
 20
350.6410465740592
 30
0.0
 10
1109.350517815363
 20
353.2140628720117
 30
0.0
 10
1109.78769967413
 20
358.2038374746262
 30
0.0
 10
1111.323189021534
 20
363.7446766522808
 30
0.0
 10
1114.745783850821
 20
368.846387669455
 30
0.0
 10
1118.14474165371
 20
370.4908986355949
 30
0.0
 10
1119.779250532929
 20
370.4590602514981
 30
0.0
  0
SPLINE
  5
55D
330
1F
100
AcDbEntity
  8
Default
100
AcDbSpline
210
0.0
220
0.0
230
1.0
 70
     8
 71
     3
 72
    12
 73
     8
 74
     0
 42
0.000000001
 43
0.0000000001
 40
-1.014583801502342
 40
-1.014583801502342
 40
-1.014583801502342
 40
-1.014583801502342
 40
-0.8249401141264362
 40
-0.5900965017365678
 40
-0.3037660471064116
 40
-0.1510110321465192
 40
0.0
 40
0.0
 40
0.0
 40
0.0
 10
1119.779250532929
 20
370.4590602514981
 30
0.0
 10
1121.413759412151
 20
370.4908986355949
 30
0.0
 10
1124.81271721504
 20
368.846387669455
 30
0.0
 10
1128.235312044328
 20
363.7446766522808
 30
0.0
 10
1129.770801391731
 20
358.2038374746262
 30
0.0
 10
1130.207983250498
 20
353.2140628720117
 30
0.0
 10
1130.110706876787
 20
350.6410465740592
 30
0.0
 10
1129.985834828849
 20
349.3679925688266
 30
0.0
  0
SPLINE
  5
55E
330
1F
100
AcDbEntity
  8
Default
100
AcDbSpline
210
0.0
220
0.0
230
1.0
 70
    12
 71
     2
 72
     6
 73
     3
 74
     0
 42
0.000000001
 43
0.0000000001
 40
0.0
 40
0.0
 40
0.0
 40
0.1369528492222414
 40
0.1369528492222414
 40
0.1369528492222414
 10
1110.441936636127
 20
339.7323320323085
 30
0.0
 41
1.0
 10
1110.478246840828
 20
341.4712242941823
 30
0.0
 41
0.9999966913238282
 10
1110.45915450113
 20
343.2111048729384
 30
0.0
 41
0.9999959461296658
  0
ARC
  5
55F
330
1F
100
AcDbEntity
  8
Default
100
AcDbCircle
 10
1097.760871839136
 20
343.419952750839
 30
0.0
 40
12.7
100
AcDbArc
 50
359.0577447748725
 51
11.51284782646736
  0
SPLINE
  5
560
330
1F
100
AcDbEntity
  8
Default
100
AcDbSpline
210
0.0
220
0.0
230
1.0
 70
     8
 71
     3
 72
    14
 73
    10
 74
     0
 42
0.000000001
 43
0.0000000001
 40
0.2772630823298201
 40
0.2772630823298201
 40
0.2772630823298201
 40
0.2772630823298201
 40
1.0
 40
2.0
 40
3.0
 40
4.0
 40
5.0
 40
6.0
 40
7.0
 40
7.0
 40
7.0
 40
7.0
 10
1110.205347513287
 20
345.954716091961
 30
0.0
 10
1109.999677049918
 20
346.9644596986982
 30
0.0
 10
1109.616994582922
 20
349.3933544601241
 30
0.0
 10
1109.496563807139
 20
353.2834802014113
 30
0.0
 10
1109.954129406053
 20
357.5449985691521
 30
0.0
 10
1111.008975252569
 20
361.7041417719411
 30
0.0
 10
1112.799379956666
 20
365.6123771590756
 30
0.0
 10
1115.59604969634
 20
368.9387481813465
 30
0.0
 10
1118.339489605647
 20
370.087341350114
 30
0.0
 10
1119.779263145558
 20
370.0744507051568
 30
0.0
  0
SPLINE
  5
561
330
1F
100
AcDbEntity
  8
Default
100
AcDbSpline
210
0.0
220
0.0
230
1.0
 70
     8
 71
     3
 72
    14
 73
    10
 74
     0
 42
0.000000001
 43
0.0000000001
 40
-7.0
 40
-7.0
 40
-7.0
 40
-7.0
 40
-6.0
 40
-5.0
 40
-4.0
 40
-3.0
 40
-2.0
 40
-1.0
 40
-0.2482205602640466
 40
-0.2482205602640466
 40
-0.2482205602640466
 40
-0.2482205602640466
 10
1119.779263145558
 20
370.0744507051568
 30
0.0
 10
1121.219036685461
 20
370.087341350114
 30
0.0
 10
1123.962476594772
 20
368.9387481813465
 30
0.0
 10
1126.759146334445
 20
365.6123771590756
 30
0.0
 10
1128.549551038543
 20
361.7041417719411
 30
0.0
 10
1129.604396885059
 20
357.5449985691521
 30
0.0
 10
1130.061962483972
 20
353.2834802014113
 30
0.0
 10
1129.940247113472
 20
349.351859792776
 30
0.0
 10
1129.545859338445
 20
346.8825745555077
 30
0.0
 10
1129.328166716566
 20
345.8330342436493
 30
0.0
  0
ARC
  5
562
330
1F
100
AcDbEntity
  8
Default
100
AcDbCircle
 10
1141.763488158469
 20
343.2537357660403
 30
0.0
 40
12.7
100
AcDbArc
 50
168.2820321218351
 51
181.0224201920359
  0
SPLINE
  5
563
330
1F
100
AcDbEntity
  8
Default
100
AcDbSpline
210
0.0
220
0.0
230
1.0
 70
    12
 71
     2
 72
     6
 73
     3
 74
     0
 42
0.000000001
 43
0.0000000001
 40
-0.1297405451143296
 40
-0.1297405451143296
 40
-0.1297405451143296
 40
0.0
 40
0.0
 40
0.0
 10
1129.065510133425
 20
343.0271213899177
 30
0.0
 41
0.9999960316975588
 10
1129.094911214566
 20
341.3796783254765
 30
0.0
 41
0.999996865512317
 10
1129.129309827082
 20
339.7323320323085
 30
0.0
 41
1.0
  0
SPLINE
  5
564
330
1F
100
AcDbEntity
  8
Default
100
AcDbSpline
210
0.0
220
0.0
230
1.0
 70
    12
 71
     2
 72
     6
 73
     3
 74
     0
 42
0.000000001
 43
0.0000000001
 40
0.0
 40
0.0
 40
0.0
 40
0.0587632096241838
 40
0.0587632096241838
 40
0.0587632096241838
 10
748.1932564126236
 20
-0.1578585933493741
 30
0.0
 41
1.0
 10
748.0055546281855
 20
-0.8842470317795232
 30
0.0
 41
0.9921107855315545
 10
748.0044421733673
 20
-1.634494248246483
 30
0.0
 41
1.0
  0
SPLINE
  5
565
330
1F
100
AcDbEntity
  8
Default
100
AcDbSpline
210
0.0
220
0.0
230
1.0
 70
    24
 71
     2
 72
     6
 73
     3
 74
     0
 42
0.000000001
 43
0.0000000001
 40
0.0
 40
0.0
 40
0.0
 40
0.0114467396849787
 40
0.0114467396849787
 40
0.0114467396849787
 10
748.0044421733455
 20
-1.634509022893325
 30
0.0
 10
747.8590685793478
 20
-1.634508957369689
 30
0.0
 10
747.7136949853465
 20
-1.634508891849691
 30
0.0
  0
SPLINE
  5
566
330
1F
100
AcDbEntity
  8
Default
100
AcDbSpline
210
0.0
220
0.0
230
1.0
 70
    12
 71
     2
 72
     6
 73
     3
 74
     0
 42
0.000000001
 43
0.0000000001
 40
0.0
 40
0.0
 40
0.0
 40
0.0586712320260919
 40
0.0586712320260919
 40
0.0586712320260919
 10
748.0044421733455
 20
-1.634509022893325
 30
0.0
 41
1.0
 10
748.0055465958594
 20
-2.383570075202442
 30
0.0
 41
0.9921343149382712
 10
748.1926730871473
 20
-3.108881977830606
 30
0.0
 41
1.0
  0
SPLINE
  5
567
330
1F
100
AcDbEntity
  8
Default
100
AcDbSpline
210
0.0
220
0.0
230
1.0
 70
     8
 71
     3
 72
    22
 73
    18
 74
     0
 42
0.000000001
 43
0.0000000001
 40
0.0
 40
0.0
 40
0.0
 40
0.0
 40
0.2588469591229587
 40
0.6477254461891114
 40
1.024641027840087
 40
1.817983982162573
 40
2.582167143679937
 40
4.062052734317923
 40
7.850412104674
 40
9.497260537102542
 40
10.543391206404
 40
10.8432833113025
 40
12.15829953678302
 40
13.34949093133962
 40
14.77372714428499
 40
17.25709974516987
 40
21.82793658798906
 40
21.82793658798906
 40
21.82793658798906
 40
21.82793658798906
 10
1456.369527032284
 20
194.9274346515631
 30
0.0
 10
1454.171744038523
 20
194.7241263430405
 30
0.0
 10
1448.724538049739
 20
195.7079555210002
 30
0.0
 10
1440.633543976657
 20
198.870591992385
 30
0.0
 10
1428.720953657548
 20
204.5681653195607
 30
0.0
 10
1414.326569313567
 20
212.3908275788271
 30
0.0
 10
1391.202472260362
 20
223.6538973915121
 30
0.0
 10
1344.929374051573
 20
245.27763314607
 30
0.0
 10
1290.777131031014
 20
267.6052456939688
 30
0.0
 10
1239.611587282894
 20
287.4130223083375
 30
0.0
 10
1215.882054663076
 20
296.3060569857662
 30
0.0
 10
1194.679514527919
 20
303.9613720434681
 30
0.0
 10
1171.224733713026
 20
308.4956522725042
 30
0.0
 10
1137.98885096242
 20
310.2443637676988
 30
0.0
 10
1094.777423074405
 20
309.7841677852193
 30
0.0
 10
1023.373428792669
 20
300.6516075491163
 30
0.0
 10
967.0609771051731
 20
277.9509391107822
 30
0.0
 10
935.1168045630929
 20
255.9504921155276
 30
0.0
  0
SPLINE
  5
568
330
1F
100
AcDbEntity
  8
Default
100
AcDbSpline
210
0.0
220
0.0
230
1.0
 70
     8
 71
     3
 72
    19
 73
    15
 74
     0
 42
0.000000001
 43
0.0000000001
 40
-12.0
 40
-12.0
 40
-12.0
 40
-12.0
 40
-11.0
 40
-10.0
 40
-9.0
 40
-8.0
 40
-7.0
 40
-6.0
 40
-5.0
 40
-4.0
 40
-3.0
 40
-2.0
 40
-1.0
 40
0.0
 40
0.0
 40
0.0
 40
0.0
 10
1500.105679073078
 20
221.5606959671568
 30
0.0
 10
1505.469399262938
 20
218.3656451467578
 30
0.0
 10
1509.536961995944
 20
205.5439607833832
 30
0.0
 10
1514.123446289404
 20
187.4285487691595
 30
0.0
 10
1517.529007559437
 20
168.6436996127049
 30
0.0
 10
1520.618951768867
 20
149.9230092942416
 30
0.0
 10
1523.147216797666
 20
131.0853879815768
 30
0.0
 10
1525.232467228516
 20
112.2031815084628
 30
0.0
 10
1526.892379724801
 20
93.27645494804528
 30
0.0
 10
1528.170247702625
 20
74.32101945376053
 30
0.0
 10
1529.100890715801
 20
55.34533339232439
 30
0.0
 10
1529.720307878148
 20
36.35713600179588
 30
0.0
 10
1530.064306235183
 20
17.36208002035346
 30
0.0
 10
1530.133908986701
 20
4.696885759887663
 30
0.0
 10
1530.134726519895
 20
-1.635685798606573
 30
0.0
  0
SPLINE
  5
569
330
1F
100
AcDbEntity
  8
Default
100
AcDbSpline
210
0.0
220
0.0
230
1.0
 70
    12
 71
     2
 72
     6
 73
     3
 74
     0
 42
0.000000001
 43
0.0000000001
 40
-6.233889429224446
 40
-6.233889429224446
 40
-6.233889429224446
 40
0.0
 40
0.0
 40
0.0
 10
1543.537963627214
 20
-1.6356857986068
 30
0.0
 41
1.0
 10
1543.685348245837
 20
77.70811645709182
 30
0.0
 41
0.996730330589404
 10
1531.051026917275
 20
156.0392578094106
 30
0.0
 41
1.0
  0
SPLINE
  5
56A
330
1F
100
AcDbEntity
  8
Default
100
AcDbSpline
210
0.0
220
0.0
230
1.0
 70
     8
 71
     3
 72
    12
 73
     8
 74
     0
 42
0.000000001
 43
0.0000000001
 40
0.0
 40
0.0
 40
0.0
 40
0.0
 40
0.8495817757806477
 40
1.391422022197968
 40
2.191064820612614
 40
2.689385262996221
 40
3.111933853859593
 40
3.111933853859593
 40
3.111933853859593
 40
3.111933853859593
 10
1531.051026917275
 20
156.0392578094106
 30
0.0
 10
1529.779120038782
 20
163.1458892114315
 30
0.0
 10
1528.002153314488
 20
174.7392704865851
 30
0.0
 10
1524.156115269137
 20
192.9480068585835
 30
0.0
 10
1520.102888207157
 20
207.9482985817303
 30
0.0
 10
1512.359822336677
 20
220.7874071401129
 30
0.0
 10
1503.762205883036
 20
222.7102417509632
 30
0.0
 10
1500.245274455841
 20
221.5989706400833
 30
0.0
  0
SPLINE
  5
56B
330
1F
100
AcDbEntity
  8
Default
100
AcDbSpline
210
0.0
220
0.0
230
1.0
 70
    12
 71
     2
 72
     6
 73
     3
 74
     0
 42
0.000000001
 43
0.0000000001
 40
0.0
 40
0.0
 40
0.0
 40
0.443505275079806
 40
0.443505275079806
 40
0.443505275079806
 10
1500.245274455841
 20
221.5989706400833
 30
0.0
 41
1.0
 10
1494.619167524552
 20
219.9734831593923
 30
0.0
 41
0.9799943751373794
 10
1490.190144776819
 20
216.371009777049
 30
0.0
 41
1.0
  0
SPLINE
  5
56C
330
1F
100
AcDbEntity
  8
Default
100
AcDbSpline
210
0.0
220
0.0
230
1.0
 70
    12
 71
     2
 72
     6
 73
     3
 74
     0
 42
0.000000001
 43
0.0000000001
 40
-5.654573080352872
 40
-5.654573080352872
 40
-5.654573080352872
 40
0.0
 40
0.0
 40
0.0
 10
1533.419146946193
 20
141.3472357364408
 30
0.0
 41
1.0
 10
1545.098480747996
 20
70.33295828016344
 30
0.0
 41
0.9967681786255456
 10
1545.254540157077
 20
-1.6356857986068
 30
0.0
 41
1.0
  0
SPLINE
  5
56D
330
1F
100
AcDbEntity
  8
Default
100
AcDbSpline
210
0.0
220
0.0
230
1.0
 70
    12
 71
     2
 72
     6
 73
     3
 74
     0
 42
0.000000001
 43
0.0000000001
 40
-1.102413928352738
 40
-1.102413928352738
 40
-1.102413928352738
 40
0.0
 40
0.0
 40
0.0
 10
1129.467973764165
 20
309.9924826791394
 30
0.0
 41
0.9999999993925147
 10
1129.312741514886
 20
324.0013316028926
 30
0.0
 41
0.9999999996616539
 10
1129.157669749447
 20
338.01121360045
 30
0.0
 41
1.0
  0
SPLINE
  5
56E
330
1F
100
AcDbEntity
  8
Default
100
AcDbSpline
210
0.0
220
0.0
230
1.0
 70
     8
 71
     3
 72
    14
 73
    10
 74
     0
 42
0.000000001
 43
0.0000000001
 40
0.0
 40
0.0
 40
0.0
 40
0.0
 40
1.0
 40
2.0
 40
3.0
 40
4.0
 40
5.0
 40
6.0
 40
7.0
 40
7.0
 40
7.0
 40
7.0
 10
1129.157669749447
 20
338.01121360045
 30
0.0
 10
1129.131002575888
 20
339.7969761717941
 30
0.0
 10
1128.615457084883
 20
343.1659291088872
 30
0.0
 10
1126.436521725411
 20
347.7983092723625
 30
0.0
 10
1122.387889568143
 20
351.2225097586124
 30
0.0
 10
1116.972927958579
 20
351.1367259756407
 30
0.0
 10
1113.00655616466
 20
347.6322546153315
 30
0.0
 10
1110.887672047271
 20
342.9741670188632
 30
0.0
 10
1110.407408402474
 20
339.6000995472059
 30
0.0
 10
1110.406650387018
 20
337.912690974892
 30
0.0
  0
SPLINE
  5
56F
330
1F
100
AcDbEntity
  8
Default
100
AcDbSpline
210
0.0
220
0.0
230
1.0
 70
    12
 71
     2
 72
     6
 73
     3
 74
     0
 42
0.000000001
 43
0.0000000001
 40
0.0
 40
0.0
 40
0.0
 40
1.112498698414412
 40
1.112498698414412
 40
1.112498698414412
 10
1110.406650387018
 20
337.912690974892
 30
0.0
 41
1.0
 10
1110.250874890296
 20
323.7848162885457
 30
0.0
 41
0.9999999996585591
 10
1110.094862182248
 20
309.6569442197106
 30
0.0
 41
0.9999999993875963
  0
SPLINE
  5
570
330
1F
100
AcDbEntity
  8
Default
100
AcDbSpline
210
0.0
220
0.0
230
1.0
 70
    12
 71
     2
 72
     6
 73
     3
 74
     0
 42
0.000000001
 43
0.0000000001
 40
-1.281345128275034
 40
-1.281345128275034
 40
-1.281345128275034
 40
0.0
 40
0.0
 40
0.0
 10
812.6997432209481
 20
8.104609620644623
 30
0.0
 41
0.9999999993069707
 10
796.4173333127201
 20
7.924151575254654
 30
0.0
 41
0.9999999996067375
 10
780.1335277614871
 20
7.743910337296256
 30
0.0
 41
1.0
  0
SPLINE
  5
571
330
1F
100
AcDbEntity
  8
Default
100
AcDbSpline
210
0.0
220
0.0
230
1.0
 70
     8
 71
     3
 72
    14
 73
    10
 74
     0
 42
0.000000001
 43
0.0000000001
 40
0.0
 40
0.0
 40
0.0
 40
0.0
 40
1.0
 40
2.0
 40
3.0
 40
4.0
 40
5.0
 40
6.0
 40
7.0
 40
7.0
 40
7.0
 40
7.0
 10
780.1335277614871
 20
7.743910337296256
 30
0.0
 10
778.347765190143
 20
7.717243163737293
 30
0.0
 10
774.9788122530535
 20
7.201697672728187
 30
0.0
 10
770.3464320895745
 20
5.02276231325959
 30
0.0
 10
766.9222316033247
 20
0.9741301559915882
 30
0.0
 10
767.0080153862963
 20
-4.440831453572172
 30
0.0
 10
770.512486746602
 20
-8.407203247486904
 30
0.0
 10
775.1705743430739
 20
-10.52608736488036
 30
0.0
 10
778.5446418147312
 20
-11.00635100967702
 30
0.0
 10
780.2320503870451
 20
-11.0071090251331
 30
0.0
  0
SPLINE
  5
572
330
1F
100
AcDbEntity
  8
Default
100
AcDbSpline
210
0.0
220
0.0
230
1.0
 70
    12
 71
     2
 72
     6
 73
     3
 74
     0
 42
0.000000001
 43
0.0000000001
 40
0.0
 40
0.0
 40
0.0
 40
1.278324852146924
 40
1.278324852146924
 40
1.278324852146924
 10
780.2320503870451
 20
-11.0071090251331
 30
0.0
 41
1.0
 10
796.4657892185914
 20
-11.18610401102705
 30
0.0
 41
0.9999999996076647
 10
812.699524593756
 20
-11.36541219482023
 30
0.0
 41
0.9999999993083845
  0
SPLINE
  5
573
330
1F
100
AcDbEntity
  8
Default
100
AcDbSpline
210
0.0
220
0.0
230
1.0
 70
     8
 71
     3
 72
    47
 73
    43
 74
     0
 42
0.000000001
 43
0.0000000001
 40
36.00001859489052
 40
36.00001859489052
 40
36.00001859489052
 40
36.00001859489052
 40
37.0
 40
38.0
 40
39.0
 40
40.0
 40
41.0
 40
42.0
 40
43.0
 40
44.0
 40
45.0
 40
46.0
 40
47.0
 40
48.0
 40
49.0
 40
50.0
 40
51.0
 40
52.0
 40
53.0
 40
53.0
 40
53.0
 40
54.0
 40
55.0
 40
56.0
 40
57.0
 40
58.0
 40
59.0
 40
60.0
 40
60.0
 40
60.0
 40
61.0
 40
62.0
 40
63.0
 40
64.0
 40
65.0
 40
66.0
 40
67.0
 40
68.0
 40
69.0
 40
70.0
 40
71.0
 40
72.0
 40
72.0
 40
72.0
 40
72.0
 10
812.5955421343515
 20
-1.634508879222266
 30
0.0
 10
812.5766164146643
 20
9.550620603576589
 30
0.0
 10
813.4921291395713
 20
31.92332014701901
 30
0.0
 10
817.7741026244602
 20
65.23783736452606
 30
0.0
 10
825.0956616376988
 20
98.02533087564734
 30
0.0
 10
835.6349935959315
 20
129.9290538093591
 30
0.0
 10
849.5589177096025
 20
160.5253316773196
 30
0.0
 10
867.1329113166303
 20
189.1796185591593
 30
0.0
 10
887.9292763770335
 20
215.597758562355
 30
0.0
 10
912.0216933465181
 20
239.0583605119064
 30
0.0
 10
938.8937406958811
 20
259.2713590249223
 30
0.0
 10
968.3123736333854
 20
275.6090934277527
 30
0.0
 10
999.8646411948229
 20
287.2831571279203
 30
0.0
 10
1032.578922956285
 20
294.9546366098257
 30
0.0
 10
1065.826755417218
 20
299.6680958305987
 30
0.0
 10
1099.33230478571
 20
301.9362711122121
 30
0.0
 10
1132.886787738638
 20
302.0101969606658
 30
0.0
 10
1166.465993624553
 20
300.6359101988928
 30
0.0
 10
1188.499823223277
 20
296.2777846469071
 30
0.0
 10
1199.161808049312
 20
292.8710797956264
 30
0.0
 10
1209.635496745033
 20
289.5465774783661
 30
0.0
 10
1230.550556226293
 20
282.7944382707137
 30
0.0
 10
1261.749697993104
 20
272.1423119303654
 30
0.0
 10
1292.736037740114
 20
260.8853319783957
 30
0.0
 10
1323.466334852315
 20
248.9444186718538
 30
0.0
 10
1353.878689643871
 20
236.2168504186593
 30
0.0
 10
1383.942602328892
 20
222.6781639626861
 30
0.0
 10
1403.595254739181
 20
212.830872404913
 30
0.0
 10
1413.347193318821
 20
207.7667717562836
 30
0.0
 10
1415.349972006856
 20
206.7317185198117
 30
0.0
 10
1419.361001052146
 20
204.6719840229453
 30
0.0
 10
1425.441792179024
 20
201.7094946036559
 30
0.0
 10
1431.622333487192
 20
198.960363294249
 30
0.0
 10
1437.952068204742
 20
196.5601433007396
 30
0.0
 10
1444.465798925235
 20
194.7335235125283
 30
0.0
 10
1451.219261979369
 20
193.8008410525071
 30
0.0
 10
1457.959796596106
 20
194.9486687954413
 30
0.0
 10
1464.083576728122
 20
197.9009085852303
 30
0.0
 10
1470.164833418008
 20
200.8421980224702
 30
0.0
 10
1475.992413753387
 20
204.2967335535832
 30
0.0
 10
1481.479312082838
 20
208.2573922046358
 30
0.0
 10
1488.441123375092
 20
214.9483927791807
 30
0.0
 10
1490.190144776819
 20
216.371009777049
 30
0.0
  0
SPLINE
  5
574
330
1F
100
AcDbEntity
  8
Default
100
AcDbSpline
210
0.0
220
0.0
230
1.0
 70
     8
 71
     3
 72
    12
 73
     8
 74
     0
 42
0.000000001
 43
0.0000000001
 40
0.0
 40
0.0
 40
0.0
 40
0.0
 40
1.918305221504867
 40
3.868777778011241
 40
7.624449324857683
 40
11.42846767657462
 40
15.35241906764609
 40
15.35241906764609
 40
15.35241906764609
 40
15.35241906764609
 10
1315.737287046528
 20
-1.635159227422263
 30
0.0
 10
1315.750766436731
 20
14.60491693119547
 30
0.0
 10
1312.580585607791
 20
47.36716529832484
 30
0.0
 10
1293.934825922277
 20
109.4937512190881
 30
0.0
 10
1247.841284239906
 20
177.5634100797942
 30
0.0
 10
1164.283012517708
 20
231.0172055608055
 30
0.0
 10
1098.705118395011
 20
242.8400533232852
 30
0.0
 10
1065.497598741373
 20
242.8395109637313
 30
0.0
  0
SPLINE
  5
575
330
1F
100
AcDbEntity
  8
Default
100
AcDbSpline
210
0.0
220
0.0
230
1.0
 70
     8
 71
     3
 72
    12
 73
     8
 74
     0
 42
0.000000001
 43
0.0000000001
 40
-14.89017236839833
 40
-14.89017236839833
 40
-14.89017236839833
 40
-14.89017236839833
 40
-11.21816917573749
 40
-7.516682162771167
 40
-3.774519558109396
 40
-1.88935509827327
 40
0.0
 40
0.0
 40
0.0
 40
0.0
 10
1065.497598741373
 20
242.8395109637313
 30
0.0
 10
1034.403802215913
 20
242.8478437112171
 30
0.0
 10
971.9910379859994
 20
229.966157645933
 30
0.0
 10
893.0777432608975
 20
175.3052086366406
 30
0.0
 10
849.4691445993211
 20
107.6622543125449
 30
0.0
 10
831.4935561405199
 20
46.3195559843225
 30
0.0
 10
828.4198152065055
 20
14.36005124925214
 30
0.0
 10
828.4180939272355
 20
-1.63516027415244
 30
0.0
  0
SPLINE
  5
576
330
1F
100
AcDbEntity
  8
Default
100
AcDbSpline
210
0.0
220
0.0
230
1.0
 70
    12
 71
     2
 72
     6
 73
     3
 74
     0
 42
0.000000001
 43
0.0000000001
 40
0.0
 40
0.0
 40
0.0
 40
0.0853474550214741
 40
0.0853474550214741
 40
0.0853474550214741
 10
1130.061035161618
 20
-353.5271894332654
 30
0.0
 41
1.0
 10
1130.136914561872
 20
-354.608879890653
 30
0.0
 41
0.9993970637774639
 10
1130.137542768234
 20
-355.6932283283495
 30
0.0
 41
1.0
  0
SPLINE
  5
577
330
1F
100
AcDbEntity
  8
Default
100
AcDbSpline
210
0.0
220
0.0
230
1.0
 70
     8
 71
     3
 72
    12
 73
     8
 74
     0
 42
0.000000001
 43
0.0000000001
 40
0.0
 40
0.0
 40
0.0
 40
0.0
 40
0.1510110321465192
 40
0.3037660471064116
 40
0.5900965017365678
 40
0.8249401141264362
 40
1.014583801502342
 40
1.014583801502342
 40
1.014583801502342
 40
1.014583801502342
 10
1109.572666237012
 20
-352.6370103272711
 30
0.0
 10
1109.447794189074
 20
-353.9100643325037
 30
0.0
 10
1109.350517815363
 20
-356.4830806304562
 30
0.0
 10
1109.78769967413
 20
-361.4728552330707
 30
0.0
 10
1111.323189021534
 20
-367.0136944107253
 30
0.0
 10
1114.745783850821
 20
-372.1154054278995
 30
0.0
 10
1118.14474165371
 20
-373.7599163940395
 30
0.0
 10
1119.779250532929
 20
-373.7280780099427
 30
0.0
  0
SPLINE
  5
578
330
1F
100
AcDbEntity
  8
Default
100
AcDbSpline
210
0.0
220
0.0
230
1.0
 70
     8
 71
     3
 72
    12
 73
     8
 74
     0
 42
0.000000001
 43
0.0000000001
 40
-1.014583801502342
 40
-1.014583801502342
 40
-1.014583801502342
 40
-1.014583801502342
 40
-0.8249401141264362
 40
-0.5900965017365678
 40
-0.3037660471064116
 40
-0.1510110321465192
 40
0.0
 40
0.0
 40
0.0
 40
0.0
 10
1119.779250532929
 20
-373.7280780099427
 30
0.0
 10
1121.413759412151
 20
-373.7599163940395
 30
0.0
 10
1124.81271721504
 20
-372.1154054278995
 30
0.0
 10
1128.235312044328
 20
-367.0136944107253
 30
0.0
 10
1129.770801391731
 20
-361.4728552330707
 30
0.0
 10
1130.207983250498
 20
-356.4830806304562
 30
0.0
 10
1130.110706876787
 20
-353.9100643325037
 30
0.0
 10
1129.985834828849
 20
-352.6370103272711
 30
0.0
  0
SPLINE
  5
579
330
1F
100
AcDbEntity
  8
Default
100
AcDbSpline
210
0.0
220
0.0
230
1.0
 70
    12
 71
     2
 72
     6
 73
     3
 74
     0
 42
0.000000001
 43
0.0000000001
 40
0.0
 40
0.0
 40
0.0
 40
0.1369528492222414
 40
0.1369528492222414
 40
0.1369528492222414
 10
1110.441936636127
 20
-343.001349790753
 30
0.0
 41
1.0
 10
1110.478246840828
 20
-344.7402420526269
 30
0.0
 41
0.9999966913238282
 10
1110.45915450113
 20
-346.480122631383
 30
0.0
 41
0.9999959461296658
  0
ARC
  5
57A
330
1F
100
AcDbEntity
  8
Default
100
AcDbCircle
 10
1097.760871839136
 20
-346.6889705092835
 30
0.0
 40
12.7
100
AcDbArc
 50
348.4871521735326
 51
0.9422552251274922
  0
SPLINE
  5
57B
330
1F
100
AcDbEntity
  8
Default
100
AcDbSpline
210
0.0
220
0.0
230
1.0
 70
     8
 71
     3
 72
    14
 73
    10
 74
     0
 42
0.000000001
 43
0.0000000001
 40
0.2772630823298201
 40
0.2772630823298201
 40
0.2772630823298201
 40
0.2772630823298201
 40
1.0
 40
2.0
 40
3.0
 40
4.0
 40
5.0
 40
6.0
 40
7.0
 40
7.0
 40
7.0
 40
7.0
 10
1110.205347513287
 20
-349.2237338504056
 30
0.0
 10
1109.999677049918
 20
-350.2334774571427
 30
0.0
 10
1109.616994582922
 20
-352.6623722185686
 30
0.0
 10
1109.496563807139
 20
-356.5524979598558
 30
0.0
 10
1109.954129406053
 20
-360.8140163275966
 30
0.0
 10
1111.008975252569
 20
-364.9731595303856
 30
0.0
 10
1112.799379956666
 20
-368.8813949175201
 30
0.0
 10
1115.59604969634
 20
-372.207765939791
 30
0.0
 10
1118.339489605647
 20
-373.3563591085585
 30
0.0
 10
1119.779263145558
 20
-373.3434684636013
 30
0.0
  0
SPLINE
  5
57C
330
1F
100
AcDbEntity
  8
Default
100
AcDbSpline
210
0.0
220
0.0
230
1.0
 70
     8
 71
     3
 72
    14
 73
    10
 74
     0
 42
0.000000001
 43
0.0000000001
 40
-7.0
 40
-7.0
 40
-7.0
 40
-7.0
 40
-6.0
 40
-5.0
 40
-4.0
 40
-3.0
 40
-2.0
 40
-1.0
 40
-0.2482205602640466
 40
-0.2482205602640466
 40
-0.2482205602640466
 40
-0.2482205602640466
 10
1119.779263145558
 20
-373.3434684636013
 30
0.0
 10
1121.219036685461
 20
-373.3563591085585
 30
0.0
 10
1123.962476594772
 20
-372.207765939791
 30
0.0
 10
1126.759146334445
 20
-368.8813949175201
 30
0.0
 10
1128.549551038543
 20
-364.9731595303856
 30
0.0
 10
1129.604396885059
 20
-360.8140163275966
 30
0.0
 10
1130.061962483972
 20
-356.5524979598558
 30
0.0
 10
1129.940247113472
 20
-352.6208775512205
 30
0.0
 10
1129.545859338445
 20
-350.1515923139523
 30
0.0
 10
1129.328166716566
 20
-349.1020520020938
 30
0.0
  0
ARC
  5
57D
330
1F
100
AcDbEntity
  8
Default
100
AcDbCircle
 10
1141.763488158469
 20
-346.5227535244849
 30
0.0
 40
12.7
100
AcDbArc
 50
178.977579807951
 51
191.7179678781646
  0
SPLINE
  5
57E
330
1F
100
AcDbEntity
  8
Default
100
AcDbSpline
210
0.0
220
0.0
230
1.0
 70
    12
 71
     2
 72
     6
 73
     3
 74
     0
 42
0.000000001
 43
0.0000000001
 40
-0.1297405451143296
 40
-0.1297405451143296
 40
-0.1297405451143296
 40
0.0
 40
0.0
 40
0.0
 10
1129.065510133425
 20
-346.2961391483623
 30
0.0
 41
0.9999960316975588
 10
1129.094911214566
 20
-344.6486960839211
 30
0.0
 41
0.999996865512317
 10
1129.129309827082
 20
-343.001349790753
 30
0.0
 41
1.0
  0
SPLINE
  5
57F
330
1F
100
AcDbEntity
  8
Default
100
AcDbSpline
210
0.0
220
0.0
230
1.0
 70
     8
 71
     3
 72
    22
 73
    18
 74
     0
 42
0.000000001
 43
0.0000000001
 40
0.0
 40
0.0
 40
0.0
 40
0.0
 40
0.2588469591229587
 40
0.6477254461891114
 40
1.024641027840087
 40
1.817983982162573
 40
2.582167143679937
 40
4.062052734317923
 40
7.850412104674
 40
9.497260537102542
 40
10.543391206404
 40
10.8432833113025
 40
12.15829953678302
 40
13.34949093133962
 40
14.77372714428499
 40
17.25709974516987
 40
21.82793658798906
 40
21.82793658798906
 40
21.82793658798906
 40
21.82793658798906
 10
1456.369527032284
 20
-198.1964524100076
 30
0.0
 10
1454.171744038523
 20
-197.9931441014851
 30
0.0
 10
1448.724538049739
 20
-198.9769732794448
 30
0.0
 10
1440.633543976657
 20
-202.1396097508295
 30
0.0
 10
1428.720953657548
 20
-207.8371830780052
 30
0.0
 10
1414.326569313567
 20
-215.6598453372717
 30
0.0
 10
1391.202472260362
 20
-226.9229151499567
 30
0.0
 10
1344.929374051573
 20
-248.5466509045145
 30
0.0
 10
1290.777131031014
 20
-270.8742634524133
 30
0.0
 10
1239.611587282894
 20
-290.6820400667821
 30
0.0
 10
1215.882054663076
 20
-299.5750747442107
 30
0.0
 10
1194.679514527919
 20
-307.2303898019127
 30
0.0
 10
1171.224733713026
 20
-311.7646700309488
 30
0.0
 10
1137.98885096242
 20
-313.5133815261434
 30
0.0
 10
1094.777423074405
 20
-313.0531855436639
 30
0.0
 10
1023.373428792669
 20
-303.9206253075608
 30
0.0
 10
967.0609771051731
 20
-281.2199568692268
 30
0.0
 10
935.1168045630929
 20
-259.2195098739721
 30
0.0
  0
SPLINE
  5
580
330
1F
100
AcDbEntity
  8
Default
100
AcDbSpline
210
0.0
220
0.0
230
1.0
 70
     8
 71
     3
 72
    19
 73
    15
 74
     0
 42
0.000000001
 43
0.0000000001
 40
-12.0
 40
-12.0
 40
-12.0
 40
-12.0
 40
-11.0
 40
-10.0
 40
-9.0
 40
-8.0
 40
-7.0
 40
-6.0
 40
-5.0
 40
-4.0
 40
-3.0
 40
-2.0
 40
-1.0
 40
0.0
 40
0.0
 40
0.0
 40
0.0
 10
1500.105679073078
 20
-224.8297137256013
 30
0.0
 10
1505.469399262938
 20
-221.6346629052023
 30
0.0
 10
1509.536961995944
 20
-208.8129785418277
 30
0.0
 10
1514.123446289404
 20
-190.6975665276041
 30
0.0
 10
1517.529007559437
 20
-171.9127173711495
 30
0.0
 10
1520.618951768867
 20
-153.1920270526861
 30
0.0
 10
1523.147216797666
 20
-134.3544057400213
 30
0.0
 10
1525.232467228516
 20
-115.4721992669074
 30
0.0
 10
1526.892379724801
 20
-96.54547270648983
 30
0.0
 10
1528.170247702625
 20
-77.59003721220506
 30
0.0
 10
1529.100890715801
 20
-58.61435115076893
 30
0.0
 10
1529.720307878148
 20
-39.62615376024042
 30
0.0
 10
1530.064306235183
 20
-20.63109777879799
 30
0.0
 10
1530.133908986701
 20
-7.965903518332197
 30
0.0
 10
1530.134726519895
 20
-1.63333195983796
 30
0.0
  0
SPLINE
  5
581
330
1F
100
AcDbEntity
  8
Default
100
AcDbSpline
210
0.0
220
0.0
230
1.0
 70
    12
 71
     2
 72
     6
 73
     3
 74
     0
 42
0.000000001
 43
0.0000000001
 40
-6.233889429224446
 40
-6.233889429224446
 40
-6.233889429224446
 40
0.0
 40
0.0
 40
0.0
 10
1543.537963627214
 20
-1.633331959838187
 30
0.0
 41
1.0
 10
1543.685348245837
 20
-80.97713421553635
 30
0.0
 41
0.996730330589404
 10
1531.051026917275
 20
-159.3082755678551
 30
0.0
 41
1.0
  0
SPLINE
  5
582
330
1F
100
AcDbEntity
  8
Default
100
AcDbSpline
210
0.0
220
0.0
230
1.0
 70
     8
 71
     3
 72
    12
 73
     8
 74
     0
 42
0.000000001
 43
0.0000000001
 40
0.0
 40
0.0
 40
0.0
 40
0.0
 40
0.8495817757806477
 40
1.391422022197968
 40
2.191064820612614
 40
2.689385262996221
 40
3.111933853859593
 40
3.111933853859593
 40
3.111933853859593
 40
3.111933853859593
 10
1531.051026917275
 20
-159.3082755678551
 30
0.0
 10
1529.779120038782
 20
-166.414906969876
 30
0.0
 10
1528.002153314488
 20
-178.0082882450297
 30
0.0
 10
1524.156115269137
 20
-196.2170246170281
 30
0.0
 10
1520.102888207157
 20
-211.2173163401749
 30
0.0
 10
1512.359822336677
 20
-224.0564248985574
 30
0.0
 10
1503.762205883036
 20
-225.9792595094077
 30
0.0
 10
1500.245274455841
 20
-224.8679883985278
 30
0.0
  0
SPLINE
  5
583
330
1F
100
AcDbEntity
  8
Default
100
AcDbSpline
210
0.0
220
0.0
230
1.0
 70
    12
 71
     2
 72
     6
 73
     3
 74
     0
 42
0.000000001
 43
0.0000000001
 40
0.0
 40
0.0
 40
0.0
 40
0.443505275079806
 40
0.443505275079806
 40
0.443505275079806
 10
1500.245274455841
 20
-224.8679883985278
 30
0.0
 41
1.0
 10
1494.619167524552
 20
-223.2425009178369
 30
0.0
 41
0.9799943751373794
 10
1490.190144776819
 20
-219.6400275354936
 30
0.0
 41
1.0
  0
SPLINE
  5
584
330
1F
100
AcDbEntity
  8
Default
100
AcDbSpline
210
0.0
220
0.0
230
1.0
 70
    12
 71
     2
 72
     6
 73
     3
 74
     0
 42
0.000000001
 43
0.0000000001
 40
-5.654573080352872
 40
-5.654573080352872
 40
-5.654573080352872
 40
0.0
 40
0.0
 40
0.0
 10
1533.419146946193
 20
-144.6162534948853
 30
0.0
 41
1.0
 10
1545.098480747996
 20
-73.60197603860797
 30
0.0
 41
0.9967681786255456
 10
1545.254540157077
 20
-1.633331959838187
 30
0.0
 41
1.0
  0
SPLINE
  5
585
330
1F
100
AcDbEntity
  8
Default
100
AcDbSpline
210
0.0
220
0.0
230
1.0
 70
    12
 71
     2
 72
     6
 73
     3
 74
     0
 42
0.000000001
 43
0.0000000001
 40
-1.102413928352738
 40
-1.102413928352738
 40
-1.102413928352738
 40
0.0
 40
0.0
 40
0.0
 10
1129.467973764165
 20
-313.2615004375839
 30
0.0
 41
0.9999999993925147
 10
1129.312741514886
 20
-327.2703493613371
 30
0.0
 41
0.9999999996616539
 10
1129.157669749447
 20
-341.2802313588945
 30
0.0
 41
1.0
  0
SPLINE
  5
586
330
1F
100
AcDbEntity
  8
Default
100
AcDbSpline
210
0.0
220
0.0
230
1.0
 70
     8
 71
     3
 72
    14
 73
    10
 74
     0
 42
0.000000001
 43
0.0000000001
 40
0.0
 40
0.0
 40
0.0
 40
0.0
 40
1.0
 40
2.0
 40
3.0
 40
4.0
 40
5.0
 40
6.0
 40
7.0
 40
7.0
 40
7.0
 40
7.0
 10
1129.157669749447
 20
-341.2802313588945
 30
0.0
 10
1129.131002575888
 20
-343.0659939302386
 30
0.0
 10
1128.615457084883
 20
-346.4349468673317
 30
0.0
 10
1126.436521725411
 20
-351.0673270308071
 30
0.0
 10
1122.387889568143
 20
-354.491527517057
 30
0.0
 10
1116.972927958579
 20
-354.4057437340853
 30
0.0
 10
1113.00655616466
 20
-350.901272373776
 30
0.0
 10
1110.887672047271
 20
-346.2431847773077
 30
0.0
 10
1110.407408402474
 20
-342.8691173056504
 30
0.0
 10
1110.406650387018
 20
-341.1817087333365
 30
0.0
  0
SPLINE
  5
587
330
1F
100
AcDbEntity
  8
Default
100
AcDbSpline
210
0.0
220
0.0
230
1.0
 70
    12
 71
     2
 72
     6
 73
     3
 74
     0
 42
0.000000001
 43
0.0000000001
 40
0.0
 40
0.0
 40
0.0
 40
1.112498698414412
 40
1.112498698414412
 40
1.112498698414412
 10
1110.406650387018
 20
-341.1817087333365
 30
0.0
 41
1.0
 10
1110.250874890296
 20
-327.0538340469902
 30
0.0
 41
0.9999999996585591
 10
1110.094862182248
 20
-312.9259619781551
 30
0.0
 41
0.9999999993875963
  0
SPLINE
  5
588
330
1F
100
AcDbEntity
  8
Default
100
AcDbSpline
210
0.0
220
0.0
230
1.0
 70
     8
 71
     3
 72
    47
 73
    43
 74
     0
 42
0.000000001
 43
0.0000000001
 40
36.00001859489052
 40
36.00001859489052
 40
36.00001859489052
 40
36.00001859489052
 40
37.0
 40
38.0
 40
39.0
 40
40.0
 40
41.0
 40
42.0
 40
43.0
 40
44.0
 40
45.0
 40
46.0
 40
47.0
 40
48.0
 40
49.0
 40
50.0
 40
51.0
 40
52.0
 40
53.0
 40
53.0
 40
53.0
 40
54.0
 40
55.0
 40
56.0
 40
57.0
 40
58.0
 40
59.0
 40
60.0
 40
60.0
 40
60.0
 40
61.0
 40
62.0
 40
63.0
 40
64.0
 40
65.0
 40
66.0
 40
67.0
 40
68.0
 40
69.0
 40
70.0
 40
71.0
 40
72.0
 40
72.0
 40
72.0
 40
72.0
 10
812.5955421343515
 20
-1.634508879222266
 30
0.0
 10
812.5766164146643
 20
-12.81963836202112
 30
0.0
 10
813.4921291395713
 20
-35.19233790546355
 30
0.0
 10
817.7741026244602
 20
-68.50685512297059
 30
0.0
 10
825.0956616376988
 20
-101.2943486340919
 30
0.0
 10
835.6349935959315
 20
-133.1980715678037
 30
0.0
 10
849.5589177096025
 20
-163.7943494357641
 30
0.0
 10
867.1329113166303
 20
-192.4486363176038
 30
0.0
 10
887.9292763770335
 20
-218.8667763207996
 30
0.0
 10
912.0216933465181
 20
-242.3273782703509
 30
0.0
 10
938.8937406958811
 20
-262.5403767833668
 30
0.0
 10
968.3123736333854
 20
-278.8781111861972
 30
0.0
 10
999.8646411948229
 20
-290.5521748863648
 30
0.0
 10
1032.578922956285
 20
-298.2236543682702
 30
0.0
 10
1065.826755417218
 20
-302.9371135890433
 30
0.0
 10
1099.33230478571
 20
-305.2052888706567
 30
0.0
 10
1132.886787738638
 20
-305.2792147191103
 30
0.0
 10
1166.465993624553
 20
-303.9049279573374
 30
0.0
 10
1188.499823223277
 20
-299.5468024053516
 30
0.0
 10
1199.161808049312
 20
-296.140097554071
 30
0.0
 10
1209.635496745033
 20
-292.8155952368106
 30
0.0
 10
1230.550556226293
 20
-286.0634560291583
 30
0.0
 10
1261.749697993104
 20
-275.4113296888099
 30
0.0
 10
1292.736037740114
 20
-264.1543497368402
 30
0.0
 10
1323.466334852315
 20
-252.2134364302983
 30
0.0
 10
1353.878689643871
 20
-239.4858681771038
 30
0.0
 10
1383.942602328892
 20
-225.9471817211306
 30
0.0
 10
1403.595254739181
 20
-216.0998901633575
 30
0.0
 10
1413.347193318821
 20
-211.0357895147281
 30
0.0
 10
1415.349972006856
 20
-210.0007362782562
 30
0.0
 10
1419.361001052146
 20
-207.9410017813898
 30
0.0
 10
1425.441792179024
 20
-204.9785123621004
 30
0.0
 10
1431.622333487192
 20
-202.2293810526935
 30
0.0
 10
1437.952068204742
 20
-199.8291610591841
 30
0.0
 10
1444.465798925235
 20
-198.0025412709728
 30
0.0
 10
1451.219261979369
 20
-197.0698588109517
 30
0.0
 10
1457.959796596106
 20
-198.2176865538859
 30
0.0
 10
1464.083576728122
 20
-201.1699263436749
 30
0.0
 10
1470.164833418008
 20
-204.1112157809148
 30
0.0
 10
1475.992413753387
 20
-207.5657513120277
 30
0.0
 10
1481.479312082838
 20
-211.5264099630804
 30
0.0
 10
1488.441123375092
 20
-218.2174105376252
 30
0.0
 10
1490.190144776819
 20
-219.6400275354936
 30
0.0
  0
SPLINE
  5
589
330
1F
100
AcDbEntity
  8
Default
100
AcDbSpline
210
0.0
220
0.0
230
1.0
 70
     8
 71
     3
 72
    12
 73
     8
 74
     0
 42
0.000000001
 43
0.0000000001
 40
0.0
 40
0.0
 40
0.0
 40
0.0
 40
1.918305221504867
 40
3.868777778011241
 40
7.624449324857683
 40
11.42846767657462
 40
15.35241906764609
 40
15.35241906764609
 40
15.35241906764609
 40
15.35241906764609
 10
1315.737287046528
 20
-1.633858531022269
 30
0.0
 10
1315.750766436731
 20
-17.87393468964001
 30
0.0
 10
1312.580585607791
 20
-50.63618305676937
 30
0.0
 10
1293.934825922277
 20
-112.7627689775327
 30
0.0
 10
1247.841284239906
 20
-180.8324278382388
 30
0.0
 10
1164.283012517708
 20
-234.28622331925
 30
0.0
 10
1098.705118395011
 20
-246.1090710817298
 30
0.0
 10
1065.497598741373
 20
-246.1085287221759
 30
0.0
  0
SPLINE
  5
58A
330
1F
100
AcDbEntity
  8
Default
100
AcDbSpline
210
0.0
220
0.0
230
1.0
 70
     8
 71
     3
 72
    12
 73
     8
 74
     0
 42
0.000000001
 43
0.0000000001
 40
-14.89017236839833
 40
-14.89017236839833
 40
-14.89017236839833
 40
-14.89017236839833
 40
-11.21816917573749
 40
-7.516682162771167
 40
-3.774519558109396
 40
-1.88935509827327
 40
0.0
 40
0.0
 40
0.0
 40
0.0
 10
1065.497598741373
 20
-246.1085287221759
 30
0.0
 10
1034.403802215913
 20
-246.1168614696617
 30
0.0
 10
971.9910379859994
 20
-233.2351754043775
 30
0.0
 10
893.0777432608975
 20
-178.5742263950851
 30
0.0
 10
849.4691445993211
 20
-110.9312720709895
 30
0.0
 10
831.4935561405199
 20
-49.58857374276703
 30
0.0
 10
828.4198152065055
 20
-17.62906900769667
 30
0.0
 10
828.4180939272355
 20
-1.633857484292093
 30
0.0
  0
SPLINE
  5
58B
330
1F
100
AcDbEntity
  8
Default
100
AcDbSpline
210
0.0
220
0.0
230
1.0
 70
     8
 71
     3
 72
    12
 73
     8
 74
     0
 42
0.000000001
 43
0.0000000001
 40
0.0
 40
0.0
 40
0.0
 40
0.0
 40
0.1510110321465192
 40
0.3037660471064116
 40
0.5900965017365678
 40
0.8249401141264362
 40
1.014583801502342
 40
1.014583801502342
 40
1.014583801502342
 40
1.014583801502342
 10
-768.6123739210443
 20
-11.84109317513821
 30
0.0
 10
-767.3393199158153
 20
-11.96596522307618
 30
0.0
 10
-764.7663036178628
 20
-12.06324159678797
 30
0.0
 10
-759.7765290152446
 20
-11.6260597380201
 30
0.0
 10
-754.2356898375865
 20
-10.0905703906169
 30
0.0
 10
-749.1339788204158
 20
-6.667975561329058
 30
0.0
 10
-747.4894678542759
 20
-3.26901775844044
 30
0.0
 10
-747.5213062383764
 20
-1.634508879221812
 30
0.0
  0
SPLINE
  5
58C
330
1F
100
AcDbEntity
  8
Default
100
AcDbSpline
210
0.0
220
0.0
230
1.0
 70
     8
 71
     3
 72
    12
 73
     8
 74
     0
 42
0.000000001
 43
0.0000000001
 40
-1.014583801502342
 40
-1.014583801502342
 40
-1.014583801502342
 40
-1.014583801502342
 40
-0.8249401141264362
 40
-0.5900965017365678
 40
-0.3037660471064116
 40
-0.1510110321465192
 40
0.0
 40
0.0
 40
0.0
 40
0.0
 10
-747.5213062383764
 20
-1.634508879221812
 30
0.0
 10
-747.4894678542759
 20
0.0000000000004547
 30
0.0
 10
-749.1339788204158
 20
3.398957802889071
 30
0.0
 10
-754.2356898375865
 20
6.821552632176917
 30
0.0
 10
-759.7765290152446
 20
8.357041979580117
 30
0.0
 10
-764.7663036178628
 20
8.794223838347988
 30
0.0
 10
-767.3393199158153
 20
8.696947464636195
 30
0.0
 10
-768.6123739210443
 20
8.572075416694588
 30
0.0
  0
SPLINE
  5
58D
330
1F
100
AcDbEntity
  8
Default
100
AcDbSpline
210
0.0
220
0.0
230
1.0
 70
    12
 71
     2
 72
     6
 73
     3
 74
     0
 42
0.000000001
 43
0.0000000001
 40
0.0
 40
0.0
 40
0.0
 40
0.1369528492222414
 40
0.1369528492222414
 40
0.1369528492222414
 10
-778.2480344575624
 20
-10.9718227760236
 30
0.0
 41
1.0
 10
-776.5091421956849
 20
-10.9355125713223
 30
0.0
 41
0.9999966913238282
 10
-774.769261616936
 20
-10.95460491102085
 30
0.0
 41
0.9999959461296658
  0
ARC
  5
58E
330
1F
100
AcDbEntity
  8
Default
100
AcDbCircle
 10
-774.5604137390355
 20
-23.65288757301414
 30
0.0
 40
12.7
100
AcDbArc
 50
78.48715217353164
 51
90.9422552251277
  0
SPLINE
  5
58F
330
1F
100
AcDbEntity
  8
Default
100
AcDbSpline
210
0.0
220
0.0
230
1.0
 70
     8
 71
     3
 72
    14
 73
    10
 74
     0
 42
0.000000001
 43
0.0000000001
 40
0.2772630823298201
 40
0.2772630823298201
 40
0.2772630823298201
 40
0.2772630823298201
 40
1.0
 40
2.0
 40
3.0
 40
4.0
 40
5.0
 40
6.0
 40
7.0
 40
7.0
 40
7.0
 40
7.0
 10
-772.0256503979135
 20
-11.20841189886369
 30
0.0
 10
-771.0159067911763
 20
-11.41408236223242
 30
0.0
 10
-768.5870120297468
 20
-11.79676482922832
 30
0.0
 10
-764.6968862884632
 20
-11.91719560501178
 30
0.0
 10
-760.4353679207187
 20
-11.45963000609799
 30
0.0
 10
-756.2762247179298
 20
-10.40478415958159
 30
0.0
 10
-752.3679893307989
 20
-8.61437945548414
 30
0.0
 10
-749.0416183085244
 20
-5.817709715810906
 30
0.0
 10
-747.8930251397569
 20
-3.074269806503707
 30
0.0
 10
-747.9059157847141
 20
-1.63449626659667
 30
0.0
  0
SPLINE
  5
590
330
1F
100
AcDbEntity
  8
Default
100
AcDbSpline
210
0.0
220
0.0
230
1.0
 70
     8
 71
     3
 72
    14
 73
    10
 74
     0
 42
0.000000001
 43
0.0000000001
 40
-7.0
 40
-7.0
 40
-7.0
 40
-7.0
 40
-6.0
 40
-5.0
 40
-4.0
 40
-3.0
 40
-2.0
 40
-1.0
 40
-0.2482205602640466
 40
-0.2482205602640466
 40
-0.2482205602640466
 40
-0.2482205602640466
 10
-747.9059157847141
 20
-1.63449626659667
 30
0.0
 10
-747.8930251397569
 20
-0.1947227266859954
 30
0.0
 10
-749.0416183085244
 20
2.548717182621203
 30
0.0
 10
-752.3679893307989
 20
5.345386922294437
 30
0.0
 10
-756.2762247179298
 20
7.135791626391892
 30
0.0
 10
-760.4353679207187
 20
8.190637472908292
 30
0.0
 10
-764.6968862884632
 20
8.648203071822081
 30
0.0
 10
-768.6285066970985
 20
8.526487701321912
 30
0.0
 10
-771.0977919343632
 20
8.132099926293903
 30
0.0
 10
-772.1473322462252
 20
7.914407304415817
 30
0.0
  0
ARC
  5
591
330
1F
100
AcDbEntity
  8
Default
100
AcDbCircle
 10
-774.7266307238269
 20
20.34972874631831
 30
0.0
 40
12.7
100
AcDbArc
 50
268.977579807951
 51
281.7179678781601
  0
SPLINE
  5
592
330
1F
100
AcDbEntity
  8
Default
100
AcDbSpline
210
0.0
220
0.0
230
1.0
 70
    12
 71
     2
 72
     6
 73
     3
 74
     0
 42
0.000000001
 43
0.0000000001
 40
-0.1297405451143296
 40
-0.1297405451143296
 40
-0.1297405451143296
 40
0.0
 40
0.0
 40
0.0
 10
-774.9532450999532
 20
7.651750721274311
 30
0.0
 41
0.9999960316975588
 10
-776.600688164398
 20
7.68115180241557
 30
0.0
 41
0.999996865512317
 10
-778.2480344575624
 20
7.71555041493093
 30
0.0
 41
1.0
  0
SPLINE
  5
593
330
1F
100
AcDbEntity
  8
Default
100
AcDbSpline
210
0.0
220
0.0
230
1.0
 70
    12
 71
     2
 72
     6
 73
     3
 74
     0
 42
0.000000001
 43
0.0000000001
 40
0.0
 40
0.0
 40
0.0
 40
0.0853474550214741
 40
0.0853474550214741
 40
0.0853474550214741
 10
-767.7221948150499
 20
8.647275749467098
 30
0.0
 41
1.0
 10
-766.640504357666
 20
8.723155149721151
 30
0.0
 41
0.9993970637774639
 10
-765.5561559199695
 20
8.723783356083458
 30
0.0
 41
1.0
  0
SPLINE
  5
594
330
1F
100
AcDbEntity
  8
Default
100
AcDbSpline
210
0.0
220
0.0
230
1.0
 70
    12
 71
     2
 72
     6
 73
     3
 74
     0
 42
0.000000001
 43
0.0000000001
 40
0.0
 40
0.0
 40
0.0
 40
0.0853474550214741
 40
0.0853474550214741
 40
0.0853474550214741
 10
-1129.896660289551
 20
350.2581716748214
 30
0.0
 41
1.0
 10
-1129.972539689805
 20
351.339862132209
 30
0.0
 41
0.9993970637774639
 10
-1129.973167896168
 20
352.4242105699054
 30
0.0
 41
1.0
  0
SPLINE
  5
595
330
1F
100
AcDbEntity
  8
Default
100
AcDbSpline
210
0.0
220
0.0
230
1.0
 70
     8
 71
     3
 72
    12
 73
     8
 74
     0
 42
0.000000001
 43
0.0000000001
 40
0.0
 40
0.0
 40
0.0
 40
0.0
 40
0.1510110321465192
 40
0.3037660471064116
 40
0.5900965017365678
 40
0.8249401141264362
 40
1.014583801502342
 40
1.014583801502342
 40
1.014583801502342
 40
1.014583801502342
 10
-1109.408291364946
 20
349.3679925688271
 30
0.0
 10
-1109.283419317008
 20
350.6410465740596
 30
0.0
 10
-1109.186142943296
 20
353.2140628720122
 30
0.0
 10
-1109.623324802064
 20
358.2038374746267
 30
0.0
 10
-1111.158814149467
 20
363.7446766522812
 30
0.0
 10
-1114.581408978755
 20
368.8463876694555
 30
0.0
 10
-1117.980366781644
 20
370.4908986355954
 30
0.0
 10
-1119.614875660863
 20
370.4590602514986
 30
0.0
  0
SPLINE
  5
596
330
1F
100
AcDbEntity
  8
Default
100
AcDbSpline
210
0.0
220
0.0
230
1.0
 70
     8
 71
     3
 72
    12
 73
     8
 74
     0
 42
0.000000001
 43
0.0000000001
 40
-1.014583801502342
 40
-1.014583801502342
 40
-1.014583801502342
 40
-1.014583801502342
 40
-0.8249401141264362
 40
-0.5900965017365678
 40
-0.3037660471064116
 40
-0.1510110321465192
 40
0.0
 40
0.0
 40
0.0
 40
0.0
 10
-1119.614875660863
 20
370.4590602514986
 30
0.0
 10
-1121.249384540085
 20
370.4908986355954
 30
0.0
 10
-1124.648342342973
 20
368.8463876694555
 30
0.0
 10
-1128.070937172261
 20
363.7446766522812
 30
0.0
 10
-1129.606426519664
 20
358.2038374746267
 30
0.0
 10
-1130.043608378432
 20
353.2140628720122
 30
0.0
 10
-1129.94633200472
 20
350.6410465740596
 30
0.0
 10
-1129.821459956783
 20
349.3679925688271
 30
0.0
  0
SPLINE
  5
597
330
1F
100
AcDbEntity
  8
Default
100
AcDbSpline
210
0.0
220
0.0
230
1.0
 70
    12
 71
     2
 72
     6
 73
     3
 74
     0
 42
0.000000001
 43
0.0000000001
 40
0.0
 40
0.0
 40
0.0
 40
0.1369528492222414
 40
0.1369528492222414
 40
0.1369528492222414
 10
-1110.277561764061
 20
339.7323320323089
 30
0.0
 41
1.0
 10
-1110.313871968762
 20
341.4712242941828
 30
0.0
 41
0.9999966913238282
 10
-1110.294779629064
 20
343.2111048729389
 30
0.0
 41
0.9999959461296658
  0
ARC
  5
598
330
1F
100
AcDbEntity
  8
Default
100
AcDbCircle
 10
-1097.59649696707
 20
343.4199527508395
 30
0.0
 40
12.7
100
AcDbArc
 50
168.4871521735326
 51
180.9422552251275
  0
SPLINE
  5
599
330
1F
100
AcDbEntity
  8
Default
100
AcDbSpline
210
0.0
220
0.0
230
1.0
 70
     8
 71
     3
 72
    14
 73
    10
 74
     0
 42
0.000000001
 43
0.0000000001
 40
0.2772630823298201
 40
0.2772630823298201
 40
0.2772630823298201
 40
0.2772630823298201
 40
1.0
 40
2.0
 40
3.0
 40
4.0
 40
5.0
 40
6.0
 40
7.0
 40
7.0
 40
7.0
 40
7.0
 10
-1110.040972641221
 20
345.9547160919615
 30
0.0
 10
-1109.835302177852
 20
346.9644596986987
 30
0.0
 10
-1109.452619710856
 20
349.3933544601246
 30
0.0
 10
-1109.332188935073
 20
353.2834802014118
 30
0.0
 10
-1109.789754533986
 20
357.5449985691526
 30
0.0
 10
-1110.844600380503
 20
361.7041417719415
 30
0.0
 10
-1112.6350050846
 20
365.612377159076
 30
0.0
 10
-1115.431674824273
 20
368.9387481813469
 30
0.0
 10
-1118.17511473358
 20
370.0873413501144
 30
0.0
 10
-1119.614888273491
 20
370.0744507051572
 30
0.0
  0
SPLINE
  5
59A
330
1F
100
AcDbEntity
  8
Default
100
AcDbSpline
210
0.0
220
0.0
230
1.0
 70
     8
 71
     3
 72
    14
 73
    10
 74
     0
 42
0.000000001
 43
0.0000000001
 40
-7.0
 40
-7.0
 40
-7.0
 40
-7.0
 40
-6.0
 40
-5.0
 40
-4.0
 40
-3.0
 40
-2.0
 40
-1.0
 40
-0.2482205602640466
 40
-0.2482205602640466
 40
-0.2482205602640466
 40
-0.2482205602640466
 10
-1119.614888273491
 20
370.0744507051572
 30
0.0
 10
-1121.054661813395
 20
370.0873413501144
 30
0.0
 10
-1123.798101722705
 20
368.9387481813469
 30
0.0
 10
-1126.594771462379
 20
365.612377159076
 30
0.0
 10
-1128.385176166476
 20
361.7041417719415
 30
0.0
 10
-1129.440022012992
 20
357.5449985691526
 30
0.0
 10
-1129.897587611906
 20
353.2834802014118
 30
0.0
 10
-1129.775872241406
 20
349.3518597927764
 30
0.0
 10
-1129.381484466378
 20
346.8825745555082
 30
0.0
 10
-1129.1637918445
 20
345.8330342436497
 30
0.0
  0
ARC
  5
59B
330
1F
100
AcDbEntity
  8
Default
100
AcDbCircle
 10
-1141.599113286403
 20
343.2537357660408
 30
0.0
 40
12.7
100
AcDbArc
 50
358.9775798079638
 51
11.71796787816484
  0
SPLINE
  5
59C
330
1F
100
AcDbEntity
  8
Default
100
AcDbSpline
210
0.0
220
0.0
230
1.0
 70
    12
 71
     2
 72
     6
 73
     3
 74
     0
 42
0.000000001
 43
0.0000000001
 40
-0.1297405451143296
 40
-0.1297405451143296
 40
-0.1297405451143296
 40
0.0
 40
0.0
 40
0.0
 10
-1128.901135261359
 20
343.0271213899182
 30
0.0
 41
0.9999960316975588
 10
-1128.9305363425
 20
341.379678325477
 30
0.0
 41
0.999996865512317
 10
-1128.964934955015
 20
339.7323320323089
 30
0.0
 41
1.0
  0
SPLINE
  5
59D
330
1F
100
AcDbEntity
  8
Default
100
AcDbSpline
210
0.0
220
0.0
230
1.0
 70
    12
 71
     2
 72
     6
 73
     3
 74
     0
 42
0.000000001
 43
0.0000000001
 40
0.0
 40
0.0
 40
0.0
 40
0.0587632096241838
 40
0.0587632096241838
 40
0.0587632096241838
 10
-748.0288815405574
 20
-0.1578585933489194
 30
0.0
 41
1.0
 10
-747.8411797561193
 20
-0.8842470317790684
 30
0.0
 41
0.9921107855315545
 10
-747.8400673013011
 20
-1.634494248246028
 30
0.0
 41
1.0
  0
SPLINE
  5
59E
330
1F
100
AcDbEntity
  8
Default
100
AcDbSpline
210
0.0
220
0.0
230
1.0
 70
    24
 71
     2
 72
     6
 73
     3
 74
     0
 42
0.000000001
 43
0.0000000001
 40
0.0
 40
0.0
 40
0.0
 40
0.0114467396849787
 40
0.0114467396849787
 40
0.0114467396849787
 10
-747.8400673012792
 20
-1.634509022892871
 30
0.0
 10
-747.6946937072816
 20
-1.634508957369234
 30
0.0
 10
-747.5493201132803
 20
-1.634508891849236
 30
0.0
  0
SPLINE
  5
59F
330
1F
100
AcDbEntity
  8
Default
100
AcDbSpline
210
0.0
220
0.0
230
1.0
 70
    12
 71
     2
 72
     6
 73
     3
 74
     0
 42
0.000000001
 43
0.0000000001
 40
0.0
 40
0.0
 40
0.0
 40
0.0586712320260919
 40
0.0586712320260919
 40
0.0586712320260919
 10
-747.8400673012792
 20
-1.634509022892871
 30
0.0
 41
1.0
 10
-747.8411717237932
 20
-2.383570075201987
 30
0.0
 41
0.9921343149382712
 10
-748.0282982150811
 20
-3.108881977830151
 30
0.0
 41
1.0
  0
SPLINE
  5
5A0
330
1F
100
AcDbEntity
  8
Default
100
AcDbSpline
210
0.0
220
0.0
230
1.0
 70
     8
 71
     3
 72
    22
 73
    18
 74
     0
 42
0.000000001
 43
0.0000000001
 40
0.0
 40
0.0
 40
0.0
 40
0.0
 40
0.2588469591229587
 40
0.6477254461891114
 40
1.024641027840087
 40
1.817983982162573
 40
2.582167143679937
 40
4.062052734317923
 40
7.850412104674
 40
9.497260537102542
 40
10.543391206404
 40
10.8432833113025
 40
12.15829953678302
 40
13.34949093133962
 40
14.77372714428499
 40
17.25709974516987
 40
21.82793658798906
 40
21.82793658798906
 40
21.82793658798906
 40
21.82793658798906
 10
-1456.205152160218
 20
194.9274346515635
 30
0.0
 10
-1454.007369166457
 20
194.724126343041
 30
0.0
 10
-1448.560163177672
 20
195.7079555210007
 30
0.0
 10
-1440.469169104591
 20
198.8705919923854
 30
0.0
 10
-1428.556578785482
 20
204.5681653195611
 30
0.0
 10
-1414.162194441501
 20
212.3908275788276
 30
0.0
 10
-1391.038097388295
 20
223.6538973915126
 30
0.0
 10
-1344.764999179507
 20
245.2776331460705
 30
0.0
 10
-1290.612756158948
 20
267.6052456939692
 30
0.0
 10
-1239.447212410828
 20
287.413022308338
 30
0.0
 10
-1215.71767979101
 20
296.3060569857666
 30
0.0
 10
-1194.515139655853
 20
303.9613720434686
 30
0.0
 10
-1171.06035884096
 20
308.4956522725047
 30
0.0
 10
-1137.824476090353
 20
310.2443637676993
 30
0.0
 10
-1094.613048202339
 20
309.7841677852198
 30
0.0
 10
-1023.209053920602
 20
300.6516075491167
 30
0.0
 10
-966.8966022331064
 20
277.9509391107827
 30
0.0
 10
-934.9524296910262
 20
255.950492115528
 30
0.0
  0
SPLINE
  5
5A1
330
1F
100
AcDbEntity
  8
Default
100
AcDbSpline
210
0.0
220
0.0
230
1.0
 70
     8
 71
     3
 72
    19
 73
    15
 74
     0
 42
0.000000001
 43
0.0000000001
 40
-12.0
 40
-12.0
 40
-12.0
 40
-12.0
 40
-11.0
 40
-10.0
 40
-9.0
 40
-8.0
 40
-7.0
 40
-6.0
 40
-5.0
 40
-4.0
 40
-3.0
 40
-2.0
 40
-1.0
 40
0.0
 40
0.0
 40
0.0
 40
0.0
 10
-1499.941304201012
 20
221.5606959671573
 30
0.0
 10
-1505.305024390872
 20
218.3656451467582
 30
0.0
 10
-1509.372587123877
 20
205.5439607833837
 30
0.0
 10
-1513.959071417338
 20
187.42854876916
 30
0.0
 10
-1517.36463268737
 20
168.6436996127054
 30
0.0
 10
-1520.454576896801
 20
149.9230092942421
 30
0.0
 10
-1522.9828419256
 20
131.0853879815772
 30
0.0
 10
-1525.068092356449
 20
112.2031815084633
 30
0.0
 10
-1526.728004852734
 20
93.27645494804574
 30
0.0
 10
-1528.005872830558
 20
74.32101945376098
 30
0.0
 10
-1528.936515843735
 20
55.34533339232485
 30
0.0
 10
-1529.555933006081
 20
36.35713600179633
 30
0.0
 10
-1529.899931363116
 20
17.36208002035391
 30
0.0
 10
-1529.969534114635
 20
4.696885759888118
 30
0.0
 10
-1529.970351647828
 20
-1.635685798606118
 30
0.0
  0
SPLINE
  5
5A2
330
1F
100
AcDbEntity
  8
Default
100
AcDbSpline
210
0.0
220
0.0
230
1.0
 70
    12
 71
     2
 72
     6
 73
     3
 74
     0
 42
0.000000001
 43
0.0000000001
 40
-6.233889429224446
 40
-6.233889429224446
 40
-6.233889429224446
 40
0.0
 40
0.0
 40
0.0
 10
-1543.373588755147
 20
-1.635685798605891
 30
0.0
 41
1.0
 10
-1543.520973373771
 20
77.70811645709227
 30
0.0
 41
0.996730330589404
 10
-1530.886652045209
 20
156.0392578094111
 30
0.0
 41
1.0
  0
SPLINE
  5
5A3
330
1F
100
AcDbEntity
  8
Default
100
AcDbSpline
210
0.0
220
0.0
230
1.0
 70
     8
 71
     3
 72
    12
 73
     8
 74
     0
 42
0.000000001
 43
0.0000000001
 40
0.0
 40
0.0
 40
0.0
 40
0.0
 40
0.8495817757806477
 40
1.391422022197968
 40
2.191064820612614
 40
2.689385262996221
 40
3.111933853859593
 40
3.111933853859593
 40
3.111933853859593
 40
3.111933853859593
 10
-1530.886652045209
 20
156.0392578094111
 30
0.0
 10
-1529.614745166715
 20
163.1458892114319
 30
0.0
 10
-1527.837778442422
 20
174.7392704865856
 30
0.0
 10
-1523.991740397071
 20
192.948006858584
 30
0.0
 10
-1519.93851333509
 20
207.9482985817308
 30
0.0
 10
-1512.195447464611
 20
220.7874071401134
 30
0.0
 10
-1503.59783101097
 20
222.7102417509637
 30
0.0
 10
-1500.080899583775
 20
221.5989706400837
 30
0.0
  0
SPLINE
  5
5A4
330
1F
100
AcDbEntity
  8
Default
100
AcDbSpline
210
0.0
220
0.0
230
1.0
 70
    12
 71
     2
 72
     6
 73
     3
 74
     0
 42
0.000000001
 43
0.0000000001
 40
0.0
 40
0.0
 40
0.0
 40
0.443505275079806
 40
0.443505275079806
 40
0.443505275079806
 10
-1500.080899583775
 20
221.5989706400837
 30
0.0
 41
1.0
 10
-1494.454792652486
 20
219.9734831593928
 30
0.0
 41
0.9799943751373794
 10
-1490.025769904753
 20
216.3710097770495
 30
0.0
 41
1.0
  0
SPLINE
  5
5A5
330
1F
100
AcDbEntity
  8
Default
100
AcDbSpline
210
0.0
220
0.0
230
1.0
 70
    12
 71
     2
 72
     6
 73
     3
 74
     0
 42
0.000000001
 43
0.0000000001
 40
-5.654573080352872
 40
-5.654573080352872
 40
-5.654573080352872
 40
0.0
 40
0.0
 40
0.0
 10
-1533.254772074126
 20
141.3472357364412
 30
0.0
 41
1.0
 10
-1544.93410587593
 20
70.33295828016389
 30
0.0
 41
0.9967681786255456
 10
-1545.090165285011
 20
-1.635685798605891
 30
0.0
 41
1.0
  0
SPLINE
  5
5A6
330
1F
100
AcDbEntity
  8
Default
100
AcDbSpline
210
0.0
220
0.0
230
1.0
 70
    12
 71
     2
 72
     6
 73
     3
 74
     0
 42
0.000000001
 43
0.0000000001
 40
-1.102413928352738
 40
-1.102413928352738
 40
-1.102413928352738
 40
0.0
 40
0.0
 40
0.0
 10
-1129.303598892099
 20
309.9924826791398
 30
0.0
 41
0.9999999993925147
 10
-1129.14836664282
 20
324.0013316028931
 30
0.0
 41
0.9999999996616539
 10
-1128.993294877381
 20
338.0112136004504
 30
0.0
 41
1.0
  0
SPLINE
  5
5A7
330
1F
100
AcDbEntity
  8
Default
100
AcDbSpline
210
0.0
220
0.0
230
1.0
 70
     8
 71
     3
 72
    14
 73
    10
 74
     0
 42
0.000000001
 43
0.0000000001
 40
0.0
 40
0.0
 40
0.0
 40
0.0
 40
1.0
 40
2.0
 40
3.0
 40
4.0
 40
5.0
 40
6.0
 40
7.0
 40
7.0
 40
7.0
 40
7.0
 10
-1128.993294877381
 20
338.0112136004504
 30
0.0
 10
-1128.966627703822
 20
339.7969761717945
 30
0.0
 10
-1128.451082212817
 20
343.1659291088877
 30
0.0
 10
-1126.272146853344
 20
347.798309272363
 30
0.0
 10
-1122.223514696076
 20
351.2225097586129
 30
0.0
 10
-1116.808553086513
 20
351.1367259756412
 30
0.0
 10
-1112.842181292594
 20
347.632254615332
 30
0.0
 10
-1110.723297175204
 20
342.9741670188637
 30
0.0
 10
-1110.243033530408
 20
339.6000995472064
 30
0.0
 10
-1110.242275514952
 20
337.9126909748925
 30
0.0
  0
SPLINE
  5
5A8
330
1F
100
AcDbEntity
  8
Default
100
AcDbSpline
210
0.0
220
0.0
230
1.0
 70
    12
 71
     2
 72
     6
 73
     3
 74
     0
 42
0.000000001
 43
0.0000000001
 40
0.0
 40
0.0
 40
0.0
 40
1.112498698414412
 40
1.112498698414412
 40
1.112498698414412
 10
-1110.242275514952
 20
337.9126909748925
 30
0.0
 41
1.0
 10
-1110.08650001823
 20
323.7848162885462
 30
0.0
 41
0.9999999996585591
 10
-1109.930487310182
 20
309.656944219711
 30
0.0
 41
0.9999999993875963
  0
SPLINE
  5
5A9
330
1F
100
AcDbEntity
  8
Default
100
AcDbSpline
210
0.0
220
0.0
230
1.0
 70
    12
 71
     2
 72
     6
 73
     3
 74
     0
 42
0.000000001
 43
0.0000000001
 40
-1.281345128275034
 40
-1.281345128275034
 40
-1.281345128275034
 40
0.0
 40
0.0
 40
0.0
 10
-812.5353683488819
 20
8.104609620645078
 30
0.0
 41
0.9999999993069707
 10
-796.2529584406539
 20
7.924151575255109
 30
0.0
 41
0.9999999996067375
 10
-779.9691528894209
 20
7.743910337296711
 30
0.0
 41
1.0
  0
SPLINE
  5
5AA
330
1F
100
AcDbEntity
  8
Default
100
AcDbSpline
210
0.0
220
0.0
230
1.0
 70
     8
 71
     3
 72
    14
 73
    10
 74
     0
 42
0.000000001
 43
0.0000000001
 40
0.0
 40
0.0
 40
0.0
 40
0.0
 40
1.0
 40
2.0
 40
3.0
 40
4.0
 40
5.0
 40
6.0
 40
7.0
 40
7.0
 40
7.0
 40
7.0
 10
-779.9691528894209
 20
7.743910337296711
 30
0.0
 10
-778.1833903180768
 20
7.717243163737748
 30
0.0
 10
-774.8144373809873
 20
7.201697672728641
 30
0.0
 10
-770.1820572175083
 20
5.022762313260045
 30
0.0
 10
-766.7578567312585
 20
0.974130155992043
 30
0.0
 10
-766.8436405142301
 20
-4.440831453571718
 30
0.0
 10
-770.3481118745358
 20
-8.407203247486449
 30
0.0
 10
-775.0061994710076
 20
-10.52608736487991
 30
0.0
 10
-778.3802669426649
 20
-11.00635100967656
 30
0.0
 10
-780.0676755149789
 20
-11.00710902513265
 30
0.0
  0
SPLINE
  5
5AB
330
1F
100
AcDbEntity
  8
Default
100
AcDbSpline
210
0.0
220
0.0
230
1.0
 70
    12
 71
     2
 72
     6
 73
     3
 74
     0
 42
0.000000001
 43
0.0000000001
 40
0.0
 40
0.0
 40
0.0
 40
1.278324852146924
 40
1.278324852146924
 40
1.278324852146924
 10
-780.0676755149789
 20
-11.00710902513265
 30
0.0
 41
1.0
 10
-796.3014143465252
 20
-11.1861040110266
 30
0.0
 41
0.9999999996076647
 10
-812.5351497216897
 20
-11.36541219481978
 30
0.0
 41
0.9999999993083845
  0
SPLINE
  5
5AC
330
1F
100
AcDbEntity
  8
Default
100
AcDbSpline
210
0.0
220
0.0
230
1.0
 70
     8
 71
     3
 72
    47
 73
    43
 74
     0
 42
0.000000001
 43
0.0000000001
 40
36.00001859489052
 40
36.00001859489052
 40
36.00001859489052
 40
36.00001859489052
 40
37.0
 40
38.0
 40
39.0
 40
40.0
 40
41.0
 40
42.0
 40
43.0
 40
44.0
 40
45.0
 40
46.0
 40
47.0
 40
48.0
 40
49.0
 40
50.0
 40
51.0
 40
52.0
 40
53.0
 40
53.0
 40
53.0
 40
54.0
 40
55.0
 40
56.0
 40
57.0
 40
58.0
 40
59.0
 40
60.0
 40
60.0
 40
60.0
 40
61.0
 40
62.0
 40
63.0
 40
64.0
 40
65.0
 40
66.0
 40
67.0
 40
68.0
 40
69.0
 40
70.0
 40
71.0
 40
72.0
 40
72.0
 40
72.0
 40
72.0
 10
-812.4311672622857
 20
-1.634508879221812
 30
0.0
 10
-812.4122415425986
 20
9.550620603577044
 30
0.0
 10
-813.3277542675051
 20
31.92332014701947
 30
0.0
 10
-817.609727752394
 20
65.23783736452651
 30
0.0
 10
-824.9312867656326
 20
98.0253308756478
 30
0.0
 10
-835.4706187238653
 20
129.9290538093596
 30
0.0
 10
-849.3945428375363
 20
160.52533167732
 30
0.0
 10
-866.9685364445641
 20
189.1796185591597
 30
0.0
 10
-887.7649015049673
 20
215.5977585623555
 30
0.0
 10
-911.8573184744517
 20
239.0583605119068
 30
0.0
 10
-938.7293658238146
 20
259.2713590249227
 30
0.0
 10
-968.1479987613188
 20
275.6090934277531
 30
0.0
 10
-999.7002663227563
 20
287.2831571279207
 30
0.0
 10
-1032.414548084219
 20
294.9546366098261
 30
0.0
 10
-1065.662380545152
 20
299.6680958305992
 30
0.0
 10
-1099.167929913644
 20
301.9362711122126
 30
0.0
 10
-1132.722412866572
 20
302.0101969606662
 30
0.0
 10
-1166.301618752487
 20
300.6359101988933
 30
0.0
 10
-1188.335448351211
 20
296.2777846469076
 30
0.0
 10
-1198.997433177245
 20
292.8710797956269
 30
0.0
 10
-1209.471121872967
 20
289.5465774783665
 30
0.0
 10
-1230.386181354227
 20
282.7944382707142
 30
0.0
 10
-1261.585323121037
 20
272.1423119303659
 30
0.0
 10
-1292.571662868048
 20
260.8853319783961
 30
0.0
 10
-1323.301959980249
 20
248.9444186718543
 30
0.0
 10
-1353.714314771804
 20
236.2168504186598
 30
0.0
 10
-1383.778227456826
 20
222.6781639626866
 30
0.0
 10
-1403.430879867114
 20
212.8308724049134
 30
0.0
 10
-1413.182818446755
 20
207.766771756284
 30
0.0
 10
-1415.185597134789
 20
206.7317185198121
 30
0.0
 10
-1419.19662618008
 20
204.6719840229457
 30
0.0
 10
-1425.277417306958
 20
201.7094946036564
 30
0.0
 10
-1431.457958615126
 20
198.9603632942494
 30
0.0
 10
-1437.787693332676
 20
196.56014330074
 30
0.0
 10
-1444.301424053169
 20
194.7335235125288
 30
0.0
 10
-1451.054887107303
 20
193.8008410525076
 30
0.0
 10
-1457.795421724039
 20
194.9486687954418
 30
0.0
 10
-1463.919201856056
 20
197.9009085852308
 30
0.0
 10
-1470.000458545942
 20
200.8421980224707
 30
0.0
 10
-1475.828038881321
 20
204.2967335535836
 30
0.0
 10
-1481.314937210772
 20
208.2573922046363
 30
0.0
 10
-1488.276748503026
 20
214.9483927791812
 30
0.0
 10
-1490.025769904753
 20
216.3710097770495
 30
0.0
  0
SPLINE
  5
5AD
330
1F
100
AcDbEntity
  8
Default
100
AcDbSpline
210
0.0
220
0.0
230
1.0
 70
     8
 71
     3
 72
    12
 73
     8
 74
     0
 42
0.000000001
 43
0.0000000001
 40
0.0
 40
0.0
 40
0.0
 40
0.0
 40
1.918305221504867
 40
3.868777778011241
 40
7.624449324857683
 40
11.42846767657462
 40
15.35241906764609
 40
15.35241906764609
 40
15.35241906764609
 40
15.35241906764609
 10
-1315.572912174461
 20
-1.635159227421809
 30
0.0
 10
-1315.586391564665
 20
14.60491693119593
 30
0.0
 10
-1312.416210735725
 20
47.36716529832529
 30
0.0
 10
-1293.770451050211
 20
109.4937512190886
 30
0.0
 10
-1247.67690936784
 20
177.5634100797947
 30
0.0
 10
-1164.118637645642
 20
231.0172055608059
 30
0.0
 10
-1098.540743522945
 20
242.8400533232857
 30
0.0
 10
-1065.333223869306
 20
242.8395109637317
 30
0.0
  0
SPLINE
  5
5AE
330
1F
100
AcDbEntity
  8
Default
100
AcDbSpline
210
0.0
220
0.0
230
1.0
 70
     8
 71
     3
 72
    12
 73
     8
 74
     0
 42
0.000000001
 43
0.0000000001
 40
-14.89017236839833
 40
-14.89017236839833
 40
-14.89017236839833
 40
-14.89017236839833
 40
-11.21816917573749
 40
-7.516682162771167
 40
-3.774519558109396
 40
-1.88935509827327
 40
0.0
 40
0.0
 40
0.0
 40
0.0
 10
-1065.333223869306
 20
242.8395109637317
 30
0.0
 10
-1034.239427343846
 20
242.8478437112176
 30
0.0
 10
-971.826663113933
 20
229.9661576459334
 30
0.0
 10
-892.9133683888313
 20
175.305208636641
 30
0.0
 10
-849.3047697272549
 20
107.6622543125454
 30
0.0
 10
-831.3291812684537
 20
46.31955598432296
 30
0.0
 10
-828.2554403344393
 20
14.36005124925259
 30
0.0
 10
-828.2537190551693
 20
-1.635160274151985
 30
0.0
  0
SPLINE
  5
5AF
330
1F
100
AcDbEntity
  8
Default
100
AcDbSpline
210
0.0
220
0.0
230
1.0
 70
    12
 71
     2
 72
     6
 73
     3
 74
     0
 42
0.000000001
 43
0.0000000001
 40
0.0
 40
0.0
 40
0.0
 40
0.0853474550214741
 40
0.0853474550214741
 40
0.0853474550214741
 10
-1129.896660289551
 20
-353.527189433265
 30
0.0
 41
1.0
 10
-1129.972539689805
 20
-354.6088798906526
 30
0.0
 41
0.9993970637774639
 10
-1129.973167896168
 20
-355.6932283283491
 30
0.0
 41
1.0
  0
SPLINE
  5
5B0
330
1F
100
AcDbEntity
  8
Default
100
AcDbSpline
210
0.0
220
0.0
230
1.0
 70
     8
 71
     3
 72
    12
 73
     8
 74
     0
 42
0.000000001
 43
0.0000000001
 40
0.0
 40
0.0
 40
0.0
 40
0.0
 40
0.1510110321465192
 40
0.3037660471064116
 40
0.5900965017365678
 40
0.8249401141264362
 40
1.014583801502342
 40
1.014583801502342
 40
1.014583801502342
 40
1.014583801502342
 10
-1109.408291364946
 20
-352.6370103272707
 30
0.0
 10
-1109.283419317008
 20
-353.9100643325032
 30
0.0
 10
-1109.186142943296
 20
-356.4830806304558
 30
0.0
 10
-1109.623324802064
 20
-361.4728552330703
 30
0.0
 10
-1111.158814149467
 20
-367.0136944107249
 30
0.0
 10
-1114.581408978755
 20
-372.1154054278991
 30
0.0
 10
-1117.980366781644
 20
-373.759916394039
 30
0.0
 10
-1119.614875660863
 20
-373.7280780099422
 30
0.0
  0
SPLINE
  5
5B1
330
1F
100
AcDbEntity
  8
Default
100
AcDbSpline
210
0.0
220
0.0
230
1.0
 70
     8
 71
     3
 72
    12
 73
     8
 74
     0
 42
0.000000001
 43
0.0000000001
 40
-1.014583801502342
 40
-1.014583801502342
 40
-1.014583801502342
 40
-1.014583801502342
 40
-0.8249401141264362
 40
-0.5900965017365678
 40
-0.3037660471064116
 40
-0.1510110321465192
 40
0.0
 40
0.0
 40
0.0
 40
0.0
 10
-1119.614875660863
 20
-373.7280780099422
 30
0.0
 10
-1121.249384540085
 20
-373.759916394039
 30
0.0
 10
-1124.648342342973
 20
-372.1154054278991
 30
0.0
 10
-1128.070937172261
 20
-367.0136944107249
 30
0.0
 10
-1129.606426519664
 20
-361.4728552330703
 30
0.0
 10
-1130.043608378432
 20
-356.4830806304558
 30
0.0
 10
-1129.94633200472
 20
-353.9100643325032
 30
0.0
 10
-1129.821459956783
 20
-352.6370103272707
 30
0.0
  0
SPLINE
  5
5B2
330
1F
100
AcDbEntity
  8
Default
100
AcDbSpline
210
0.0
220
0.0
230
1.0
 70
    12
 71
     2
 72
     6
 73
     3
 74
     0
 42
0.000000001
 43
0.0000000001
 40
0.0
 40
0.0
 40
0.0
 40
0.1369528492222414
 40
0.1369528492222414
 40
0.1369528492222414
 10
-1110.277561764061
 20
-343.0013497907526
 30
0.0
 41
1.0
 10
-1110.313871968762
 20
-344.7402420526264
 30
0.0
 41
0.9999966913238282
 10
-1110.294779629064
 20
-346.4801226313825
 30
0.0
 41
0.9999959461296658
  0
ARC
  5
5B3
330
1F
100
AcDbEntity
  8
Default
100
AcDbCircle
 10
-1097.59649696707
 20
-346.6889705092831
 30
0.0
 40
12.7
100
AcDbArc
 50
179.0577447748725
 51
191.5128478264673
  0
SPLINE
  5
5B4
330
1F
100
AcDbEntity
  8
Default
100
AcDbSpline
210
0.0
220
0.0
230
1.0
 70
     8
 71
     3
 72
    14
 73
    10
 74
     0
 42
0.000000001
 43
0.0000000001
 40
0.2772630823298201
 40
0.2772630823298201
 40
0.2772630823298201
 40
0.2772630823298201
 40
1.0
 40
2.0
 40
3.0
 40
4.0
 40
5.0
 40
6.0
 40
7.0
 40
7.0
 40
7.0
 40
7.0
 10
-1110.040972641221
 20
-349.2237338504051
 30
0.0
 10
-1109.835302177852
 20
-350.2334774571423
 30
0.0
 10
-1109.452619710856
 20
-352.6623722185682
 30
0.0
 10
-1109.332188935073
 20
-356.5524979598554
 30
0.0
 10
-1109.789754533986
 20
-360.8140163275962
 30
0.0
 10
-1110.844600380503
 20
-364.9731595303852
 30
0.0
 10
-1112.6350050846
 20
-368.8813949175196
 30
0.0
 10
-1115.431674824273
 20
-372.2077659397905
 30
0.0
 10
-1118.17511473358
 20
-373.3563591085581
 30
0.0
 10
-1119.614888273491
 20
-373.3434684636009
 30
0.0
  0
SPLINE
  5
5B5
330
1F
100
AcDbEntity
  8
Default
100
AcDbSpline
210
0.0
220
0.0
230
1.0
 70
     8
 71
     3
 72
    14
 73
    10
 74
     0
 42
0.000000001
 43
0.0000000001
 40
-7.0
 40
-7.0
 40
-7.0
 40
-7.0
 40
-6.0
 40
-5.0
 40
-4.0
 40
-3.0
 40
-2.0
 40
-1.0
 40
-0.2482205602640466
 40
-0.2482205602640466
 40
-0.2482205602640466
 40
-0.2482205602640466
 10
-1119.614888273491
 20
-373.3434684636009
 30
0.0
 10
-1121.054661813395
 20
-373.3563591085581
 30
0.0
 10
-1123.798101722705
 20
-372.2077659397905
 30
0.0
 10
-1126.594771462379
 20
-368.8813949175196
 30
0.0
 10
-1128.385176166476
 20
-364.9731595303852
 30
0.0
 10
-1129.440022012992
 20
-360.8140163275962
 30
0.0
 10
-1129.897587611906
 20
-356.5524979598554
 30
0.0
 10
-1129.775872241406
 20
-352.62087755122
 30
0.0
 10
-1129.381484466378
 20
-350.1515923139518
 30
0.0
 10
-1129.1637918445
 20
-349.1020520020934
 30
0.0
  0
ARC
  5
5B6
330
1F
100
AcDbEntity
  8
Default
100
AcDbCircle
 10
-1141.599113286403
 20
-346.5227535244844
 30
0.0
 40
12.7
100
AcDbArc
 50
348.2820321218351
 51
1.022420192049196
  0
SPLINE
  5
5B7
330
1F
100
AcDbEntity
  8
Default
100
AcDbSpline
210
0.0
220
0.0
230
1.0
 70
    12
 71
     2
 72
     6
 73
     3
 74
     0
 42
0.000000001
 43
0.0000000001
 40
-0.1297405451143296
 40
-0.1297405451143296
 40
-0.1297405451143296
 40
0.0
 40
0.0
 40
0.0
 10
-1128.901135261359
 20
-346.2961391483618
 30
0.0
 41
0.9999960316975588
 10
-1128.9305363425
 20
-344.6486960839207
 30
0.0
 41
0.999996865512317
 10
-1128.964934955015
 20
-343.0013497907526
 30
0.0
 41
1.0
  0
SPLINE
  5
5B8
330
1F
100
AcDbEntity
  8
Default
100
AcDbSpline
210
0.0
220
0.0
230
1.0
 70
     8
 71
     3
 72
    22
 73
    18
 74
     0
 42
0.000000001
 43
0.0000000001
 40
0.0
 40
0.0
 40
0.0
 40
0.0
 40
0.2588469591229587
 40
0.6477254461891114
 40
1.024641027840087
 40
1.817983982162573
 40
2.582167143679937
 40
4.062052734317923
 40
7.850412104674
 40
9.497260537102542
 40
10.543391206404
 40
10.8432833113025
 40
12.15829953678302
 40
13.34949093133962
 40
14.77372714428499
 40
17.25709974516987
 40
21.82793658798906
 40
21.82793658798906
 40
21.82793658798906
 40
21.82793658798906
 10
-1456.205152160218
 20
-198.1964524100071
 30
0.0
 10
-1454.007369166457
 20
-197.9931441014846
 30
0.0
 10
-1448.560163177672
 20
-198.9769732794443
 30
0.0
 10
-1440.469169104591
 20
-202.1396097508291
 30
0.0
 10
-1428.556578785482
 20
-207.8371830780047
 30
0.0
 10
-1414.162194441501
 20
-215.6598453372712
 30
0.0
 10
-1391.038097388295
 20
-226.9229151499562
 30
0.0
 10
-1344.764999179507
 20
-248.5466509045141
 30
0.0
 10
-1290.612756158948
 20
-270.8742634524128
 30
0.0
 10
-1239.447212410828
 20
-290.6820400667816
 30
0.0
 10
-1215.71767979101
 20
-299.5750747442103
 30
0.0
 10
-1194.515139655853
 20
-307.2303898019122
 30
0.0
 10
-1171.06035884096
 20
-311.7646700309483
 30
0.0
 10
-1137.824476090353
 20
-313.5133815261429
 30
0.0
 10
-1094.613048202339
 20
-313.0531855436634
 30
0.0
 10
-1023.209053920603
 20
-303.9206253075604
 30
0.0
 10
-966.8966022331069
 20
-281.2199568692263
 30
0.0
 10
-934.9524296910267
 20
-259.2195098739717
 30
0.0
  0
SPLINE
  5
5B9
330
1F
100
AcDbEntity
  8
Default
100
AcDbSpline
210
0.0
220
0.0
230
1.0
 70
     8
 71
     3
 72
    19
 73
    15
 74
     0
 42
0.000000001
 43
0.0000000001
 40
-12.0
 40
-12.0
 40
-12.0
 40
-12.0
 40
-11.0
 40
-10.0
 40
-9.0
 40
-8.0
 40
-7.0
 40
-6.0
 40
-5.0
 40
-4.0
 40
-3.0
 40
-2.0
 40
-1.0
 40
0.0
 40
0.0
 40
0.0
 40
0.0
 10
-1499.941304201012
 20
-224.8297137256009
 30
0.0
 10
-1505.305024390872
 20
-221.6346629052018
 30
0.0
 10
-1509.372587123877
 20
-208.8129785418273
 30
0.0
 10
-1513.959071417338
 20
-190.6975665276036
 30
0.0
 10
-1517.36463268737
 20
-171.912717371149
 30
0.0
 10
-1520.454576896801
 20
-153.1920270526857
 30
0.0
 10
-1522.9828419256
 20
-134.3544057400208
 30
0.0
 10
-1525.068092356449
 20
-115.4721992669069
 30
0.0
 10
-1526.728004852734
 20
-96.54547270648937
 30
0.0
 10
-1528.005872830558
 20
-77.59003721220461
 30
0.0
 10
-1528.936515843735
 20
-58.61435115076847
 30
0.0
 10
-1529.555933006081
 20
-39.62615376023996
 30
0.0
 10
-1529.899931363116
 20
-20.63109777879754
 30
0.0
 10
-1529.969534114635
 20
-7.965903518331742
 30
0.0
 10
-1529.970351647828
 20
-1.633331959837505
 30
0.0
  0
SPLINE
  5
5BA
330
1F
100
AcDbEntity
  8
Default
100
AcDbSpline
210
0.0
220
0.0
230
1.0
 70
    12
 71
     2
 72
     6
 73
     3
 74
     0
 42
0.000000001
 43
0.0000000001
 40
-6.233889429224446
 40
-6.233889429224446
 40
-6.233889429224446
 40
0.0
 40
0.0
 40
0.0
 10
-1543.373588755147
 20
-1.633331959837278
 30
0.0
 41
1.0
 10
-1543.520973373771
 20
-80.9771342155359
 30
0.0
 41
0.996730330589404
 10
-1530.886652045209
 20
-159.3082755678547
 30
0.0
 41
1.0
  0
SPLINE
  5
5BB
330
1F
100
AcDbEntity
  8
Default
100
AcDbSpline
210
0.0
220
0.0
230
1.0
 70
     8
 71
     3
 72
    12
 73
     8
 74
     0
 42
0.000000001
 43
0.0000000001
 40
0.0
 40
0.0
 40
0.0
 40
0.0
 40
0.8495817757806477
 40
1.391422022197968
 40
2.191064820612614
 40
2.689385262996221
 40
3.111933853859593
 40
3.111933853859593
 40
3.111933853859593
 40
3.111933853859593
 10
-1530.886652045209
 20
-159.3082755678547
 30
0.0
 10
-1529.614745166715
 20
-166.4149069698756
 30
0.0
 10
-1527.837778442422
 20
-178.0082882450292
 30
0.0
 10
-1523.991740397071
 20
-196.2170246170276
 30
0.0
 10
-1519.93851333509
 20
-211.2173163401744
 30
0.0
 10
-1512.195447464611
 20
-224.056424898557
 30
0.0
 10
-1503.59783101097
 20
-225.9792595094073
 30
0.0
 10
-1500.080899583775
 20
-224.8679883985273
 30
0.0
  0
SPLINE
  5
5BC
330
1F
100
AcDbEntity
  8
Default
100
AcDbSpline
210
0.0
220
0.0
230
1.0
 70
    12
 71
     2
 72
     6
 73
     3
 74
     0
 42
0.000000001
 43
0.0000000001
 40
0.0
 40
0.0
 40
0.0
 40
0.443505275079806
 40
0.443505275079806
 40
0.443505275079806
 10
-1500.080899583775
 20
-224.8679883985273
 30
0.0
 41
1.0
 10
-1494.454792652486
 20
-223.2425009178364
 30
0.0
 41
0.9799943751373794
 10
-1490.025769904753
 20
-219.6400275354931
 30
0.0
 41
1.0
  0
SPLINE
  5
5BD
330
1F
100
AcDbEntity
  8
Default
100
AcDbSpline
210
0.0
220
0.0
230
1.0
 70
    12
 71
     2
 72
     6
 73
     3
 74
     0
 42
0.000000001
 43
0.0000000001
 40
-5.654573080352872
 40
-5.654573080352872
 40
-5.654573080352872
 40
0.0
 40
0.0
 40
0.0
 10
-1533.254772074126
 20
-144.6162534948848
 30
0.0
 41
1.0
 10
-1544.93410587593
 20
-73.60197603860751
 30
0.0
 41
0.9967681786255456
 10
-1545.090165285011
 20
-1.633331959837278
 30
0.0
 41
1.0
  0
SPLINE
  5
5BE
330
1F
100
AcDbEntity
  8
Default
100
AcDbSpline
210
0.0
220
0.0
230
1.0
 70
    12
 71
     2
 72
     6
 73
     3
 74
     0
 42
0.000000001
 43
0.0000000001
 40
-1.102413928352738
 40
-1.102413928352738
 40
-1.102413928352738
 40
0.0
 40
0.0
 40
0.0
 10
-1129.303598892099
 20
-313.2615004375834
 30
0.0
 41
0.9999999993925147
 10
-1129.14836664282
 20
-327.2703493613367
 30
0.0
 41
0.9999999996616539
 10
-1128.993294877381
 20
-341.2802313588941
 30
0.0
 41
1.0
  0
SPLINE
  5
5BF
330
1F
100
AcDbEntity
  8
Default
100
AcDbSpline
210
0.0
220
0.0
230
1.0
 70
     8
 71
     3
 72
    14
 73
    10
 74
     0
 42
0.000000001
 43
0.0000000001
 40
0.0
 40
0.0
 40
0.0
 40
0.0
 40
1.0
 40
2.0
 40
3.0
 40
4.0
 40
5.0
 40
6.0
 40
7.0
 40
7.0
 40
7.0
 40
7.0
 10
-1128.993294877381
 20
-341.2802313588941
 30
0.0
 10
-1128.966627703822
 20
-343.0659939302381
 30
0.0
 10
-1128.451082212817
 20
-346.4349468673313
 30
0.0
 10
-1126.272146853344
 20
-351.0673270308066
 30
0.0
 10
-1122.223514696076
 20
-354.4915275170565
 30
0.0
 10
-1116.808553086513
 20
-354.4057437340848
 30
0.0
 10
-1112.842181292594
 20
-350.9012723737756
 30
0.0
 10
-1110.723297175204
 20
-346.2431847773073
 30
0.0
 10
-1110.243033530408
 20
-342.86911730565
 30
0.0
 10
-1110.242275514952
 20
-341.1817087333361
 30
0.0
  0
SPLINE
  5
5C0
330
1F
100
AcDbEntity
  8
Default
100
AcDbSpline
210
0.0
220
0.0
230
1.0
 70
    12
 71
     2
 72
     6
 73
     3
 74
     0
 42
0.000000001
 43
0.0000000001
 40
0.0
 40
0.0
 40
0.0
 40
1.112498698414412
 40
1.112498698414412
 40
1.112498698414412
 10
-1110.242275514952
 20
-341.1817087333361
 30
0.0
 41
1.0
 10
-1110.08650001823
 20
-327.0538340469898
 30
0.0
 41
0.9999999996585591
 10
-1109.930487310182
 20
-312.9259619781546
 30
0.0
 41
0.9999999993875963
  0
SPLINE
  5
5C1
330
1F
100
AcDbEntity
  8
Default
100
AcDbSpline
210
0.0
220
0.0
230
1.0
 70
     8
 71
     3
 72
    47
 73
    43
 74
     0
 42
0.000000001
 43
0.0000000001
 40
36.00001859489052
 40
36.00001859489052
 40
36.00001859489052
 40
36.00001859489052
 40
37.0
 40
38.0
 40
39.0
 40
40.0
 40
41.0
 40
42.0
 40
43.0
 40
44.0
 40
45.0
 40
46.0
 40
47.0
 40
48.0
 40
49.0
 40
50.0
 40
51.0
 40
52.0
 40
53.0
 40
53.0
 40
53.0
 40
54.0
 40
55.0
 40
56.0
 40
57.0
 40
58.0
 40
59.0
 40
60.0
 40
60.0
 40
60.0
 40
61.0
 40
62.0
 40
63.0
 40
64.0
 40
65.0
 40
66.0
 40
67.0
 40
68.0
 40
69.0
 40
70.0
 40
71.0
 40
72.0
 40
72.0
 40
72.0
 40
72.0
 10
-812.4311672622857
 20
-1.634508879221812
 30
0.0
 10
-812.4122415425986
 20
-12.81963836202067
 30
0.0
 10
-813.3277542675051
 20
-35.19233790546309
 30
0.0
 10
-817.609727752394
 20
-68.50685512297014
 30
0.0
 10
-824.9312867656326
 20
-101.2943486340914
 30
0.0
 10
-835.4706187238653
 20
-133.1980715678032
 30
0.0
 10
-849.3945428375363
 20
-163.7943494357637
 30
0.0
 10
-866.9685364445641
 20
-192.4486363176033
 30
0.0
 10
-887.7649015049673
 20
-218.8667763207991
 30
0.0
 10
-911.8573184744517
 20
-242.3273782703504
 30
0.0
 10
-938.7293658238149
 20
-262.5403767833664
 30
0.0
 10
-968.1479987613192
 20
-278.8781111861967
 30
0.0
 10
-999.7002663227567
 20
-290.5521748863644
 30
0.0
 10
-1032.414548084219
 20
-298.2236543682698
 30
0.0
 10
-1065.662380545152
 20
-302.9371135890428
 30
0.0
 10
-1099.167929913644
 20
-305.2052888706562
 30
0.0
 10
-1132.722412866572
 20
-305.2792147191099
 30
0.0
 10
-1166.301618752487
 20
-303.9049279573369
 30
0.0
 10
-1188.335448351211
 20
-299.5468024053512
 30
0.0
 10
-1198.997433177245
 20
-296.1400975540705
 30
0.0
 10
-1209.471121872967
 20
-292.8155952368101
 30
0.0
 10
-1230.386181354227
 20
-286.0634560291578
 30
0.0
 10
-1261.585323121037
 20
-275.4113296888095
 30
0.0
 10
-1292.571662868048
 20
-264.1543497368398
 30
0.0
 10
-1323.301959980249
 20
-252.2134364302979
 30
0.0
 10
-1353.714314771804
 20
-239.4858681771034
 30
0.0
 10
-1383.778227456826
 20
-225.9471817211302
 30
0.0
 10
-1403.430879867114
 20
-216.099890163357
 30
0.0
 10
-1413.182818446755
 20
-211.0357895147276
 30
0.0
 10
-1415.185597134789
 20
-210.0007362782558
 30
0.0
 10
-1419.19662618008
 20
-207.9410017813893
 30
0.0
 10
-1425.277417306958
 20
-204.9785123621
 30
0.0
 10
-1431.457958615126
 20
-202.229381052693
 30
0.0
 10
-1437.787693332676
 20
-199.8291610591836
 30
0.0
 10
-1444.301424053169
 20
-198.0025412709724
 30
0.0
 10
-1451.054887107303
 20
-197.0698588109512
 30
0.0
 10
-1457.795421724039
 20
-198.2176865538854
 30
0.0
 10
-1463.919201856056
 20
-201.1699263436744
 30
0.0
 10
-1470.000458545942
 20
-204.1112157809144
 30
0.0
 10
-1475.828038881321
 20
-207.5657513120273
 30
0.0
 10
-1481.314937210772
 20
-211.5264099630799
 30
0.0
 10
-1488.276748503026
 20
-218.2174105376248
 30
0.0
 10
-1490.025769904753
 20
-219.6400275354931
 30
0.0
  0
SPLINE
  5
5C2
330
1F
100
AcDbEntity
  8
Default
100
AcDbSpline
210
0.0
220
0.0
230
1.0
 70
     8
 71
     3
 72
    12
 73
     8
 74
     0
 42
0.000000001
 43
0.0000000001
 40
0.0
 40
0.0
 40
0.0
 40
0.0
 40
1.918305221504867
 40
3.868777778011241
 40
7.624449324857683
 40
11.42846767657462
 40
15.35241906764609
 40
15.35241906764609
 40
15.35241906764609
 40
15.35241906764609
 10
-1315.572912174461
 20
-1.633858531021814
 30
0.0
 10
-1315.586391564665
 20
-17.87393468963955
 30
0.0
 10
-1312.416210735725
 20
-50.63618305676891
 30
0.0
 10
-1293.770451050211
 20
-112.7627689775322
 30
0.0
 10
-1247.67690936784
 20
-180.8324278382383
 30
0.0
 10
-1164.118637645642
 20
-234.2862233192495
 30
0.0
 10
-1098.540743522945
 20
-246.1090710817293
 30
0.0
 10
-1065.333223869306
 20
-246.1085287221754
 30
0.0
  0
SPLINE
  5
5C3
330
1F
100
AcDbEntity
  8
Default
100
AcDbSpline
210
0.0
220
0.0
230
1.0
 70
     8
 71
     3
 72
    12
 73
     8
 74
     0
 42
0.000000001
 43
0.0000000001
 40
-14.89017236839833
 40
-14.89017236839833
 40
-14.89017236839833
 40
-14.89017236839833
 40
-11.21816917573749
 40
-7.516682162771167
 40
-3.774519558109396
 40
-1.88935509827327
 40
0.0
 40
0.0
 40
0.0
 40
0.0
 10
-1065.333223869306
 20
-246.1085287221754
 30
0.0
 10
-1034.239427343846
 20
-246.1168614696612
 30
0.0
 10
-971.826663113933
 20
-233.2351754043771
 30
0.0
 10
-892.9133683888313
 20
-178.5742263950847
 30
0.0
 10
-849.3047697272549
 20
-110.931272070989
 30
0.0
 10
-831.3291812684537
 20
-49.58857374276658
 30
0.0
 10
-828.2554403344393
 20
-17.62906900769621
 30
0.0
 10
-828.2537190551693
 20
-1.633857484291638
 30
0.0
  0
LWPOLYLINE
  5
5C4
330
1F
100
AcDbEntity
  8
Default
100
AcDbPolyline
 90
        8
 70
     1
 43
0.0
 10
-381.0
 20
-346.0
 10
-381.0
 20
346.0
 42
-0.4142135623730951
 10
-346.0
 20
381.0
 10
346.0
 20
381.0
 42
-0.4142135623730951
 10
381.0
 20
346.0
 10
381.0
 20
-346.0
 42
-0.4142135623730951
 10
346.0
 20
-381.0
 10
-346.0
 20
-381.0
 42
-0.4142135623730951
  0
SPLINE
  5
5E1
330
1F
100
AcDbEntity
  8
Default
100
AcDbSpline
210
0.0
220
0.0
230
1.0
 70
    12
 71
     2
 72
     6
 73
     3
 74
     0
 42
0.000000001
 43
0.0000000001
 40
0.0
 40
0.0
 40
0.0
 40
0.0853474550214741
 40
0.0853474550214741
 40
0.0853474550214741
 10
351.7949730349995
 20
1128.426526282395
 30
0.0
 41
1.0
 10
352.8766634923871
 20
1128.50240568265
 30
0.0
 41
0.9993970637774639
 10
353.9610119300836
 20
1128.503033889012
 30
0.0
 41
1.0
  0
SPLINE
  5
5E2
330
1F
100
AcDbEntity
  8
Default
100
AcDbSpline
210
0.0
220
0.0
230
1.0
 70
     8
 71
     3
 72
    12
 73
     8
 74
     0
 42
0.000000001
 43
0.0000000001
 40
0.0
 40
0.0
 40
0.0
 40
0.0
 40
0.1510110321465192
 40
0.3037660471064116
 40
0.5900965017365678
 40
0.8249401141264362
 40
1.014583801502342
 40
1.014583801502342
 40
1.014583801502342
 40
1.014583801502342
 10
350.9047939290052
 20
1107.93815735779
 30
0.0
 10
352.1778479342378
 20
1107.813285309852
 30
0.0
 10
354.7508642321903
 20
1107.71600893614
 30
0.0
 10
359.7406388348048
 20
1108.153190794908
 30
0.0
 10
365.2814780124594
 20
1109.688680142311
 30
0.0
 10
370.3831890296336
 20
1113.111274971599
 30
0.0
 10
372.0276999957736
 20
1116.510232774488
 30
0.0
 10
371.9958616116768
 20
1118.144741653706
 30
0.0
  0
SPLINE
  5
5E3
330
1F
100
AcDbEntity
  8
Default
100
AcDbSpline
210
0.0
220
0.0
230
1.0
 70
     8
 71
     3
 72
    12
 73
     8
 74
     0
 42
0.000000001
 43
0.0000000001
 40
-1.014583801502342
 40
-1.014583801502342
 40
-1.014583801502342
 40
-1.014583801502342
 40
-0.8249401141264362
 40
-0.5900965017365678
 40
-0.3037660471064116
 40
-0.1510110321465192
 40
0.0
 40
0.0
 40
0.0
 40
0.0
 10
371.9958616116768
 20
1118.144741653706
 30
0.0
 10
372.0276999957736
 20
1119.779250532929
 30
0.0
 10
370.3831890296336
 20
1123.178208335817
 30
0.0
 10
365.2814780124594
 20
1126.600803165105
 30
0.0
 10
359.7406388348048
 20
1128.136292512508
 30
0.0
 10
354.7508642321903
 20
1128.573474371276
 30
0.0
 10
352.1778479342378
 20
1128.476197997565
 30
0.0
 10
350.9047939290052
 20
1128.351325949626
 30
0.0
  0
SPLINE
  5
5E4
330
1F
100
AcDbEntity
  8
Default
100
AcDbSpline
210
0.0
220
0.0
230
1.0
 70
    12
 71
     2
 72
     6
 73
     3
 74
     0
 42
0.000000001
 43
0.0000000001
 40
0.0
 40
0.0
 40
0.0
 40
0.1369528492222414
 40
0.1369528492222414
 40
0.1369528492222414
 10
341.2691333924871
 20
1108.807427756905
 30
0.0
 41
1.0
 10
343.008025654361
 20
1108.843737961606
 30
0.0
 41
0.9999966913238282
 10
344.7479062331171
 20
1108.824645621907
 30
0.0
 41
0.9999959461296658
  0
ARC
  5
5E5
330
1F
100
AcDbEntity
  8
Default
100
AcDbCircle
 10
344.9567541110176
 20
1096.126362959914
 30
0.0
 40
12.7
100
AcDbArc
 50
78.48715217353166
 51
90.9422552251277
  0
SPLINE
  5
5E6
330
1F
100
AcDbEntity
  8
Default
100
AcDbSpline
210
0.0
220
0.0
230
1.0
 70
     8
 71
     3
 72
    14
 73
    10
 74
     0
 42
0.000000001
 43
0.0000000001
 40
0.2772630823298201
 40
0.2772630823298201
 40
0.2772630823298201
 40
0.2772630823298201
 40
1.0
 40
2.0
 40
3.0
 40
4.0
 40
5.0
 40
6.0
 40
7.0
 40
7.0
 40
7.0
 40
7.0
 10
347.4915174521397
 20
1108.570838634065
 30
0.0
 10
348.5012610588768
 20
1108.365168170696
 30
0.0
 10
350.9301558203028
 20
1107.9824857037
 30
0.0
 10
354.8202815615899
 20
1107.862054927917
 30
0.0
 10
359.0817999293307
 20
1108.31962052683
 30
0.0
 10
363.2409431321197
 20
1109.374466373347
 30
0.0
 10
367.1491785192542
 20
1111.164871077444
 30
0.0
 10
370.4755495415251
 20
1113.961540817117
 30
0.0
 10
371.6241427102926
 20
1116.704980726424
 30
0.0
 10
371.6112520653354
 20
1118.144754266335
 30
0.0
  0
SPLINE
  5
5E7
330
1F
100
AcDbEntity
  8
Default
100
AcDbSpline
210
0.0
220
0.0
230
1.0
 70
     8
 71
     3
 72
    14
 73
    10
 74
     0
 42
0.000000001
 43
0.0000000001
 40
-7.0
 40
-7.0
 40
-7.0
 40
-7.0
 40
-6.0
 40
-5.0
 40
-4.0
 40
-3.0
 40
-2.0
 40
-1.0
 40
-0.2482205602640466
 40
-0.2482205602640466
 40
-0.2482205602640466
 40
-0.2482205602640466
 10
371.6112520653354
 20
1118.144754266335
 30
0.0
 10
371.6241427102926
 20
1119.584527806239
 30
0.0
 10
370.4755495415251
 20
1122.327967715549
 30
0.0
 10
367.1491785192542
 20
1125.124637455223
 30
0.0
 10
363.2409431321197
 20
1126.91504215932
 30
0.0
 10
359.0817999293307
 20
1127.969888005837
 30
0.0
 10
354.8202815615899
 20
1128.42745360475
 30
0.0
 10
350.8886611529546
 20
1128.30573823425
 30
0.0
 10
348.4193759156864
 20
1127.911350459222
 30
0.0
 10
347.3698356038279
 20
1127.693657837344
 30
0.0
  0
ARC
  5
5E8
330
1F
100
AcDbEntity
  8
Default
100
AcDbCircle
 10
344.790537126219
 20
1140.128979279247
 30
0.0
 40
12.7
100
AcDbArc
 50
268.977579807951
 51
281.7179678781601
  0
SPLINE
  5
5E9
330
1F
100
AcDbEntity
  8
Default
100
AcDbSpline
210
0.0
220
0.0
230
1.0
 70
    12
 71
     2
 72
     6
 73
     3
 74
     0
 42
0.000000001
 43
0.0000000001
 40
-0.1297405451143296
 40
-0.1297405451143296
 40
-0.1297405451143296
 40
0.0
 40
0.0
 40
0.0
 10
344.5639227500964
 20
1127.431001254203
 30
0.0
 41
0.9999960316975588
 10
342.9164796856552
 20
1127.460402335344
 30
0.0
 41
0.999996865512317
 10
341.2691333924871
 20
1127.494800947859
 30
0.0
 41
1.0
  0
SPLINE
  5
5EA
330
1F
100
AcDbEntity
  8
Default
100
AcDbSpline
210
0.0
220
0.0
230
1.0
 70
    12
 71
     2
 72
     6
 73
     3
 74
     0
 42
0.000000001
 43
0.0000000001
 40
-1.102413928352738
 40
-1.102413928352738
 40
-1.102413928352738
 40
0.0
 40
0.0
 40
0.0
 10
311.529284039318
 20
1127.833464884943
 30
0.0
 41
0.9999999993925147
 10
325.5381329630712
 20
1127.678232635664
 30
0.0
 41
0.9999999996616539
 10
339.5480149606286
 20
1127.523160870225
 30
0.0
 41
1.0
  0
SPLINE
  5
5EB
330
1F
100
AcDbEntity
  8
Default
100
AcDbSpline
210
0.0
220
0.0
230
1.0
 70
     8
 71
     3
 72
    14
 73
    10
 74
     0
 42
0.000000001
 43
0.0000000001
 40
0.0
 40
0.0
 40
0.0
 40
0.0
 40
1.0
 40
2.0
 40
3.0
 40
4.0
 40
5.0
 40
6.0
 40
7.0
 40
7.0
 40
7.0
 40
7.0
 10
339.5480149606286
 20
1127.523160870225
 30
0.0
 10
341.3337775319727
 20
1127.496493696666
 30
0.0
 10
344.7027304690658
 20
1126.980948205661
 30
0.0
 10
349.3351106325412
 20
1124.802012846188
 30
0.0
 10
352.7593111187911
 20
1120.75338068892
 30
0.0
 10
352.6735273358194
 20
1115.338419079357
 30
0.0
 10
349.1690559755101
 20
1111.372047285438
 30
0.0
 10
344.5109683790418
 20
1109.253163168048
 30
0.0
 10
341.1369009073845
 20
1108.772899523252
 30
0.0
 10
339.4494923350706
 20
1108.772141507796
 30
0.0
  0
SPLINE
  5
5EC
330
1F
100
AcDbEntity
  8
Default
100
AcDbSpline
210
0.0
220
0.0
230
1.0
 70
    12
 71
     2
 72
     6
 73
     3
 74
     0
 42
0.000000001
 43
0.0000000001
 40
0.0
 40
0.0
 40
0.0
 40
1.112498698414412
 40
1.112498698414412
 40
1.112498698414412
 10
339.4494923350706
 20
1108.772141507796
 30
0.0
 41
1.0
 10
325.3216176487243
 20
1108.616366011074
 30
0.0
 41
0.9999999996585591
 10
311.1937455798892
 20
1108.460353303026
 30
0.0
 41
0.9999999993875963
  0
ENDSEC
  0
SECTION
  2
OBJECTS
  0
DICTIONARY
  5
C
330
0
100
AcDbDictionary
281
     1
  3
ACAD_CIP_PREVIOUS_PRODUCT_INFO
350
3F8
  3
ACAD_COLOR
350
3F0
  3
ACAD_DETAILVIEWSTYLE
350
3ED
  3
ACAD_GROUP
350
D
  3
ACAD_LAYOUT
350
1A
  3
ACAD_MATERIAL
350
43
  3
ACAD_MLEADERSTYLE
350
3EC
  3
ACAD_MLINESTYLE
350
17
  3
ACAD_PLOTSETTINGS
350
19
  3
ACAD_PLOTSTYLENAME
350
E
  3
ACAD_SCALELIST
350
47
  3
ACAD_SECTIONVIEWSTYLE
350
3EE
  3
ACAD_TABLESTYLE
350
3EB
  3
ACAD_VISUALSTYLE
350
2A
  3
ACDB_RECOMPOSE_DATA
350
608
  3
AcDbVariableDictionary
350
3B2
  0
DICTIONARY
  5
3B0
330
8
100
AcDbDictionary
280
     1
281
     1
  0
SUN
  5
69
330
29
100
AcDbSun
 90
        1
290
     0
 63
     7
421
 16777215
 40
1.0
291
     1
 91
  2455826
 92
 54000000
292
     0
 70
     0
 71
   256
280
     1
  0
DICTIONARY
  5
40C
330
2
100
AcDbDictionary
280
     1
281
     1
  3
ACAD_LAYERSTATES
360
40D
  0
DICTIONARY
  5
3F9
330
10
100
AcDbDictionary
280
     1
281
     1
  3
ADSK_XREC_LAYER_RECONCILED
360
3FA
  0
DICTIONARY
  5
40B
330
40A
100
AcDbDictionary
280
     1
281
     1
  0
XRECORD
  5
3F8
102
{ACAD_REACTORS
330
C
102
}
330
C
100
AcDbXrecord
280
     1
300
ACD
300
2016
300
ACD_F_S
  0
DICTIONARY
  5
3F0
102
{ACAD_REACTORS
330
C
102
}
330
C
100
AcDbDictionary
281
     1
  0
DICTIONARY
  5
3ED
102
{ACAD_REACTORS
330
C
102
}
330
C
100
AcDbDictionary
281
     1
  3
Imperial24
350
3F4
  0
DICTIONARY
  5
D
102
{ACAD_REACTORS
330
C
102
}
330
C
100
AcDbDictionary
281
     1
  0
DICTIONARY
  5
1A
102
{ACAD_REACTORS
330
C
102
}
330
C
100
AcDbDictionary
281
     1
  3
Layout1
350
1E
  3
Layout2
350
26
  3
Model
350
22
  0
DICTIONARY
  5
43
102
{ACAD_REACTORS
330
C
102
}
330
C
100
AcDbDictionary
281
     1
  3
ByBlock
350
45
  3
ByLayer
350
44
  3
Global
350
46
  0
DICTIONARY
  5
3EC
102
{ACAD_REACTORS
330
C
102
}
330
C
100
AcDbDictionary
281
     1
  3
Standard
350
3F2
  0
DICTIONARY
  5
17
102
{ACAD_REACTORS
330
C
102
}
330
C
100
AcDbDictionary
281
     1
  3
Standard
350
18
  0
DICTIONARY
  5
19
102
{ACAD_REACTORS
330
C
102
}
330
C
100
AcDbDictionary
281
     1
  0
ACDBDICTIONARYWDFLT
  5
E
102
{ACAD_REACTORS
330
C
102
}
330
C
100
AcDbDictionary
281
     1
  3
Normal
350
F
100
AcDbDictionaryWithDefault
340
F
  0
DICTIONARY
  5
47
102
{ACAD_REACTORS
330
C
102
}
330
C
100
AcDbDictionary
281
     1
  3
A0
350
48
  3
A1
350
49
  3
A2
350
4A
  3
A3
350
4B
  3
A4
350
4C
  3
A5
350
4D
  3
A6
350
4E
  3
A7
350
4F
  3
A8
350
50
  3
A9
350
51
  3
B0
350
52
  3
B1
350
53
  3
B2
350
54
  3
B3
350
55
  3
B4
350
56
  3
B5
350
57
  3
B6
350
58
  3
B7
350
59
  3
B8
350
5A
  3
B9
350
5B
  3
C0
350
5C
  3
C1
350
5D
  3
C2
350
5E
  3
C3
350
5F
  3
C4
350
60
  3
C5
350
61
  3
C6
350
62
  3
C7
350
63
  3
C8
350
64
  3
C9
350
65
  3
D0
350
66
  3
D1
350
67
  3
D2
350
68
  0
DICTIONARY
  5
3EE
102
{ACAD_REACTORS
330
C
102
}
330
C
100
AcDbDictionary
281
     1
  3
Imperial24
350
3F3
  0
DICTIONARY
  5
3EB
102
{ACAD_REACTORS
330
C
102
}
330
C
100
AcDbDictionary
281
     1
  3
Standard
350
3F1
  0
DICTIONARY
  5
2A
102
{ACAD_REACTORS
330
C
102
}
330
C
100
AcDbDictionary
281
     1
  3
2dWireframe
350
2F
  3
Basic
350
32
  3
Brighten
350
36
  3
ColorChange
350
3A
  3
Conceptual
350
34
  3
Dim
350
35
  3
EdgeColorOff
350
3D
  3
Facepattern
350
39
  3
Flat
350
2B
  3
FlatWithEdges
350
2C
  3
Gouraud
350
2D
  3
GouraudWithEdges
350
2E
  3
Hidden
350
31
  3
JitterOff
350
3B
  3
Linepattern
350
38
  3
OverhangOff
350
3C
  3
Realistic
350
33
  3
Shaded
350
42
  3
Shaded with edges
350
41
  3
Shades of Gray
350
3E
  3
Sketchy
350
3F
  3
Thicken
350
37
  3
Wireframe
350
30
  3
X-Ray
350
40
  0
XRECORD
  5
608
102
{ACAD_REACTORS
330
C
102
}
330
C
100
AcDbXrecord
280
     1
 90
        1
330
3F1
330
3F3
330
3F4
  0
DICTIONARY
  5
3B2
102
{ACAD_REACTORS
330
C
102
}
330
C
100
AcDbDictionary
281
     1
  3
CANNOSCALE
350
3B3
  3
CMLEADERSTYLE
350
5FA
  3
CTABLESTYLE
350
5F9
  3
CVIEWDETAILSTYLE
350
5FB
  3
CVIEWSECTIONSTYLE
350
5FC
  3
LAYEREVAL
350
5FE
  3
LAYERNOTIFY
350
5FF
  3
LIGHTINGUNITS
350
5FD
  3
MSLTSCALE
350
3B4
  0
DICTIONARY
  5
40D
102
{ACAD_REACTORS
330
40C
102
}
330
40C
100
AcDbDictionary
281
     1
  0
XRECORD
  5
3FA
102
{ACAD_REACTORS
330
3F9
102
}
330
3F9
100
AcDbXrecord
280
     1
290
     1
  0
ACDBDETAILVIEWSTYLE
  5
3F4
102
{ACAD_XDICTIONARY
360
5F6
102
}
102
{ACAD_REACTORS
330
3ED
102
}
330
3ED
100
AcDbModelDocViewStyle
 70
     0
  3
Imperial24
290
     0
100
AcDbDetailViewStyle
 70
     0
 71
     0
 90
        3
 71
     1
340
11
 62
   256
 40
0.24
340
0
 62
   256
 40
0.24
300

 40
0.36
280
     3
 71
     2
340
16
 90
       25
 62
   256
 71
     3
340
11
 62
   256
 40
0.24
 90
        1
 40
0.75
 90
        1
300
%<\AcVar ViewType \f "%tc1">% %<\AcVar ViewDetailId>%\PSCALE %<\AcVar ViewScale \f "%sn">%
 71
     4
340
16
 90
       25
 62
   256
340
16
 90
       25
 62
   256
280
     0
  0
LAYOUT
  5
1E
102
{ACAD_REACTORS
330
1A
102
}
330
1A
100
AcDbPlotSettings
  1

  2
none_device
  4

  6

 40
0.0
 41
0.0
 42
0.0
 43
0.0
 44
0.0
 45
0.0
 46
0.0
 47
0.0
 48
0.0
 49
0.0
140
0.0
141
0.0
142
1.0
143
1.0
 70
   688
 72
     0
 73
     0
 74
     5
  7

 75
    16
147
1.0
 76
     0
 77
     2
 78
   300
148
0.0
149
0.0
100
AcDbLayout
  1
Layout1
 70
     1
 71
     1
 10
0.0
 20
0.0
 11
12.0
 21
9.0
 12
0.0
 22
0.0
 32
0.0
 14
1.000000000000000E+20
 24
1.000000000000000E+20
 34
1.000000000000000E+20
 15
-1.000000000000000E+20
 25
-1.000000000000000E+20
 35
-1.000000000000000E+20
146
0.0
 13
0.0
 23
0.0
 33
0.0
 16
1.0
 26
0.0
 36
0.0
 17
0.0
 27
1.0
 37
0.0
 76
     0
330
1B
  0
LAYOUT
  5
26
102
{ACAD_REACTORS
330
1A
102
}
330
1A
100
AcDbPlotSettings
  1

  2
none_device
  4

  6

 40
0.0
 41
0.0
 42
0.0
 43
0.0
 44
0.0
 45
0.0
 46
0.0
 47
0.0
 48
0.0
 49
0.0
140
0.0
141
0.0
142
1.0
143
1.0
 70
   688
 72
     0
 73
     0
 74
     5
  7

 75
    16
147
1.0
 76
     0
 77
     2
 78
   300
148
0.0
149
0.0
100
AcDbLayout
  1
Layout2
 70
     1
 71
     2
 10
0.0
 20
0.0
 11
0.0
 21
0.0
 12
0.0
 22
0.0
 32
0.0
 14
0.0
 24
0.0
 34
0.0
 15
0.0
 25
0.0
 35
0.0
146
0.0
 13
0.0
 23
0.0
 33
0.0
 16
1.0
 26
0.0
 36
0.0
 17
0.0
 27
1.0
 37
0.0
 76
     0
330
23
  0
LAYOUT
  5
22
102
{ACAD_REACTORS
330
1A
102
}
330
1A
100
AcDbPlotSettings
  1

  2
none_device
  4
Letter_(8.50_x_11.00_Inches)
  6

 40
6.349999999999999
 41
6.349999999999999
 42
6.350005079999999
 43
6.350005079999999
 44
215.9
 45
279.4
 46
0.0
 47
0.0
 48
0.0
 49
0.0
140
0.0
141
0.0
142
1.0
143
1.0
 70
  1712
 72
     0
 73
     0
 74
     0
  7

 75
     0
147
1.0
 76
     0
 77
     2
 78
   300
148
0.0
149
0.0
100
AcDbLayout
  1
Model
 70
     1
 71
     0
 10
0.0
 20
0.0
 11
12.0
 21
9.0
 12
0.0
 22
0.0
 32
0.0
 14
-1403.18427867203
 24
-1403.18427867203
 34
-0.0000000000006447
 15
1403.18427867203
 25
1403.18427867203
 35
1018.90550933908
146
0.0
 13
0.0
 23
0.0
 33
0.0
 16
1.0
 26
0.0
 36
0.0
 17
0.0
 27
1.0
 37
0.0
 76
     0
330
1F
331
29
  0
MATERIAL
  5
45
102
{ACAD_REACTORS
330
43
102
}
330
43
100
AcDbMaterial
  1
ByBlock
 73
     1
 78
     1
172
     1
176
     1
270
     1
274
     1
  0
MATERIAL
  5
44
102
{ACAD_REACTORS
330
43
102
}
330
43
100
AcDbMaterial
  1
ByLayer
 73
     1
 78
     1
172
     1
176
     1
270
     1
274
     1
  0
MATERIAL
  5
46
102
{ACAD_REACTORS
330
43
102
}
330
43
100
AcDbMaterial
  1
Global
 73
     1
 78
     1
172
     1
176
     1
270
     1
274
     1
  0
MLEADERSTYLE
  5
3F2
102
{ACAD_REACTORS
330
3EC
102
}
330
3EC
100
AcDbMLeaderStyle
179
     2
170
     2
171
     1
172
     0
 90
        2
 40
0.0
 41
0.0
173
     1
 91
-1056964608
340
14
 92
       -2
290
     1
 42
0.09
291
     1
 43
0.36
  3
Standard
 44
0.18
300

342
11
174
     1
178
     6
175
     1
176
     0
 93
-1056964608
 45
0.18
292
     0
297
     0
 46
0.18
 94
-1056964608
 47
1.0
 49
1.0
140
1.0
293
     1
141
0.0
294
     1
177
     0
142
1.0
295
     1
296
     0
143
0.125
271
     0
272
     9
273
     9
298
     1
  0
MLINESTYLE
  5
18
102
{ACAD_REACTORS
330
17
102
}
330
17
100
AcDbMlineStyle
  2
STANDARD
 70
     0
  3

 62
   256
 51
90.0
 52
90.0
 71
     2
 49
0.5
 62
   256
  6
BYLAYER
 49
-0.5
 62
   256
  6
BYLAYER
  0
ACDBPLACEHOLDER
  5
F
102
{ACAD_REACTORS
330
E
102
}
330
E
  0
SCALE
  5
48
102
{ACAD_REACTORS
330
47
102
}
330
47
100
AcDbScale
 70
     0
300
1:1
140
1.0
141
1.0
290
     1
  0
SCALE
  5
49
102
{ACAD_REACTORS
330
47
102
}
330
47
100
AcDbScale
 70
     0
300
1:2
140
1.0
141
2.0
290
     0
  0
SCALE
  5
4A
102
{ACAD_REACTORS
330
47
102
}
330
47
100
AcDbScale
 70
     0
300
1:4
140
1.0
141
4.0
290
     0
  0
SCALE
  5
4B
102
{ACAD_REACTORS
330
47
102
}
330
47
100
AcDbScale
 70
     0
300
1:5
140
1.0
141
5.0
290
     0
  0
SCALE
  5
4C
102
{ACAD_REACTORS
330
47
102
}
330
47
100
AcDbScale
 70
     0
300
1:8
140
1.0
141
8.0
290
     0
  0
SCALE
  5
4D
102
{ACAD_REACTORS
330
47
102
}
330
47
100
AcDbScale
 70
     0
300
1:10
140
1.0
141
10.0
290
     0
  0
SCALE
  5
4E
102
{ACAD_REACTORS
330
47
102
}
330
47
100
AcDbScale
 70
     0
300
1:16
140
1.0
141
16.0
290
     0
  0
SCALE
  5
4F
102
{ACAD_REACTORS
330
47
102
}
330
47
100
AcDbScale
 70
     0
300
1:20
140
1.0
141
20.0
290
     0
  0
SCALE
  5
50
102
{ACAD_REACTORS
330
47
102
}
330
47
100
AcDbScale
 70
     0
300
1:30
140
1.0
141
30.0
290
     0
  0
SCALE
  5
51
102
{ACAD_REACTORS
330
47
102
}
330
47
100
AcDbScale
 70
     0
300
1:40
140
1.0
141
40.0
290
     0
  0
SCALE
  5
52
102
{ACAD_REACTORS
330
47
102
}
330
47
100
AcDbScale
 70
     0
300
1:50
140
1.0
141
50.0
290
     0
  0
SCALE
  5
53
102
{ACAD_REACTORS
330
47
102
}
330
47
100
AcDbScale
 70
     0
300
1:100
140
1.0
141
100.0
290
     0
  0
SCALE
  5
54
102
{ACAD_REACTORS
330
47
102
}
330
47
100
AcDbScale
 70
     0
300
2:1
140
2.0
141
1.0
290
     0
  0
SCALE
  5
55
102
{ACAD_REACTORS
330
47
102
}
330
47
100
AcDbScale
 70
     0
300
4:1
140
4.0
141
1.0
290
     0
  0
SCALE
  5
56
102
{ACAD_REACTORS
330
47
102
}
330
47
100
AcDbScale
 70
     0
300
8:1
140
8.0
141
1.0
290
     0
  0
SCALE
  5
57
102
{ACAD_REACTORS
330
47
102
}
330
47
100
AcDbScale
 70
     0
300
10:1
140
10.0
141
1.0
290
     0
  0
SCALE
  5
58
102
{ACAD_REACTORS
330
47
102
}
330
47
100
AcDbScale
 70
     0
300
100:1
140
100.0
141
1.0
290
     0
  0
SCALE
  5
59
102
{ACAD_REACTORS
330
47
102
}
330
47
100
AcDbScale
 70
     0
300
1/128" = 1'-0"
140
0.0078125
141
12.0
290
     0
  0
SCALE
  5
5A
102
{ACAD_REACTORS
330
47
102
}
330
47
100
AcDbScale
 70
     0
300
1/64" = 1'-0"
140
0.015625
141
12.0
290
     0
  0
SCALE
  5
5B
102
{ACAD_REACTORS
330
47
102
}
330
47
100
AcDbScale
 70
     0
300
1/32" = 1'-0"
140
0.03125
141
12.0
290
     0
  0
SCALE
  5
5C
102
{ACAD_REACTORS
330
47
102
}
330
47
100
AcDbScale
 70
     0
300
1/16" = 1'-0"
140
0.0625
141
12.0
290
     0
  0
SCALE
  5
5D
102
{ACAD_REACTORS
330
47
102
}
330
47
100
AcDbScale
 70
     0
300
3/32" = 1'-0"
140
0.09375
141
12.0
290
     0
  0
SCALE
  5
5E
102
{ACAD_REACTORS
330
47
102
}
330
47
100
AcDbScale
 70
     0
300
1/8" = 1'-0"
140
0.125
141
12.0
290
     0
  0
SCALE
  5
5F
102
{ACAD_REACTORS
330
47
102
}
330
47
100
AcDbScale
 70
     0
300
3/16" = 1'-0"
140
0.1875
141
12.0
290
     0
  0
SCALE
  5
60
102
{ACAD_REACTORS
330
47
102
}
330
47
100
AcDbScale
 70
     0
300
1/4" = 1'-0"
140
0.25
141
12.0
290
     0
  0
SCALE
  5
61
102
{ACAD_REACTORS
330
47
102
}
330
47
100
AcDbScale
 70
     0
300
3/8" = 1'-0"
140
0.375
141
12.0
290
     0
  0
SCALE
  5
62
102
{ACAD_REACTORS
330
47
102
}
330
47
100
AcDbScale
 70
     0
300
1/2" = 1'-0"
140
0.5
141
12.0
290
     0
  0
SCALE
  5
63
102
{ACAD_REACTORS
330
47
102
}
330
47
100
AcDbScale
 70
     0
300
3/4" = 1'-0"
140
0.75
141
12.0
290
     0
  0
SCALE
  5
64
102
{ACAD_REACTORS
330
47
102
}
330
47
100
AcDbScale
 70
     0
300
1" = 1'-0"
140
1.0
141
12.0
290
     0
  0
SCALE
  5
65
102
{ACAD_REACTORS
330
47
102
}
330
47
100
AcDbScale
 70
     0
300
1-1/2" = 1'-0"
140
1.5
141
12.0
290
     0
  0
SCALE
  5
66
102
{ACAD_REACTORS
330
47
102
}
330
47
100
AcDbScale
 70
     0
300
3" = 1'-0"
140
3.0
141
12.0
290
     0
  0
SCALE
  5
67
102
{ACAD_REACTORS
330
47
102
}
330
47
100
AcDbScale
 70
     0
300
6" = 1'-0"
140
6.0
141
12.0
290
     0
  0
SCALE
  5
68
102
{ACAD_REACTORS
330
47
102
}
330
47
100
AcDbScale
 70
     0
300
1'-0" = 1'-0"
140
12.0
141
12.0
290
     0
  0
ACDBSECTIONVIEWSTYLE
  5
3F3
102
{ACAD_XDICTIONARY
360
5F4
102
}
102
{ACAD_REACTORS
330
3EE
102
}
330
3EE
100
AcDbModelDocViewStyle
 70
     0
  3
Imperial24
290
     0
100
AcDbSectionViewStyle
 70
     0
 71
     0
 90
       78
 71
     1
340
11
 62
   256
 40
0.24
340
0
340
0
 62
   256
 40
0.24
300
I, O, Q, S, X, Z
 40
0.48
 90
        3
 40
0.18
 90
        1
 71
     2
340
16
 90
       25
 62
   256
340
16
 90
       50
 62
   256
 40
0.24
 40
0.0
 40
0.24
 71
     3
340
11
 62
   256
 40
0.24
 90
        1
 40
0.75
 90
        1
300
%<\AcVar ViewType \f "%tc1">% %<\AcVar ViewSectionStartId>%-%<\AcVar ViewSectionEndId>%\PSCALE %<\AcVar ViewScale \f "%sn">%
 71
     4
 62
   256
 62
   257
300
ANSI31
 40
1.0
 90
        0
290
     0
290
     0
 90
        6
 40
0.0
 40
1.570796326794896
 40
0.2617993877991494
 40
1.308996938995747
 40
-0.2617993877991494
 40
1.832595714594046
  0
TABLESTYLE
  5
3F1
102
{ACAD_XDICTIONARY
360
604
102
}
102
{ACAD_REACTORS
330
3EB
102
}
330
3EB
100
AcDbTableStyle
280
     0
  3
Standard
 70
     0
 71
     0
 40
0.06
 41
0.06
280
     0
281
     0
  7
Standard
140
0.18
170
     2
 62
     0
 63
     7
283
     0
 90
      512
 91
        0
  1

274
    -2
284
     1
 64
     0
275
    -2
285
     1
 65
     0
276
    -2
286
     1
 66
     0
277
    -2
287
     1
 67
     0
278
    -2
288
     1
 68
     0
279
    -2
289
     1
 69
     0
  7
Standard
140
0.25
170
     5
 62
     0
 63
     7
283
     0
 90
      512
 91
        0
  1

274
    -2
284
     1
 64
     0
275
    -2
285
     1
 65
     0
276
    -2
286
     1
 66
     0
277
    -2
287
     1
 67
     0
278
    -2
288
     1
 68
     0
279
    -2
289
     1
 69
     0
  7
Standard
140
0.18
170
     5
 62
     0
 63
     7
283
     0
 90
      512
 91
        0
  1

274
    -2
284
     1
 64
     0
275
    -2
285
     1
 65
     0
276
    -2
286
     1
 66
     0
277
    -2
287
     1
 67
     0
278
    -2
288
     1
 68
     0
279
    -2
289
     1
 69
     0
  0
VISUALSTYLE
  5
2F
102
{ACAD_REACTORS
330
2A
102
}
330
2A
100
AcDbVisualStyle
  2
2dWireframe
 70
     4
177
     3
291
     0
 70
    58
 90
        0
176
     1
 90
        2
176
     1
 90
        0
176
     1
 90
        0
176
     1
 40
0.6
176
     1
 40
30.0
176
     1
 62
     7
420
 16777215
176
     1
 90
        1
176
     1
 90
        4
176
     1
 62
     7
176
     1
 62
   257
176
     1
 90
        1
176
     1
 90
        1
176
     1
 40
1.0
176
     1
 90
        0
176
     1
 62
   257
176
     1
 40
1.0
176
     1
 90
        1
176
     1
 90
        6
176
     1
 90
        2
176
     1
 62
     7
176
     1
 90
        5
176
     1
 90
        0
176
     1
 90
        0
176
     1
290
     0
176
     1
 90
        1
176
     1
 40
0.0
176
     1
 90
        0
176
     1
290
     1
176
     1
290
     1
176
     1
290
     0
176
     1
290
     0
176
     1
290
     0
176
     1
290
     0
176
     1
290
     0
176
     1
290
     0
176
     1
290
     0
176
     1
 90
       50
176
     1
 40
0.0
176
     1
 40
1.0
176
     1
 90
        0
176
     1
 62
    18
420
        0
176
     1
 90
       50
176
     1
 90
        3
176
     1
 62
     5
420
      255
176
     1
290
     0
176
     1
 90
       50
176
     1
 90
       50
176
     1
 90
       50
176
     1
290
     0
176
     1
 90
       50
176
     1
 62
   256
176
     0
 40
1.0
176
     0
 90
        2
176
     1
  1
strokes_ogs.tif
176
     1
290
     0
176
     1
 40
1.0
176
     1
 40
1.0
176
     1
  0
VISUALSTYLE
  5
32
102
{ACAD_REACTORS
330
2A
102
}
330
2A
100
AcDbVisualStyle
  2
Basic
 70
     7
177
     3
291
     1
 70
    58
 90
        1
176
     1
 90
        0
176
     1
 90
        1
176
     1
 90
        0
176
     1
 40
0.6
176
     1
 40
30.0
176
     1
 62
     7
420
 16777215
176
     1
 90
        0
176
     1
 90
        4
176
     1
 62
     7
176
     1
 62
   257
176
     1
 90
        1
176
     1
 90
        1
176
     1
 40
1.0
176
     1
 90
        8
176
     1
 62
     7
176
     1
 40
1.0
176
     1
 90
        1
176
     1
 90
        6
176
     1
 90
        2
176
     1
 62
     7
176
     1
 90
        5
176
     1
 90
        0
176
     1
 90
        0
176
     1
290
     0
176
     1
 90
        1
176
     1
 40
0.0
176
     1
 90
        0
176
     1
290
     0
176
     1
290
     1
176
     1
290
     1
176
     1
290
     0
176
     1
290
     0
176
     1
290
     0
176
     1
290
     0
176
     1
290
     0
176
     1
290
     0
176
     1
 90
       50
176
     1
 40
0.0
176
     1
 40
1.0
176
     1
 90
        0
176
     1
 62
    18
420
        0
176
     1
 90
       50
176
     1
 90
        3
176
     1
 62
     5
420
      255
176
     1
290
     0
176
     1
 90
       50
176
     1
 90
       50
176
     1
 90
       50
176
     1
290
     0
176
     1
 90
       50
176
     1
 62
   256
176
     0
 40
1.0
176
     0
 90
        2
176
     1
  1
strokes_ogs.tif
176
     1
290
     0
176
     1
 40
1.0
176
     1
 40
1.0
176
     1
  0
VISUALSTYLE
  5
36
102
{ACAD_REACTORS
330
2A
102
}
330
2A
100
AcDbVisualStyle
  2
Brighten
 70
    12
177
     3
291
     1
 70
    58
 90
        2
176
     1
 90
        2
176
     1
 90
        0
176
     1
 90
        0
176
     1
 40
0.6
176
     1
 40
30.0
176
     1
 62
     7
420
 16777215
176
     1
 90
        1
176
     1
 90
        4
176
     1
 62
     7
176
     1
 62
   257
176
     1
 90
        1
176
     1
 90
        1
176
     1
 40
1.0
176
     1
 90
        8
176
     1
 62
     7
176
     1
 40
1.0
176
     1
 90
        1
176
     1
 90
        6
176
     1
 90
        2
176
     1
 62
     7
176
     1
 90
        5
176
     1
 90
        0
176
     1
 90
        0
176
     1
290
     0
176
     1
 90
        1
176
     1
 40
50.0
176
     1
 90
        0
176
     1
290
     0
176
     1
290
     1
176
     1
290
     1
176
     1
290
     0
176
     1
290
     0
176
     1
290
     0
176
     1
290
     0
176
     1
290
     0
176
     1
290
     0
176
     1
 90
       50
176
     1
 40
0.0
176
     1
 40
1.0
176
     1
 90
        0
176
     1
 62
    18
420
        0
176
     1
 90
       50
176
     1
 90
        3
176
     1
 62
     5
420
      255
176
     1
290
     0
176
     1
 90
       50
176
     1
 90
       50
176
     1
 90
       50
176
     1
290
     0
176
     1
 90
       50
176
     1
 62
   256
176
     0
 40
1.0
176
     0
 90
        2
176
     1
  1
strokes_ogs.tif
176
     1
290
     0
176
     1
 40
1.0
176
     1
 40
1.0
176
     1
  0
VISUALSTYLE
  5
3A
102
{ACAD_REACTORS
330
2A
102
}
330
2A
100
AcDbVisualStyle
  2
ColorChange
 70
    16
177
     3
291
     1
 70
    58
 90
        2
176
     1
 90
        2
176
     1
 90
        3
176
     1
 90
        0
176
     1
 40
0.6
176
     1
 40
30.0
176
     1
 62
     8
420
  8421504
176
     1
 90
        1
176
     1
 90
        4
176
     1
 62
     7
176
     1
 62
   257
176
     1
 90
        1
176
     1
 90
        1
176
     1
 40
1.0
176
     1
 90
        8
176
     1
 62
     8
420
  8421504
176
     1
 40
1.0
176
     1
 90
        1
176
     1
 90
        6
176
     1
 90
        2
176
     1
 62
     7
176
     1
 90
        5
176
     1
 90
        0
176
     1
 90
        0
176
     1
290
     0
176
     1
 90
        1
176
     1
 40
0.0
176
     1
 90
        0
176
     1
290
     0
176
     1
290
     1
176
     1
290
     1
176
     1
290
     0
176
     1
290
     0
176
     1
290
     0
176
     1
290
     0
176
     1
290
     0
176
     1
290
     0
176
     1
 90
       50
176
     1
 40
0.0
176
     1
 40
1.0
176
     1
 90
        0
176
     1
 62
    18
420
        0
176
     1
 90
       50
176
     1
 90
        3
176
     1
 62
     5
420
      255
176
     1
290
     0
176
     1
 90
       50
176
     1
 90
       50
176
     1
 90
       50
176
     1
290
     0
176
     1
 90
       50
176
     1
 62
   256
176
     0
 40
1.0
176
     0
 90
        2
176
     1
  1
strokes_ogs.tif
176
     1
290
     0
176
     1
 40
1.0
176
     1
 40
1.0
176
     1
  0
VISUALSTYLE
  5
34
102
{ACAD_REACTORS
330
2A
102
}
330
2A
100
AcDbVisualStyle
  2
Conceptual
 70
     9
177
     3
291
     0
 70
    58
 90
        3
176
     1
 90
        2
176
     1
 90
        0
176
     1
 90
        0
176
     1
 40
0.6
176
     1
 40
30.0
176
     1
 62
     7
420
 16777215
176
     1
 90
        2
176
     1
 90
        2
176
     1
 62
     7
176
     1
 62
   257
176
     1
 90
        1
176
     1
 90
        1
176
     1
 40
179.0
176
     1
 90
        8
176
     1
 62
     7
176
     1
 40
1.0
176
     1
 90
        1
176
     1
 90
        6
176
     1
 90
        2
176
     1
 62
     7
176
     1
 90
        3
176
     1
 90
        0
176
     1
 90
        0
176
     1
290
     0
176
     1
 90
        1
176
     1
 40
0.0
176
     1
 90
        0
176
     1
290
     0
176
     1
290
     1
176
     1
290
     1
176
     1
290
     0
176
     1
290
     0
176
     1
290
     0
176
     1
290
     0
176
     1
290
     0
176
     1
290
     0
176
     1
 90
       50
176
     1
 40
0.0
176
     1
 40
1.0
176
     1
 90
        0
176
     1
 62
    18
420
        0
176
     1
 90
       50
176
     1
 90
        3
176
     1
 62
     5
420
      255
176
     1
290
     0
176
     1
 90
       50
176
     1
 90
       50
176
     1
 90
       50
176
     1
290
     0
176
     1
 90
       50
176
     1
 62
   256
176
     0
 40
1.0
176
     0
 90
        2
176
     1
  1
strokes_ogs.tif
176
     1
290
     0
176
     1
 40
1.0
176
     1
 40
1.0
176
     1
  0
VISUALSTYLE
  5
35
102
{ACAD_REACTORS
330
2A
102
}
330
2A
100
AcDbVisualStyle
  2
Dim
 70
    11
177
     3
291
     1
 70
    58
 90
        2
176
     1
 90
        2
176
     1
 90
        0
176
     1
 90
        0
176
     1
 40
0.6
176
     1
 40
30.0
176
     1
 62
     7
420
 16777215
176
     1
 90
        1
176
     1
 90
        4
176
     1
 62
     7
176
     1
 62
   257
176
     1
 90
        1
176
     1
 90
        1
176
     1
 40
1.0
176
     1
 90
        8
176
     1
 62
     7
176
     1
 40
1.0
176
     1
 90
        1
176
     1
 90
        6
176
     1
 90
        2
176
     1
 62
     7
176
     1
 90
        5
176
     1
 90
        0
176
     1
 90
        0
176
     1
290
     0
176
     1
 90
        1
176
     1
 40
-50.0
176
     1
 90
        0
176
     1
290
     0
176
     1
290
     1
176
     1
290
     1
176
     1
290
     0
176
     1
290
     0
176
     1
290
     0
176
     1
290
     0
176
     1
290
     0
176
     1
290
     0
176
     1
 90
       50
176
     1
 40
0.0
176
     1
 40
1.0
176
     1
 90
        0
176
     1
 62
    18
420
        0
176
     1
 90
       50
176
     1
 90
        3
176
     1
 62
     5
420
      255
176
     1
290
     0
176
     1
 90
       50
176
     1
 90
       50
176
     1
 90
       50
176
     1
290
     0
176
     1
 90
       50
176
     1
 62
   256
176
     0
 40
1.0
176
     0
 90
        2
176
     1
  1
strokes_ogs.tif
176
     1
290
     0
176
     1
 40
1.0
176
     1
 40
1.0
176
     1
  0
VISUALSTYLE
  5
3D
102
{ACAD_REACTORS
330
2A
102
}
330
2A
100
AcDbVisualStyle
  2
EdgeColorOff
 70
    22
177
     3
291
     1
 70
    58
 90
        2
176
     0
 90
        2
176
     0
 90
        0
176
     0
 90
        0
176
     0
 40
0.6
176
     0
 40
30.0
176
     0
 62
     7
420
 16777215
176
     0
 90
        1
176
     0
 90
        4
176
     0
 62
     7
176
     0
 62
   257
176
     0
 90
        1
176
     0
 90
        1
176
     0
 40
1.0
176
     0
 90
        8
176
     2
 62
     7
176
     0
 40
1.0
176
     0
 90
        1
176
     0
 90
        6
176
     0
 90
        2
176
     0
 62
     7
176
     0
 90
        5
176
     0
 90
        0
176
     0
 90
        0
176
     0
290
     0
176
     0
 90
        1
176
     0
 40
0.0
176
     0
 90
        0
176
     0
290
     0
176
     0
290
     1
176
     0
290
     1
176
     0
290
     0
176
     0
290
     0
176
     0
290
     0
176
     0
290
     0
176
     0
290
     0
176
     0
290
     0
176
     0
 90
       50
176
     0
 40
0.0
176
     0
 40
1.0
176
     0
 90
        0
176
     0
 62
    18
420
        0
176
     0
 90
       50
176
     0
 90
        3
176
     0
 62
     5
420
      255
176
     0
290
     0
176
     0
 90
       50
176
     0
 90
       50
176
     0
 90
       50
176
     0
290
     0
176
     0
 90
       50
176
     0
 62
   256
176
     0
 40
1.0
176
     0
 90
        2
176
     0
  1
strokes_ogs.tif
176
     0
290
     0
176
     0
 40
1.0
176
     0
 40
1.0
176
     0
  0
VISUALSTYLE
  5
39
102
{ACAD_REACTORS
330
2A
102
}
330
2A
100
AcDbVisualStyle
  2
Facepattern
 70
    15
177
     3
291
     1
 70
    58
 90
        2
176
     1
 90
        2
176
     1
 90
        0
176
     1
 90
        0
176
     1
 40
0.6
176
     1
 40
30.0
176
     1
 62
     7
420
 16777215
176
     1
 90
        1
176
     1
 90
        4
176
     1
 62
     7
176
     1
 62
   257
176
     1
 90
        1
176
     1
 90
        1
176
     1
 40
1.0
176
     1
 90
        8
176
     1
 62
     7
176
     1
 40
1.0
176
     1
 90
        1
176
     1
 90
        6
176
     1
 90
        2
176
     1
 62
     7
176
     1
 90
        5
176
     1
 90
        0
176
     1
 90
        0
176
     1
290
     0
176
     1
 90
        1
176
     1
 40
0.0
176
     1
 90
        0
176
     1
290
     0
176
     1
290
     1
176
     1
290
     1
176
     1
290
     0
176
     1
290
     0
176
     1
290
     0
176
     1
290
     0
176
     1
290
     0
176
     1
290
     0
176
     1
 90
       50
176
     1
 40
0.0
176
     1
 40
1.0
176
     1
 90
        0
176
     1
 62
    18
420
        0
176
     1
 90
       50
176
     1
 90
        3
176
     1
 62
     5
420
      255
176
     1
290
     0
176
     1
 90
       50
176
     1
 90
       50
176
     1
 90
       50
176
     1
290
     0
176
     1
 90
       50
176
     1
 62
   256
176
     0
 40
1.0
176
     0
 90
        2
176
     1
  1
strokes_ogs.tif
176
     1
290
     0
176
     1
 40
1.0
176
     1
 40
1.0
176
     1
  0
VISUALSTYLE
  5
2B
102
{ACAD_REACTORS
330
2A
102
}
330
2A
100
AcDbVisualStyle
  2
Flat
 70
     0
177
     3
291
     1
 70
    58
 90
        2
176
     1
 90
        1
176
     1
 90
        1
176
     1
 90
        2
176
     1
 40
0.6
176
     1
 40
30.0
176
     1
 62
     7
420
 16777215
176
     1
 90
        0
176
     1
 90
        0
176
     1
 62
     7
176
     1
 62
   257
176
     1
 90
        1
176
     1
 90
        1
176
     1
 40
1.0
176
     1
 90
        8
176
     1
 62
     7
176
     1
 40
1.0
176
     1
 90
        1
176
     1
 90
        6
176
     1
 90
        2
176
     1
 62
     7
176
     1
 90
        5
176
     1
 90
        0
176
     1
 90
        0
176
     1
290
     0
176
     1
 90
       13
176
     1
 40
0.0
176
     1
 90
        0
176
     1
290
     0
176
     1
290
     1
176
     1
290
     1
176
     1
290
     0
176
     1
290
     0
176
     1
290
     0
176
     1
290
     0
176
     1
290
     0
176
     1
290
     0
176
     1
 90
       50
176
     1
 40
0.0
176
     1
 40
1.0
176
     1
 90
        0
176
     1
 62
    18
420
        0
176
     1
 90
       50
176
     1
 90
        3
176
     1
 62
     5
420
      255
176
     1
290
     0
176
     1
 90
       50
176
     1
 90
       50
176
     1
 90
       50
176
     1
290
     0
176
     1
 90
       50
176
     1
 62
   256
176
     0
 40
1.0
176
     0
 90
        2
176
     1
  1
strokes_ogs.tif
176
     1
290
     0
176
     1
 40
1.0
176
     1
 40
1.0
176
     1
  0
VISUALSTYLE
  5
2C
102
{ACAD_REACTORS
330
2A
102
}
330
2A
100
AcDbVisualStyle
  2
FlatWithEdges
 70
     1
177
     3
291
     1
 70
    58
 90
        2
176
     1
 90
        1
176
     1
 90
        1
176
     1
 90
        2
176
     1
 40
0.6
176
     1
 40
30.0
176
     1
 62
     7
420
 16777215
176
     1
 90
        1
176
     1
 90
        0
176
     1
 62
     7
176
     1
 62
   257
176
     1
 90
        1
176
     1
 90
        1
176
     1
 40
1.0
176
     1
 90
        0
176
     1
 62
   257
176
     1
 40
1.0
176
     1
 90
        1
176
     1
 90
        6
176
     1
 90
        2
176
     1
 62
     7
176
     1
 90
        5
176
     1
 90
        0
176
     1
 90
        0
176
     1
290
     0
176
     1
 90
       13
176
     1
 40
0.0
176
     1
 90
        0
176
     1
290
     0
176
     1
290
     1
176
     1
290
     1
176
     1
290
     0
176
     1
290
     0
176
     1
290
     0
176
     1
290
     0
176
     1
290
     0
176
     1
290
     0
176
     1
 90
       50
176
     1
 40
0.0
176
     1
 40
1.0
176
     1
 90
        0
176
     1
 62
    18
420
        0
176
     1
 90
       50
176
     1
 90
        3
176
     1
 62
     5
420
      255
176
     1
290
     0
176
     1
 90
       50
176
     1
 90
       50
176
     1
 90
       50
176
     1
290
     0
176
     1
 90
       50
176
     1
 62
   256
176
     0
 40
1.0
176
     0
 90
        2
176
     1
  1
strokes_ogs.tif
176
     1
290
     0
176
     1
 40
1.0
176
     1
 40
1.0
176
     1
  0
VISUALSTYLE
  5
2D
102
{ACAD_REACTORS
330
2A
102
}
330
2A
100
AcDbVisualStyle
  2
Gouraud
 70
     2
177
     3
291
     1
 70
    58
 90
        2
176
     1
 90
        2
176
     1
 90
        1
176
     1
 90
        2
176
     1
 40
0.6
176
     1
 40
30.0
176
     1
 62
     7
420
 16777215
176
     1
 90
        0
176
     1
 90
        0
176
     1
 62
     7
176
     1
 62
   257
176
     1
 90
        1
176
     1
 90
        1
176
     1
 40
1.0
176
     1
 90
        0
176
     1
 62
     7
176
     1
 40
1.0
176
     1
 90
        1
176
     1
 90
        6
176
     1
 90
        2
176
     1
 62
     7
176
     1
 90
        5
176
     1
 90
        0
176
     1
 90
        0
176
     1
290
     0
176
     1
 90
       13
176
     1
 40
0.0
176
     1
 90
        0
176
     1
290
     0
176
     1
290
     1
176
     1
290
     1
176
     1
290
     0
176
     1
290
     0
176
     1
290
     0
176
     1
290
     0
176
     1
290
     0
176
     1
290
     0
176
     1
 90
       50
176
     1
 40
0.0
176
     1
 40
1.0
176
     1
 90
        0
176
     1
 62
    18
420
        0
176
     1
 90
       50
176
     1
 90
        3
176
     1
 62
     5
420
      255
176
     1
290
     0
176
     1
 90
       50
176
     1
 90
       50
176
     1
 90
       50
176
     1
290
     0
176
     1
 90
       50
176
     1
 62
   256
176
     0
 40
1.0
176
     0
 90
        2
176
     1
  1
strokes_ogs.tif
176
     1
290
     0
176
     1
 40
1.0
176
     1
 40
1.0
176
     1
  0
VISUALSTYLE
  5
2E
102
{ACAD_REACTORS
330
2A
102
}
330
2A
100
AcDbVisualStyle
  2
GouraudWithEdges
 70
     3
177
     3
291
     1
 70
    58
 90
        2
176
     1
 90
        2
176
     1
 90
        1
176
     1
 90
        2
176
     1
 40
0.6
176
     1
 40
30.0
176
     1
 62
     7
420
 16777215
176
     1
 90
        1
176
     1
 90
        0
176
     1
 62
     7
176
     1
 62
   257
176
     1
 90
        1
176
     1
 90
        1
176
     1
 40
1.0
176
     1
 90
        0
176
     1
 62
   257
176
     1
 40
1.0
176
     1
 90
        1
176
     1
 90
        6
176
     1
 90
        2
176
     1
 62
     7
176
     1
 90
        5
176
     1
 90
        0
176
     1
 90
        0
176
     1
290
     0
176
     1
 90
       13
176
     1
 40
0.0
176
     1
 90
        0
176
     1
290
     0
176
     1
290
     1
176
     1
290
     1
176
     1
290
     0
176
     1
290
     0
176
     1
290
     0
176
     1
290
     0
176
     1
290
     0
176
     1
290
     0
176
     1
 90
       50
176
     1
 40
0.0
176
     1
 40
1.0
176
     1
 90
        0
176
     1
 62
    18
420
        0
176
     1
 90
       50
176
     1
 90
        3
176
     1
 62
     5
420
      255
176
     1
290
     0
176
     1
 90
       50
176
     1
 90
       50
176
     1
 90
       50
176
     1
290
     0
176
     1
 90
       50
176
     1
 62
   256
176
     0
 40
1.0
176
     0
 90
        2
176
     1
  1
strokes_ogs.tif
176
     1
290
     0
176
     1
 40
1.0
176
     1
 40
1.0
176
     1
  0
VISUALSTYLE
  5
31
102
{ACAD_REACTORS
330
2A
102
}
330
2A
100
AcDbVisualStyle
  2
Hidden
 70
     6
177
     3
291
     0
 70
    58
 90
        1
176
     1
 90
        2
176
     1
 90
        2
176
     1
 90
        0
176
     1
 40
0.6
176
     1
 40
30.0
176
     1
 62
     7
420
 16777215
176
     1
 90
        2
176
     1
 90
        2
176
     1
 62
     7
176
     1
 62
   257
176
     1
 90
        2
176
     1
 90
        1
176
     1
 40
40.0
176
     1
 90
        0
176
     1
 62
   257
176
     1
 40
1.0
176
     1
 90
        1
176
     1
 90
        6
176
     1
 90
        2
176
     1
 62
     7
176
     1
 90
        3
176
     1
 90
        0
176
     1
 90
        0
176
     1
290
     0
176
     1
 90
        1
176
     1
 40
0.0
176
     1
 90
        0
176
     1
290
     0
176
     1
290
     1
176
     1
290
     1
176
     1
290
     0
176
     1
290
     0
176
     1
290
     0
176
     1
290
     0
176
     1
290
     0
176
     1
290
     0
176
     1
 90
       50
176
     1
 40
0.0
176
     1
 40
1.0
176
     1
 90
        0
176
     1
 62
    18
420
        0
176
     1
 90
       50
176
     1
 90
        3
176
     1
 62
     5
420
      255
176
     1
290
     0
176
     1
 90
       50
176
     1
 90
       50
176
     1
 90
       50
176
     1
290
     0
176
     1
 90
       50
176
     1
 62
   256
176
     0
 40
1.0
176
     0
 90
        2
176
     1
  1
strokes_ogs.tif
176
     1
290
     0
176
     1
 40
1.0
176
     1
 40
1.0
176
     1
  0
VISUALSTYLE
  5
3B
102
{ACAD_REACTORS
330
2A
102
}
330
2A
100
AcDbVisualStyle
  2
JitterOff
 70
    20
177
     3
291
     1
 70
    58
 90
        2
176
     0
 90
        2
176
     0
 90
        0
176
     0
 90
        0
176
     0
 40
0.6
176
     0
 40
30.0
176
     0
 62
     7
420
 16777215
176
     0
 90
        1
176
     0
 90
        4
176
     0
 62
     7
176
     0
 62
   257
176
     0
 90
        1
176
     0
 90
        1
176
     0
 40
1.0
176
     0
 90
       10
176
     2
 62
     7
176
     0
 40
1.0
176
     0
 90
        1
176
     0
 90
        6
176
     0
 90
        2
176
     0
 62
     7
176
     0
 90
        5
176
     0
 90
        0
176
     0
 90
        0
176
     0
290
     0
176
     0
 90
        1
176
     0
 40
0.0
176
     0
 90
        0
176
     0
290
     0
176
     0
290
     1
176
     0
290
     1
176
     0
290
     0
176
     0
290
     0
176
     0
290
     0
176
     0
290
     0
176
     0
290
     0
176
     0
290
     0
176
     0
 90
       50
176
     0
 40
0.0
176
     0
 40
1.0
176
     0
 90
        0
176
     0
 62
    18
420
        0
176
     0
 90
       50
176
     0
 90
        3
176
     0
 62
     5
420
      255
176
     0
290
     0
176
     0
 90
       50
176
     0
 90
       50
176
     0
 90
       50
176
     0
290
     0
176
     0
 90
       50
176
     0
 62
   256
176
     0
 40
1.0
176
     0
 90
        2
176
     0
  1
strokes_ogs.tif
176
     0
290
     0
176
     0
 40
1.0
176
     0
 40
1.0
176
     0
  0
VISUALSTYLE
  5
38
102
{ACAD_REACTORS
330
2A
102
}
330
2A
100
AcDbVisualStyle
  2
Linepattern
 70
    14
177
     3
291
     1
 70
    58
 90
        2
176
     1
 90
        2
176
     1
 90
        0
176
     1
 90
        0
176
     1
 40
0.6
176
     1
 40
30.0
176
     1
 62
     7
420
 16777215
176
     1
 90
        1
176
     1
 90
        4
176
     1
 62
     7
176
     1
 62
   257
176
     1
 90
        7
176
     1
 90
        7
176
     1
 40
1.0
176
     1
 90
        8
176
     1
 62
     7
176
     1
 40
1.0
176
     1
 90
        1
176
     1
 90
        6
176
     1
 90
        2
176
     1
 62
     7
176
     1
 90
        5
176
     1
 90
        0
176
     1
 90
        0
176
     1
290
     0
176
     1
 90
        1
176
     1
 40
0.0
176
     1
 90
        0
176
     1
290
     0
176
     1
290
     1
176
     1
290
     1
176
     1
290
     0
176
     1
290
     0
176
     1
290
     0
176
     1
290
     0
176
     1
290
     0
176
     1
290
     0
176
     1
 90
       50
176
     1
 40
0.0
176
     1
 40
1.0
176
     1
 90
        0
176
     1
 62
    18
420
        0
176
     1
 90
       50
176
     1
 90
        3
176
     1
 62
     5
420
      255
176
     1
290
     0
176
     1
 90
       50
176
     1
 90
       50
176
     1
 90
       50
176
     1
290
     0
176
     1
 90
       50
176
     1
 62
   256
176
     0
 40
1.0
176
     0
 90
        2
176
     1
  1
strokes_ogs.tif
176
     1
290
     0
176
     1
 40
1.0
176
     1
 40
1.0
176
     1
  0
VISUALSTYLE
  5
3C
102
{ACAD_REACTORS
330
2A
102
}
330
2A
100
AcDbVisualStyle
  2
OverhangOff
 70
    21
177
     3
291
     1
 70
    58
 90
        2
176
     0
 90
        2
176
     0
 90
        0
176
     0
 90
        0
176
     0
 40
0.6
176
     0
 40
30.0
176
     0
 62
     7
420
 16777215
176
     0
 90
        1
176
     0
 90
        4
176
     0
 62
     7
176
     0
 62
   257
176
     0
 90
        1
176
     0
 90
        1
176
     0
 40
1.0
176
     0
 90
        9
176
     2
 62
     7
176
     0
 40
1.0
176
     0
 90
        1
176
     0
 90
        6
176
     0
 90
        2
176
     0
 62
     7
176
     0
 90
        5
176
     0
 90
        0
176
     0
 90
        0
176
     0
290
     0
176
     0
 90
        1
176
     0
 40
0.0
176
     0
 90
        0
176
     0
290
     0
176
     0
290
     1
176
     0
290
     1
176
     0
290
     0
176
     0
290
     0
176
     0
290
     0
176
     0
290
     0
176
     0
290
     0
176
     0
290
     0
176
     0
 90
       50
176
     0
 40
0.0
176
     0
 40
1.0
176
     0
 90
        0
176
     0
 62
    18
420
        0
176
     0
 90
       50
176
     0
 90
        3
176
     0
 62
     5
420
      255
176
     0
290
     0
176
     0
 90
       50
176
     0
 90
       50
176
     0
 90
       50
176
     0
290
     0
176
     0
 90
       50
176
     0
 62
   256
176
     0
 40
1.0
176
     0
 90
        2
176
     0
  1
strokes_ogs.tif
176
     0
290
     0
176
     0
 40
1.0
176
     0
 40
1.0
176
     0
  0
VISUALSTYLE
  5
33
102
{ACAD_REACTORS
330
2A
102
}
330
2A
100
AcDbVisualStyle
  2
Realistic
 70
     8
177
     3
291
     0
 70
    58
 90
        2
176
     1
 90
        3
176
     1
 90
        0
176
     1
 90
        2
176
     1
 40
0.6
176
     1
 40
30.0
176
     1
 62
     7
420
 16777215
176
     1
 90
        0
176
     1
 90
        0
176
     1
 62
     7
176
     1
 62
   257
176
     1
 90
        1
176
     1
 90
        1
176
     1
 40
1.0
176
     1
 90
        8
176
     1
 62
   257
176
     1
 40
1.0
176
     1
 90
        1
176
     1
 90
        6
176
     1
 90
        2
176
     1
 62
     7
176
     1
 90
        3
176
     1
 90
        0
176
     1
 90
        0
176
     1
290
     0
176
     1
 90
       13
176
     1
 40
0.0
176
     1
 90
        0
176
     1
290
     0
176
     1
290
     1
176
     1
290
     1
176
     1
290
     0
176
     1
290
     0
176
     1
290
     0
176
     1
290
     0
176
     1
290
     0
176
     1
290
     0
176
     1
 90
       50
176
     1
 40
0.0
176
     1
 40
1.0
176
     1
 90
        0
176
     1
 62
    18
420
        0
176
     1
 90
       50
176
     1
 90
        3
176
     1
 62
     5
420
      255
176
     1
290
     0
176
     1
 90
       50
176
     1
 90
       50
176
     1
 90
       50
176
     1
290
     0
176
     1
 90
       50
176
     1
 62
   256
176
     0
 40
1.0
176
     0
 90
        2
176
     1
  1
strokes_ogs.tif
176
     1
290
     0
176
     1
 40
1.0
176
     1
 40
1.0
176
     1
  0
VISUALSTYLE
  5
42
102
{ACAD_REACTORS
330
2A
102
}
330
2A
100
AcDbVisualStyle
  2
Shaded
 70
    27
177
     3
291
     0
 70
    58
 90
        2
176
     1
 90
        2
176
     1
 90
        1
176
     1
 90
        2
176
     1
 40
0.6
176
     1
 40
30.0
176
     1
 62
     7
420
 16777215
176
     1
 90
        0
176
     1
 90
        4
176
     1
 62
     7
176
     1
 62
   257
176
     1
 90
        1
176
     1
 90
        1
176
     1
 40
1.0
176
     1
 90
        8
176
     1
 62
   257
176
     1
 40
1.0
176
     1
 90
        1
176
     1
 90
        6
176
     1
 90
        2
176
     1
 62
     8
420
  7895160
176
     1
 90
        3
176
     1
 90
        0
176
     1
 90
        0
176
     1
290
     0
176
     1
 90
        5
176
     1
 40
0.0
176
     1
 90
        0
176
     1
290
     0
176
     1
290
     1
176
     1
290
     1
176
     1
290
     0
176
     1
290
     0
176
     1
290
     0
176
     1
290
     0
176
     1
290
     0
176
     1
290
     0
176
     1
 90
       50
176
     1
 40
0.0
176
     1
 40
1.0
176
     1
 90
        0
176
     1
 62
    18
420
        0
176
     1
 90
       50
176
     1
 90
        3
176
     1
 62
     5
420
      255
176
     1
290
     0
176
     1
 90
       50
176
     1
 90
       50
176
     1
 90
       50
176
     1
290
     0
176
     1
 90
       50
176
     1
 62
   256
176
     0
 40
1.0
176
     0
 90
        2
176
     1
  1
strokes_ogs.tif
176
     1
290
     0
176
     1
 40
1.0
176
     1
 40
1.0
176
     1
  0
VISUALSTYLE
  5
41
102
{ACAD_REACTORS
330
2A
102
}
330
2A
100
AcDbVisualStyle
  2
Shaded with edges
 70
    26
177
     3
291
     0
 70
    58
 90
        2
176
     1
 90
        2
176
     1
 90
        1
176
     1
 90
        2
176
     1
 40
0.6
176
     1
 40
30.0
176
     1
 62
     7
420
 16777215
176
     1
 90
        1
176
     1
 90
       10
176
     1
 62
     7
176
     1
 62
   257
176
     1
 90
        2
176
     1
 90
        1
176
     1
 40
1.0
176
     1
 90
        8
176
     1
 62
   257
176
     1
 40
1.0
176
     1
 90
        1
176
     1
 90
        6
176
     1
 90
        2
176
     1
 62
     7
176
     1
 90
        3
176
     1
 90
        0
176
     1
 90
        0
176
     1
290
     0
176
     1
 90
        5
176
     1
 40
0.0
176
     1
 90
        0
176
     1
290
     0
176
     1
290
     1
176
     1
290
     1
176
     1
290
     0
176
     1
290
     0
176
     1
290
     0
176
     1
290
     0
176
     1
290
     0
176
     1
290
     0
176
     1
 90
       50
176
     1
 40
0.0
176
     1
 40
1.0
176
     1
 90
        0
176
     1
 62
    18
420
        0
176
     1
 90
       50
176
     1
 90
        3
176
     1
 62
     5
420
      255
176
     1
290
     0
176
     1
 90
       50
176
     1
 90
       50
176
     1
 90
       50
176
     1
290
     0
176
     1
 90
       50
176
     1
 62
   256
176
     0
 40
1.0
176
     0
 90
        2
176
     1
  1
strokes_ogs.tif
176
     1
290
     0
176
     1
 40
1.0
176
     1
 40
1.0
176
     1
  0
VISUALSTYLE
  5
3E
102
{ACAD_REACTORS
330
2A
102
}
330
2A
100
AcDbVisualStyle
  2
Shades of Gray
 70
    23
177
     3
291
     0
 70
    58
 90
        2
176
     1
 90
        2
176
     1
 90
        3
176
     1
 90
        0
176
     1
 40
0.6
176
     1
 40
30.0
176
     1
 62
     7
420
 16777215
176
     1
 90
        2
176
     1
 90
        2
176
     1
 62
     7
176
     1
 62
     7
176
     1
 90
        1
176
     1
 90
        1
176
     1
 40
40.0
176
     1
 90
        8
176
     1
 62
     7
176
     1
 40
1.0
176
     1
 90
        1
176
     1
 90
        6
176
     1
 90
        2
176
     1
 62
     7
176
     1
 90
        3
176
     1
 90
        0
176
     1
 90
        0
176
     1
290
     0
176
     1
 90
        1
176
     1
 40
0.0
176
     1
 90
        0
176
     1
290
     0
176
     1
290
     1
176
     1
290
     1
176
     1
290
     0
176
     1
290
     0
176
     1
290
     0
176
     1
290
     0
176
     1
290
     0
176
     1
290
     0
176
     1
 90
       50
176
     1
 40
0.0
176
     1
 40
1.0
176
     1
 90
        0
176
     1
 62
    18
420
        0
176
     1
 90
       50
176
     1
 90
        3
176
     1
 62
     5
420
      255
176
     1
290
     0
176
     1
 90
       50
176
     1
 90
       50
176
     1
 90
       50
176
     1
290
     0
176
     1
 90
       50
176
     1
 62
   256
176
     0
 40
1.0
176
     0
 90
        2
176
     1
  1
strokes_ogs.tif
176
     1
290
     0
176
     1
 40
1.0
176
     1
 40
1.0
176
     1
  0
VISUALSTYLE
  5
3F
102
{ACAD_REACTORS
330
2A
102
}
330
2A
100
AcDbVisualStyle
  2
Sketchy
 70
    24
177
     3
291
     0
 70
    58
 90
        1
176
     1
 90
        2
176
     1
 90
        2
176
     1
 90
        0
176
     1
 40
0.6
176
     1
 40
30.0
176
     1
 62
     7
420
 16777215
176
     1
 90
        2
176
     1
 90
        2
176
     1
 62
     7
176
     1
 62
     7
176
     1
 90
        1
176
     1
 90
        1
176
     1
 40
40.0
176
     1
 90
       11
176
     1
 62
     7
176
     1
 40
1.0
176
     1
 90
        1
176
     1
 90
        6
176
     1
 90
        2
176
     1
 62
     7
176
     1
 90
        6
176
     1
 90
        0
176
     1
 90
        0
176
     1
290
     0
176
     1
 90
        1
176
     1
 40
0.0
176
     1
 90
        0
176
     1
290
     0
176
     1
290
     1
176
     1
290
     1
176
     1
290
     0
176
     1
290
     0
176
     1
290
     0
176
     1
290
     0
176
     1
290
     0
176
     1
290
     0
176
     1
 90
       50
176
     1
 40
0.0
176
     1
 40
1.0
176
     1
 90
        0
176
     1
 62
    18
420
        0
176
     1
 90
       50
176
     1
 90
        3
176
     1
 62
     5
420
      255
176
     1
290
     0
176
     1
 90
       50
176
     1
 90
       50
176
     1
 90
       50
176
     1
290
     0
176
     1
 90
       50
176
     1
 62
   256
176
     0
 40
1.0
176
     0
 90
        2
176
     1
  1
strokes_ogs.tif
176
     1
290
     0
176
     1
 40
1.0
176
     1
 40
1.0
176
     1
  0
VISUALSTYLE
  5
37
102
{ACAD_REACTORS
330
2A
102
}
330
2A
100
AcDbVisualStyle
  2
Thicken
 70
    13
177
     3
291
     1
 70
    58
 90
        2
176
     1
 90
        2
176
     1
 90
        0
176
     1
 90
        0
176
     1
 40
0.6
176
     1
 40
30.0
176
     1
 62
     7
420
 16777215
176
     1
 90
        1
176
     1
 90
        4
176
     1
 62
     7
176
     1
 62
   257
176
     1
 90
        1
176
     1
 90
        1
176
     1
 40
1.0
176
     1
 90
       12
176
     1
 62
     7
176
     1
 40
1.0
176
     1
 90
        1
176
     1
 90
        6
176
     1
 90
        2
176
     1
 62
     7
176
     1
 90
        5
176
     1
 90
        0
176
     1
 90
        0
176
     1
290
     0
176
     1
 90
        1
176
     1
 40
0.0
176
     1
 90
        0
176
     1
290
     0
176
     1
290
     1
176
     1
290
     1
176
     1
290
     0
176
     1
290
     0
176
     1
290
     0
176
     1
290
     0
176
     1
290
     0
176
     1
290
     0
176
     1
 90
       50
176
     1
 40
0.0
176
     1
 40
1.0
176
     1
 90
        0
176
     1
 62
    18
420
        0
176
     1
 90
       50
176
     1
 90
        3
176
     1
 62
     5
420
      255
176
     1
290
     0
176
     1
 90
       50
176
     1
 90
       50
176
     1
 90
       50
176
     1
290
     0
176
     1
 90
       50
176
     1
 62
   256
176
     0
 40
1.0
176
     0
 90
        2
176
     1
  1
strokes_ogs.tif
176
     1
290
     0
176
     1
 40
1.0
176
     1
 40
1.0
176
     1
  0
VISUALSTYLE
  5
30
102
{ACAD_REACTORS
330
2A
102
}
330
2A
100
AcDbVisualStyle
  2
Wireframe
 70
     5
177
     3
291
     0
 70
    58
 90
        0
176
     1
 90
        2
176
     1
 90
        0
176
     1
 90
        0
176
     1
 40
0.6
176
     1
 40
30.0
176
     1
 62
     7
420
 16777215
176
     1
 90
        1
176
     1
 90
        4
176
     1
 62
     7
176
     1
 62
   257
176
     1
 90
        1
176
     1
 90
        1
176
     1
 40
1.0
176
     1
 90
        0
176
     1
 62
   257
176
     1
 40
1.0
176
     1
 90
        1
176
     1
 90
        6
176
     1
 90
        2
176
     1
 62
     7
176
     1
 90
        3
176
     1
 90
        0
176
     1
 90
        0
176
     1
290
     0
176
     1
 90
        1
176
     1
 40
0.0
176
     1
 90
        0
176
     1
290
     0
176
     1
290
     1
176
     1
290
     1
176
     1
290
     0
176
     1
290
     0
176
     1
290
     0
176
     1
290
     0
176
     1
290
     0
176
     1
290
     0
176
     1
 90
       50
176
     1
 40
0.0
176
     1
 40
1.0
176
     1
 90
        0
176
     1
 62
    18
420
        0
176
     1
 90
       50
176
     1
 90
        3
176
     1
 62
     5
420
      255
176
     1
290
     0
176
     1
 90
       50
176
     1
 90
       50
176
     1
 90
       50
176
     1
290
     0
176
     1
 90
       50
176
     1
 62
   256
176
     0
 40
1.0
176
     0
 90
        2
176
     1
  1
strokes_ogs.tif
176
     1
290
     0
176
     1
 40
1.0
176
     1
 40
1.0
176
     1
  0
VISUALSTYLE
  5
40
102
{ACAD_REACTORS
330
2A
102
}
330
2A
100
AcDbVisualStyle
  2
X-Ray
 70
    25
177
     3
291
     0
 70
    58
 90
        2
176
     1
 90
        2
176
     1
 90
        1
176
     1
 90
        1
176
     1
 40
0.5
176
     1
 40
30.0
176
     1
 62
     7
420
 16777215
176
     1
 90
        1
176
     1
 90
        0
176
     1
 62
     7
176
     1
 62
   257
176
     1
 90
        1
176
     1
 90
        1
176
     1
 40
1.0
176
     1
 90
        8
176
     1
 62
     7
176
     1
 40
1.0
176
     1
 90
        1
176
     1
 90
        6
176
     1
 90
        2
176
     1
 62
     7
176
     1
 90
        3
176
     1
 90
        0
176
     1
 90
        0
176
     1
290
     0
176
     1
 90
       13
176
     1
 40
0.0
176
     1
 90
        0
176
     1
290
     0
176
     1
290
     1
176
     1
290
     1
176
     1
290
     0
176
     1
290
     0
176
     1
290
     0
176
     1
290
     0
176
     1
290
     0
176
     1
290
     0
176
     1
 90
       50
176
     1
 40
0.0
176
     1
 40
1.0
176
     1
 90
        0
176
     1
 62
    18
420
        0
176
     1
 90
       50
176
     1
 90
        3
176
     1
 62
     5
420
      255
176
     1
290
     0
176
     1
 90
       50
176
     1
 90
       50
176
     1
 90
       50
176
     1
290
     0
176
     1
 90
       50
176
     1
 62
   256
176
     0
 40
1.0
176
     0
 90
        2
176
     1
  1
strokes_ogs.tif
176
     1
290
     0
176
     1
 40
1.0
176
     1
 40
1.0
176
     1
  0
DICTIONARYVAR
  5
3B3
102
{ACAD_REACTORS
330
3B2
102
}
330
3B2
100
DictionaryVariables
280
     0
  1
1:1
  0
DICTIONARYVAR
  5
5FA
102
{ACAD_REACTORS
330
3B2
102
}
330
3B2
100
DictionaryVariables
280
     0
  1
STANDARD
  0
DICTIONARYVAR
  5
5F9
102
{ACAD_REACTORS
330
3B2
102
}
330
3B2
100
DictionaryVariables
280
     0
  1
STANDARD
  0
DICTIONARYVAR
  5
5FB
102
{ACAD_REACTORS
330
3B2
102
}
330
3B2
100
DictionaryVariables
280
     0
  1
Imperial24
  0
DICTIONARYVAR
  5
5FC
102
{ACAD_REACTORS
330
3B2
102
}
330
3B2
100
DictionaryVariables
280
     0
  1
Imperial24
  0
DICTIONARYVAR
  5
5FE
102
{ACAD_REACTORS
330
3B2
102
}
330
3B2
100
DictionaryVariables
280
     0
  1
1
  0
DICTIONARYVAR
  5
5FF
102
{ACAD_REACTORS
330
3B2
102
}
330
3B2
100
DictionaryVariables
280
     0
  1
15
  0
DICTIONARYVAR
  5
5FD
102
{ACAD_REACTORS
330
3B2
102
}
330
3B2
100
DictionaryVariables
280
     0
  1
0
  0
DICTIONARYVAR
  5
3B4
102
{ACAD_REACTORS
330
3B2
102
}
330
3B2
100
DictionaryVariables
280
     0
  1
1
  0
DICTIONARY
  5
5F6
330
3F4
100
AcDbDictionary
280
     1
281
     1
  3
ACAD_XREC_ROUNDTRIP
360
607
  0
DICTIONARY
  5
5F4
330
3F3
100
AcDbDictionary
280
     1
281
     1
  3
ACAD_XREC_ROUNDTRIP
360
606
  0
DICTIONARY
  5
604
330
3F1
100
AcDbDictionary
280
     1
281
     1
  3
ACAD_ROUNDTRIP_2008_TABLESTYLE_CELLSTYLEMAP
360
605
  0
XRECORD
  5
607
102
{ACAD_REACTORS
330
5F6
102
}
330
5F6
100
AcDbXrecord
280
     1
102
DISPLAYNAME
  1
Imperial24
102
FLAGS
 90
        0
  0
XRECORD
  5
606
102
{ACAD_REACTORS
330
5F4
102
}
330
5F4
100
AcDbXrecord
280
     1
102
DISPLAYNAME
  1
Imperial24
102
FLAGS
 90
        0
  0
CELLSTYLEMAP
  5
605
102
{ACAD_REACTORS
330
604
102
}
330
604
100
AcDbCellStyleMap
 90
        3
300
CELLSTYLE
  1
TABLEFORMAT_BEGIN
 90
        5
170
     1
 91
        0
 92
    32768
 62
   257
 93
        1
300
CONTENTFORMAT
  1
CONTENTFORMAT_BEGIN
 90
        0
 91
        0
 92
      512
 93
        0
300

 40
0.0
140
1.0
 94
        5
 62
     0
340
11
144
0.25
309
CONTENTFORMAT_END
171
     0
 94
        0
309
TABLEFORMAT_END
  1
CELLSTYLE_BEGIN
 90
        1
 91
        1
300
_TITLE
309
CELLSTYLE_END
300
CELLSTYLE
  1
TABLEFORMAT_BEGIN
 90
        5
170
     1
 91
        0
 92
        0
 62
   257
 93
        1
300
CONTENTFORMAT
  1
CONTENTFORMAT_BEGIN
 90
        0
 91
        0
 92
      512
 93
        0
300

 40
0.0
140
1.0
 94
        5
 62
     0
340
11
144
0.18
309
CONTENTFORMAT_END
171
     0
 94
        0
309
TABLEFORMAT_END
  1
CELLSTYLE_BEGIN
 90
        2
 91
        1
300
_HEADER
309
CELLSTYLE_END
300
CELLSTYLE
  1
TABLEFORMAT_BEGIN
 90
        5
170
     1
 91
        0
 92
        0
 62
   257
 93
        1
300
CONTENTFORMAT
  1
CONTENTFORMAT_BEGIN
 90
        0
 91
        0
 92
      512
 93
        0
300

 40
0.0
140
1.0
 94
        2
 62
     0
340
11
144
0.18
309
CONTENTFORMAT_END
171
     0
 94
        0
309
TABLEFORMAT_END
  1
CELLSTYLE_BEGIN
 90
        3
 91
        2
300
_DATA
309
CELLSTYLE_END
  0
ENDSEC
  0
SECTION
  2
ACDSDATA
 70
     2
 71
     8
  0
ACDSSCHEMA
 90
        0
  1
AcDb3DSolid_ASM_Data
  2
AcDbDs::ID
280
    10
 91
        8
  2
ASM_Data
280
    15
 91
        0
101
ACDSRECORD
 95
        0
 90
        1
  2
AcDbDs::TreatedAsObjectData
280
     1
291
     1
101
ACDSRECORD
 95
        0
 90
        2
  2
AcDbDs::Legacy
280
     1
291
     1
101
ACDSRECORD
  1
AcDbDs::ID
 90
        3
  2
AcDs:Indexable
280
     1
291
     1
101
ACDSRECORD
  1
AcDbDs::ID
 90
        4
  2
AcDbDs::HandleAttribute
280
     7
282
     1
  0
ACDSSCHEMA
 90
        1
  1
AcDbDs::TreatedAsObjectDataSchema
  2
AcDbDs::TreatedAsObjectData
280
     1
 91
        0
  0
ACDSSCHEMA
 90
        2
  1
AcDbDs::LegacySchema
  2
AcDbDs::Legacy
280
     1
 91
        0
  0
ACDSSCHEMA
 90
        3
  1
AcDbDs::IndexedPropertySchema
  2
AcDs:Indexable
280
     1
 91
        0
  0
ACDSSCHEMA
 90
        4
  1
AcDbDs::HandleAttributeSchema
  2
AcDbDs::HandleAttribute
280
     7
 91
        1
284
     1
  0
ACDSSCHEMA
 90
        5
  1
AcDb_Thumbnail_Schema
  2
AcDbDs::ID
280
    10
 91
        8
  2
Thumbnail_Data
280
    15
 91
        0
101
ACDSRECORD
 95
        5
 90
        1
  2
AcDbDs::TreatedAsObjectData
280
     1
291
     1
101
ACDSRECORD
 95
        5
 90
        2
  2
AcDbDs::Legacy
280
     1
291
     1
101
ACDSRECORD
  1
AcDbDs::ID
 90
        3
  2
AcDs:Indexable
280
     1
291
     1
101
ACDSRECORD
  1
AcDbDs::ID
 90
        4
  2
AcDbDs::HandleAttribute
280
     7
282
     1
  0
ACDSRECORD
 90
        5
  2
AcDbDs::ID
280
    10
320
22
  2
Thumbnail_Data
280
    15
 94
     1274
310
89504E470D0A1A0A0000000D4948445200000100000000670803000000D82A6C0200000300504C5445000000000000C8C8C80000000000000000000000000000000000000000000000000000330000660000990000CC0000FF0033000033330033660033990033CC0033FF0066000066330066660066990066CC0066FF0099
310
000099330099660099990099CC0099FF00CC0000CC3300CC6600CC9900CCCC00CCFF00FF0000FF3300FF6600FF9900FFCC00FFFF3300003300333300663300993300CC3300FF3333003333333333663333993333CC3333FF3366003366333366663366993366CC3366FF3399003399333399663399993399CC3399FF33CC00
310
33CC3333CC6633CC9933CCCC33CCFF33FF0033FF3333FF6633FF9933FFCC33FFFF6600006600336600666600996600CC6600FF6633006633336633666633996633CC6633FF6666006666336666666666996666CC6666FF6699006699336699666699996699CC6699FF66CC0066CC3366CC6666CC9966CCCC66CCFF66FF0066
310
FF3366FF6666FF9966FFCC66FFFF9900009900339900669900999900CC9900FF9933009933339933669933999933CC9933FF9966009966339966669966999966CC9966FF9999009999339999669999999999CC9999FF99CC0099CC3399CC6699CC9999CCCC99CCFF99FF0099FF3399FF6699FF9999FFCC99FFFFCC0000CC00
310
33CC0066CC0099CC00CCCC00FFCC3300CC3333CC3366CC3399CC33CCCC33FFCC6600CC6633CC6666CC6699CC66CCCC66FFCC9900CC9933CC9966CC9999CC99CCCC99FFCCCC00CCCC33CCCC66CCCC99CCCCCCCCCCFFCCFF00CCFF33CCFF66CCFF99CCFFCCCCFFFFFF0000FF0033FF0066FF0099FF00CCFF00FFFF3300FF3333
310
FF3366FF3399FF33CCFF33FFFF6600FF6633FF6666FF6699FF66CCFF66FFFF9900FF9933FF9966FF9999FF99CCFF99FFFFCC00FFCC33FFCC66FFCC99FFCCCCFFCCFFFFFF00FFFF33FFFF66FFFF99FFFFCCFFFFFF0000000D0D0D1A1A1A2828283535354343435050505D5D5D6B6B6B787878868686939393A1A1A1AEAEAEBB
310
BBBBC9C9C9D6D6D6E4E4E4F1F1F1FFFFFF00000000000000000000000000000000000000000000000000000000000008F1915C000001A74944415478DAED9DD11282201444F9FFFFDDF71ACB111014CA26F0ECBE94CC6470B87881740BE19FD2A28094320101D48F2004AA0706E021800B006008E8B4000120CA80025E01D6
310
81FF7A152E00543D6400C8D3202A113C1BBB4B83240052290D7208A806402000796397225208A8A5ECE683E0B4E8DE6950270506C01A04BC3D313C80B4C9CCAD616DAB41FCCE78E00ADD78DCFCCF1160599665599665D1A58A30D37C7515CFBA60A8776937981983E328AAFB004C393EB6FA962ADE03203A91666BFDBBE3F4
310
0D002577D18CCF208AD588C2E700A2B6EFBE604C0021AB70B1DF9A012839CDFA323680C2C8DF116805A0EC34671F1F09C0611A6F07D070F231A73EBF05A0E101EC07BDFA012854AE1D3302481BD304A070DBD8CC00D40F407204DC0700ED1A80CD02F8798067825E0BD0578349ADAFDE0FD0847B22CC1DA128582FDC130CD3
310
09BE2B7C3861E9FD61C4371259966559966559D6EDE4E7254C00DEFD703FB9EC0DB3F950047E781A0EC0060A7000740F11BA8B0CDE4708EF2485F712B39B9CFD04ED2889F714C5BBCADA5718EF2C6D6F71DBEBDB5E1F3E04F0FF3192CF03FEA507D63CB319BF32F0220000000049454E44AE426082863A0000000049454E44
310
AE426082
  0
ENDSEC
  0
EOF
