  0
SECTION
  2
HEADER
  9
$ACADVER
  1
AC1027
  9
$ACADMAINTVER
 70
   105
  9
$DWGCODEPAGE
  3
ANSI_1252
  9
$LASTSAVEDBY
  1
Sandra
  9
$REQUIREDVERSIONS
160
                 0
  9
$INSBASE
 10
0.0
 20
0.0
 30
0.0
  9
$EXTMIN
 10
-1543.648045152762
 20
-1543.648045152762
 30
0.0
  9
$EXTMAX
 10
1543.648045152762
 20
1543.648045152762
 30
0.0
  9
$LIMMIN
 10
0.0
 20
0.0
  9
$LIMMAX
 10
12.0
 20
9.0
  9
$ORTHOMODE
 70
     1
  9
$REGENMODE
 70
     1
  9
$FILLMODE
 70
     1
  9
$QTEXTMODE
 70
     0
  9
$MIRRTEXT
 70
     1
  9
$LTSCALE
 40
1.0
  9
$ATTMODE
 70
     1
  9
$TEXTSIZE
 40
0.2
  9
$TRACEWID
 40
0.05
  9
$TEXTSTYLE
  7
Standard
  9
$CLAYER
  8
Default
  9
$CELTYPE
  6
ByLayer
  9
$CECOLOR
 62
   256
  9
$CELTSCALE
 40
1.0
  9
$DISPSILH
 70
     0
  9
$DIMSCALE
 40
1.0
  9
$DIMASZ
 40
0.18
  9
$DIMEXO
 40
0.0625
  9
$DIMDLI
 40
0.38
  9
$DIMRND
 40
0.0
  9
$DIMDLE
 40
0.0
  9
$DIMEXE
 40
0.18
  9
$DIMTP
 40
0.0
  9
$DIMTM
 40
0.0
  9
$DIMTXT
 40
0.18
  9
$DIMCEN
 40
0.09
  9
$DIMTSZ
 40
0.0
  9
$DIMTOL
 70
     0
  9
$DIMLIM
 70
     0
  9
$DIMTIH
 70
     1
  9
$DIMTOH
 70
     1
  9
$DIMSE1
 70
     0
  9
$DIMSE2
 70
     0
  9
$DIMTAD
 70
     0
  9
$DIMZIN
 70
     0
  9
$DIMBLK
  1

  9
$DIMASO
 70
     1
  9
$DIMSHO
 70
     1
  9
$DIMPOST
  1

  9
$DIMAPOST
  1

  9
$DIMALT
 70
     0
  9
$DIMALTD
 70
     2
  9
$DIMALTF
 40
25.4
  9
$DIMLFAC
 40
1.0
  9
$DIMTOFL
 70
     0
  9
$DIMTVP
 40
0.0
  9
$DIMTIX
 70
     0
  9
$DIMSOXD
 70
     0
  9
$DIMSAH
 70
     0
  9
$DIMBLK1
  1

  9
$DIMBLK2
  1

  9
$DIMSTYLE
  2
Standard
  9
$DIMCLRD
 70
     0
  9
$DIMCLRE
 70
     0
  9
$DIMCLRT
 70
     0
  9
$DIMTFAC
 40
1.0
  9
$DIMGAP
 40
0.09
  9
$DIMJUST
 70
     0
  9
$DIMSD1
 70
     0
  9
$DIMSD2
 70
     0
  9
$DIMTOLJ
 70
     1
  9
$DIMTZIN
 70
     0
  9
$DIMALTZ
 70
     0
  9
$DIMALTTZ
 70
     0
  9
$DIMUPT
 70
     0
  9
$DIMDEC
 70
     4
  9
$DIMTDEC
 70
     4
  9
$DIMALTU
 70
     2
  9
$DIMALTTD
 70
     2
  9
$DIMTXSTY
  7
Standard
  9
$DIMAUNIT
 70
     0
  9
$DIMADEC
 70
     0
  9
$DIMALTRND
 40
0.0
  9
$DIMAZIN
 70
     0
  9
$DIMDSEP
 70
    46
  9
$DIMATFIT
 70
     3
  9
$DIMFRAC
 70
     0
  9
$DIMLDRBLK
  1

  9
$DIMLUNIT
 70
     2
  9
$DIMLWD
 70
    -2
  9
$DIMLWE
 70
    -2
  9
$DIMTMOVE
 70
     2
  9
$DIMFXL
 40
1.0
  9
$DIMFXLON
 70
     0
  9
$DIMJOGANG
 40
0.7853981633974483
  9
$DIMTFILL
 70
     0
  9
$DIMTFILLCLR
 70
     0
  9
$DIMARCSYM
 70
     0
  9
$DIMLTYPE
  6

  9
$DIMLTEX1
  6

  9
$DIMLTEX2
  6

  9
$DIMTXTDIRECTION
 70
     0
  9
$LUNITS
 70
     2
  9
$LUPREC
 70
     3
  9
$SKETCHINC
 40
0.1
  9
$FILLETRAD
 40
35.0
  9
$AUNITS
 70
     0
  9
$AUPREC
 70
     0
  9
$MENU
  1
.
  9
$ELEVATION
 40
0.0
  9
$PELEVATION
 40
0.0
  9
$THICKNESS
 40
0.0
  9
$LIMCHECK
 70
     0
  9
$CHAMFERA
 40
0.0
  9
$CHAMFERB
 40
0.0
  9
$CHAMFERC
 40
0.0
  9
$CHAMFERD
 40
0.0
  9
$SKPOLY
 70
     0
  9
$TDCREATE
 40
2456553.280141482
  9
$TDUCREATE
 40
2456553.446808148
  9
$TDUPDATE
 40
2457854.464194908
  9
$TDUUPDATE
 40
2457854.630861574
  9
$TDINDWG
 40
0.0103270370
  9
$TDUSRTIMER
 40
0.0103270370
  9
$USRTIMER
 70
     1
  9
$ANGBASE
 50
0.0
  9
$ANGDIR
 70
     0
  9
$PDMODE
 70
     0
  9
$PDSIZE
 40
0.0
  9
$PLINEWID
 40
0.0
  9
$SPLFRAME
 70
     0
  9
$SPLINETYPE
 70
     6
  9
$SPLINESEGS
 70
     8
  9
$HANDSEED
  5
739
  9
$SURFTAB1
 70
     6
  9
$SURFTAB2
 70
     6
  9
$SURFTYPE
 70
     6
  9
$SURFU
 70
     6
  9
$SURFV
 70
     6
  9
$UCSBASE
  2

  9
$UCSNAME
  2

  9
$UCSORG
 10
0.0
 20
0.0
 30
0.0
  9
$UCSXDIR
 10
1.0
 20
0.0
 30
0.0
  9
$UCSYDIR
 10
0.0
 20
1.0
 30
0.0
  9
$UCSORTHOREF
  2

  9
$UCSORTHOVIEW
 70
     0
  9
$UCSORGTOP
 10
0.0
 20
0.0
 30
0.0
  9
$UCSORGBOTTOM
 10
0.0
 20
0.0
 30
0.0
  9
$UCSORGLEFT
 10
0.0
 20
0.0
 30
0.0
  9
$UCSORGRIGHT
 10
0.0
 20
0.0
 30
0.0
  9
$UCSORGFRONT
 10
0.0
 20
0.0
 30
0.0
  9
$UCSORGBACK
 10
0.0
 20
0.0
 30
0.0
  9
$PUCSBASE
  2

  9
$PUCSNAME
  2

  9
$PUCSORG
 10
0.0
 20
0.0
 30
0.0
  9
$PUCSXDIR
 10
1.0
 20
0.0
 30
0.0
  9
$PUCSYDIR
 10
0.0
 20
1.0
 30
0.0
  9
$PUCSORTHOREF
  2

  9
$PUCSORTHOVIEW
 70
     0
  9
$PUCSORGTOP
 10
0.0
 20
0.0
 30
0.0
  9
$PUCSORGBOTTOM
 10
0.0
 20
0.0
 30
0.0
  9
$PUCSORGLEFT
 10
0.0
 20
0.0
 30
0.0
  9
$PUCSORGRIGHT
 10
0.0
 20
0.0
 30
0.0
  9
$PUCSORGFRONT
 10
0.0
 20
0.0
 30
0.0
  9
$PUCSORGBACK
 10
0.0
 20
0.0
 30
0.0
  9
$USERI1
 70
     0
  9
$USERI2
 70
     0
  9
$USERI3
 70
     0
  9
$USERI4
 70
     0
  9
$USERI5
 70
     0
  9
$USERR1
 40
0.0
  9
$USERR2
 40
0.0
  9
$USERR3
 40
0.0
  9
$USERR4
 40
0.0
  9
$USERR5
 40
0.0
  9
$WORLDVIEW
 70
     1
  9
$SHADEDGE
 70
     3
  9
$SHADEDIF
 70
    70
  9
$TILEMODE
 70
     1
  9
$MAXACTVP
 70
    64
  9
$PINSBASE
 10
0.0
 20
0.0
 30
0.0
  9
$PLIMCHECK
 70
     0
  9
$PEXTMIN
 10
1.000000000000000E+20
 20
1.000000000000000E+20
 30
1.000000000000000E+20
  9
$PEXTMAX
 10
-1.000000000000000E+20
 20
-1.000000000000000E+20
 30
-1.000000000000000E+20
  9
$PLIMMIN
 10
0.0
 20
0.0
  9
$PLIMMAX
 10
12.0
 20
9.0
  9
$UNITMODE
 70
     0
  9
$VISRETAIN
 70
     1
  9
$PLINEGEN
 70
     0
  9
$PSLTSCALE
 70
     1
  9
$TREEDEPTH
 70
  3020
  9
$CMLSTYLE
  2
Standard
  9
$CMLJUST
 70
     0
  9
$CMLSCALE
 40
1.0
  9
$PROXYGRAPHICS
 70
     1
  9
$MEASUREMENT
 70
     0
  9
$CELWEIGHT
370
    -1
  9
$ENDCAPS
280
     0
  9
$JOINSTYLE
280
     0
  9
$LWDISPLAY
290
     0
  9
$INSUNITS
 70
     4
  9
$HYPERLINKBASE
  1

  9
$STYLESHEET
  1

  9
$XEDIT
290
     1
  9
$CEPSNTYPE
380
     0
  9
$PSTYLEMODE
290
     1
  9
$FINGERPRINTGUID
  2
{3F144C62-B65E-4596-BAA7-C647130A3F5D}
  9
$VERSIONGUID
  2
{D33CAB47-D242-4661-9A06-20044D14C3F8}
  9
$EXTNAMES
290
     1
  9
$PSVPSCALE
 40
0.0
  9
$OLESTARTUP
290
     0
  9
$SORTENTS
280
   127
  9
$INDEXCTL
280
     0
  9
$HIDETEXT
280
     1
  9
$XCLIPFRAME
280
     0
  9
$HALOGAP
280
     0
  9
$OBSCOLOR
 70
   257
  9
$OBSLTYPE
280
     0
  9
$INTERSECTIONDISPLAY
280
     0
  9
$INTERSECTIONCOLOR
 70
   257
  9
$DIMASSOC
280
     2
  9
$PROJECTNAME
  1

  9
$CAMERADISPLAY
290
     0
  9
$LENSLENGTH
 40
50.0
  9
$CAMERAHEIGHT
 40
0.0
  9
$STEPSPERSEC
 40
2.0
  9
$STEPSIZE
 40
6.0
  9
$3DDWFPREC
 40
2.0
  9
$PSOLWIDTH
 40
0.25
  9
$PSOLHEIGHT
 40
4.0
  9
$LOFTANG1
 40
1.570796326794896
  9
$LOFTANG2
 40
1.570796326794896
  9
$LOFTMAG1
 40
0.0
  9
$LOFTMAG2
 40
0.0
  9
$LOFTPARAM
 70
     7
  9
$LOFTNORMALS
280
     1
  9
$LATITUDE
 40
37.795
  9
$LONGITUDE
 40
-122.394
  9
$NORTHDIRECTION
 40
0.0
  9
$TIMEZONE
 70
 -8000
  9
$LIGHTGLYPHDISPLAY
280
     1
  9
$TILEMODELIGHTSYNCH
280
     1
  9
$CMATERIAL
347
44
  9
$SOLIDHIST
280
     0
  9
$SHOWHIST
280
     1
  9
$DWFFRAME
280
     2
  9
$DGNFRAME
280
     0
  9
$REALWORLDSCALE
290
     1
  9
$INTERFERECOLOR
 62
     1
  9
$INTERFEREOBJVS
345
33
  9
$INTERFEREVPVS
346
30
  9
$CSHADOW
280
     0
  9
$SHADOWPLANELOCATION
 40
0.0
  0
ENDSEC
  0
SECTION
  2
CLASSES
  0
CLASS
  1
ACDBDICTIONARYWDFLT
  2
AcDbDictionaryWithDefault
  3
ObjectDBX Classes
 90
        0
 91
        1
280
     0
281
     0
  0
CLASS
  1
VISUALSTYLE
  2
AcDbVisualStyle
  3
ObjectDBX Classes
 90
     4095
 91
       24
280
     0
281
     0
  0
CLASS
  1
MATERIAL
  2
AcDbMaterial
  3
ObjectDBX Classes
 90
     1153
 91
        3
280
     0
281
     0
  0
CLASS
  1
SCALE
  2
AcDbScale
  3
ObjectDBX Classes
 90
     1153
 91
       33
280
     0
281
     0
  0
CLASS
  1
SUN
  2
AcDbSun
  3
SCENEOE
 90
     1153
 91
        1
280
     0
281
     0
  0
CLASS
  1
SURFACE
  2
AcDbSurface
  3
ObjectDBX Classes
 90
     4095
 91
        0
280
     0
281
     1
  0
CLASS
  1
DICTIONARYVAR
  2
AcDbDictionaryVar
  3
ObjectDBX Classes
 90
        0
 91
        9
280
     0
281
     0
  0
CLASS
  1
TABLESTYLE
  2
AcDbTableStyle
  3
ObjectDBX Classes
 90
     4095
 91
        1
280
     0
281
     0
  0
CLASS
  1
MLEADERSTYLE
  2
AcDbMLeaderStyle
  3
ACDB_MLEADERSTYLE_CLASS
 90
     4095
 91
        1
280
     0
281
     0
  0
CLASS
  1
ACDBSECTIONVIEWSTYLE
  2
AcDbSectionViewStyle
  3
ObjectDBX Classes
 90
     1025
 91
        1
280
     0
281
     0
  0
CLASS
  1
ACDBDETAILVIEWSTYLE
  2
AcDbDetailViewStyle
  3
ObjectDBX Classes
 90
     1025
 91
        1
280
     0
281
     0
  0
CLASS
  1
SORTENTSTABLE
  2
AcDbSortentsTable
  3
ObjectDBX Classes
 90
        0
 91
        0
280
     0
281
     0
  0
CLASS
  1
CELLSTYLEMAP
  2
AcDbCellStyleMap
  3
ObjectDBX Classes
 90
     1152
 91
        1
280
     0
281
     0
  0
ENDSEC
  0
SECTION
  2
TABLES
  0
TABLE
  2
VPORT
  5
8
102
{ACAD_XDICTIONARY
360
3B0
102
}
330
0
100
AcDbSymbolTable
 70
     1
  0
VPORT
  5
29
330
8
100
AcDbSymbolTableRecord
100
AcDbViewportTableRecord
  2
*Active
 70
     0
 10
0.0
 20
0.0
 11
1.0
 21
1.0
 12
312.7904755251484
 22
36.25088161289568
 13
0.0
 23
0.0
 14
0.5
 24
0.5
 15
0.5
 25
0.5
 16
0.0
 26
0.0
 36
1.0
 17
0.0
 27
0.0
 37
0.0
 40
4976.486231871565
 41
2.472938144329897
 42
50.0
 43
0.0
 44
0.0
 50
0.0
 51
0.0
 71
     0
 72
   100
 73
     1
 74
     3
 75
     0
 76
     0
 77
     0
 78
     0
281
     0
 65
     1
110
0.0
120
0.0
130
0.0
111
1.0
121
0.0
131
0.0
112
0.0
122
1.0
132
0.0
 79
     0
146
0.0
348
2F
 60
     3
 61
     5
292
     1
282
     1
141
0.0
142
0.0
 63
   250
421
  3355443
361
69
1001
ACAD_NAV_VCDISPLAY
1070
     3
  0
ENDTAB
  0
TABLE
  2
LTYPE
  5
5
330
0
100
AcDbSymbolTable
 70
     1
  0
LTYPE
  5
14
330
5
100
AcDbSymbolTableRecord
100
AcDbLinetypeTableRecord
  2
ByBlock
 70
     0
  3

 72
    65
 73
     0
 40
0.0
  0
LTYPE
  5
15
330
5
100
AcDbSymbolTableRecord
100
AcDbLinetypeTableRecord
  2
ByLayer
 70
     0
  3

 72
    65
 73
     0
 40
0.0
  0
LTYPE
  5
16
330
5
100
AcDbSymbolTableRecord
100
AcDbLinetypeTableRecord
  2
Continuous
 70
     0
  3
Solid line
 72
    65
 73
     0
 40
0.0
  0
ENDTAB
  0
TABLE
  2
LAYER
  5
2
102
{ACAD_XDICTIONARY
360
40C
102
}
330
0
100
AcDbSymbolTable
 70
     4
  0
LAYER
  5
10
102
{ACAD_XDICTIONARY
360
3F9
102
}
330
2
100
AcDbSymbolTableRecord
100
AcDbLayerTableRecord
  2
0
 70
     0
 62
     7
  6
Continuous
370
    -3
390
F
347
46
348
0
  0
LAYER
  5
40A
102
{ACAD_XDICTIONARY
360
40B
102
}
330
2
100
AcDbSymbolTableRecord
100
AcDbLayerTableRecord
  2
Default
 70
     0
 62
     7
  6
Continuous
370
    -3
390
F
347
46
348
0
  0
ENDTAB
  0
TABLE
  2
STYLE
  5
3
330
0
100
AcDbSymbolTable
 70
     1
  0
STYLE
  5
11
330
3
100
AcDbSymbolTableRecord
100
AcDbTextStyleTableRecord
  2
Standard
 70
     0
 40
0.0
 41
1.0
 50
0.0
 71
     0
 42
0.2
  3
txt
  4

  0
ENDTAB
  0
TABLE
  2
VIEW
  5
6
330
0
100
AcDbSymbolTable
 70
     1
  0
ENDTAB
  0
TABLE
  2
UCS
  5
7
330
0
100
AcDbSymbolTable
 70
     0
  0
ENDTAB
  0
TABLE
  2
APPID
  5
9
330
0
100
AcDbSymbolTable
 70
     4
  0
APPID
  5
12
330
9
100
AcDbSymbolTableRecord
100
AcDbRegAppTableRecord
  2
ACAD
 70
     0
  0
APPID
  5
3AD
330
9
100
AcDbSymbolTableRecord
100
AcDbRegAppTableRecord
  2
ACAD_OBJECT_CHANGE_GUID
 70
     0
  0
APPID
  5
3FD
330
9
100
AcDbSymbolTableRecord
100
AcDbRegAppTableRecord
  2
ACAD_NAV_VCDISPLAY
 70
     0
  0
APPID
  5
5C5
330
9
100
AcDbSymbolTableRecord
100
AcDbRegAppTableRecord
  2
ACAD_EXEMPT_FROM_CAD_STANDARDS
 70
     0
  0
ENDTAB
  0
TABLE
  2
DIMSTYLE
  5
A
330
0
100
AcDbSymbolTable
 70
     1
100
AcDbDimStyleTable
 71
     1
340
27
  0
DIMSTYLE
105
27
330
A
100
AcDbSymbolTableRecord
100
AcDbDimStyleTableRecord
  2
Standard
 70
     0
340
11
  0
ENDTAB
  0
TABLE
  2
BLOCK_RECORD
  5
1
330
0
100
AcDbSymbolTable
 70
     1
  0
BLOCK_RECORD
  5
1F
330
1
100
AcDbSymbolTableRecord
100
AcDbBlockTableRecord
  2
*Model_Space
340
22
 70
     0
280
     1
281
     0
  0
BLOCK_RECORD
  5
1B
330
1
100
AcDbSymbolTableRecord
100
AcDbBlockTableRecord
  2
*Paper_Space
340
1E
 70
     0
280
     1
281
     0
  0
BLOCK_RECORD
  5
23
330
1
100
AcDbSymbolTableRecord
100
AcDbBlockTableRecord
  2
*Paper_Space0
340
26
 70
     0
280
     1
281
     0
  0
ENDTAB
  0
ENDSEC
  0
SECTION
  2
BLOCKS
  0
BLOCK
  5
20
330
1F
100
AcDbEntity
  8
0
100
AcDbBlockBegin
  2
*Model_Space
 70
     0
 10
0.0
 20
0.0
 30
0.0
  3
*Model_Space
  1

  0
ENDBLK
  5
21
330
1F
100
AcDbEntity
  8
0
100
AcDbBlockEnd
  0
BLOCK
  5
1C
330
1B
100
AcDbEntity
 67
     1
  8
0
100
AcDbBlockBegin
  2
*Paper_Space
 70
     0
 10
0.0
 20
0.0
 30
0.0
  3
*Paper_Space
  1

  0
ENDBLK
  5
1D
330
1B
100
AcDbEntity
 67
     1
  8
0
100
AcDbBlockEnd
  0
BLOCK
  5
24
330
23
100
AcDbEntity
 67
     1
  8
0
100
AcDbBlockBegin
  2
*Paper_Space0
 70
     0
 10
0.0
 20
0.0
 30
0.0
  3
*Paper_Space0
  1

  0
ENDBLK
  5
25
330
23
100
AcDbEntity
 67
     1
  8
0
100
AcDbBlockEnd
  0
ENDSEC
  0
SECTION
  2
ENTITIES
  0
LWPOLYLINE
  5
607
330
1F
100
AcDbEntity
  8
Default
100
AcDbPolyline
 90
        8
 70
     1
 43
0.0
 10
-457.0
 20
-422.0
 10
-457.0
 20
422.0
 42
-0.4142135623730951
 10
-422.0
 20
457.0
 10
422.0
 20
457.0
 42
-0.4142135623730951
 10
457.0
 20
422.0
 10
457.0
 20
-422.0
 42
-0.4142135623730951
 10
422.0
 20
-457.0
 10
-422.0
 20
-457.0
 42
-0.4142135623730951
  0
SPLINE
  5
64F
330
1F
100
AcDbEntity
  8
Default
100
AcDbSpline
210
0.0
220
0.0
230
1.0
 70
     8
 71
     3
 72
    12
 73
     8
 74
     0
 42
0.000000001
 43
0.0000000001
 40
0.0
 40
0.0
 40
0.0
 40
0.0
 40
0.1510110321465192
 40
0.3037660471064116
 40
0.5900965017365678
 40
0.8249401141264362
 40
1.014583801502342
 40
1.014583801502342
 40
1.014583801502342
 40
1.014583801502342
 10
-10.20658430854746
 20
767.1702537887926
 30
0.0
 10
-10.33145635648907
 20
765.8971997835638
 30
0.0
 10
-10.42873273019722
 20
763.3241834856112
 30
0.0
 10
-9.991550871422077
 20
758.3344088829931
 30
0.0
 10
-8.456061524022516
 20
752.7935697053385
 30
0.0
 10
-5.03346669473467
 20
747.6918586881679
 30
0.0
 10
-1.634508891849691
 20
746.047347722028
 30
0.0
 10
-0.0000000126274244
 20
746.0791861061247
 30
0.0
  0
SPLINE
  5
650
330
1F
100
AcDbEntity
  8
Default
100
AcDbSpline
210
0.0
220
0.0
230
1.0
 70
     8
 71
     3
 72
    12
 73
     8
 74
     0
 42
0.000000001
 43
0.0000000001
 40
-1.014583801502342
 40
-1.014583801502342
 40
-1.014583801502342
 40
-1.014583801502342
 40
-0.8249401141264362
 40
-0.5900965017365678
 40
-0.3037660471064116
 40
-0.1510110321465192
 40
0.0
 40
0.0
 40
0.0
 40
0.0
 10
-0.0000000126274244
 20
746.0791861061247
 30
0.0
 10
1.634508866587566
 20
746.047347722028
 30
0.0
 10
5.033466669479821
 20
747.6918586881679
 30
0.0
 10
8.456061498767667
 20
752.7935697053385
 30
0.0
 10
9.991550846167228
 20
758.3344088829931
 30
0.0
 10
10.42873270494237
 20
763.3241834856112
 30
0.0
 10
10.33145633123422
 20
765.8971997835638
 30
0.0
 10
10.20658428329261
 20
767.1702537887926
 30
0.0
  0
SPLINE
  5
651
330
1F
100
AcDbEntity
  8
Default
100
AcDbSpline
210
0.0
220
0.0
230
1.0
 70
    12
 71
     2
 72
     6
 73
     3
 74
     0
 42
0.000000001
 43
0.0000000001
 40
0.0
 40
0.0
 40
0.0
 40
0.1369528492222414
 40
0.1369528492222414
 40
0.1369528492222414
 10
-9.337313909429212
 20
776.8059143253144
 30
0.0
 41
1.0
 10
-9.301003704731556
 20
775.0670220634369
 30
0.0
 41
0.9999966913238282
 10
-9.320096044426463
 20
773.3271414846845
 30
0.0
 41
0.9999959461296658
  0
ARC
  5
652
330
1F
100
AcDbEntity
  8
Default
100
AcDbCircle
 10
-22.01837870641975
 20
773.1182936067839
 30
0.0
 40
12.7
100
AcDbArc
 50
348.4871521735322
 51
0.9422552251407955
  0
SPLINE
  5
653
330
1F
100
AcDbEntity
  8
Default
100
AcDbSpline
210
0.0
220
0.0
230
1.0
 70
     8
 71
     3
 72
    14
 73
    10
 74
     0
 42
0.000000001
 43
0.0000000001
 40
0.2772630823298201
 40
0.2772630823298201
 40
0.2772630823298201
 40
0.2772630823298201
 40
1.0
 40
2.0
 40
3.0
 40
4.0
 40
5.0
 40
6.0
 40
7.0
 40
7.0
 40
7.0
 40
7.0
 10
-9.573903032269299
 20
770.5835302656655
 30
0.0
 10
-9.77957349564167
 20
769.5737866589284
 30
0.0
 10
-10.16225596263757
 20
767.1448918974988
 30
0.0
 10
-10.28268673841739
 20
763.2547661562116
 30
0.0
 10
-9.825121139507245
 20
758.9932477884708
 30
0.0
 10
-8.770275292994483
 20
754.8341045856818
 30
0.0
 10
-6.97987058889339
 20
750.9258691985474
 30
0.0
 10
-4.183200849216518
 20
747.5994981762765
 30
0.0
 10
-1.439760939905681
 20
746.4509050075089
 30
0.0
 10
0.0000125999977172
 20
746.4637956524625
 30
0.0
  0
SPLINE
  5
654
330
1F
100
AcDbEntity
  8
Default
100
AcDbSpline
210
0.0
220
0.0
230
1.0
 70
     8
 71
     3
 72
    14
 73
    10
 74
     0
 42
0.000000001
 43
0.0000000001
 40
-7.0
 40
-7.0
 40
-7.0
 40
-7.0
 40
-6.0
 40
-5.0
 40
-4.0
 40
-3.0
 40
-2.0
 40
-1.0
 40
-0.2482205602640466
 40
-0.2482205602640466
 40
-0.2482205602640466
 40
-0.2482205602640466
 10
0.0000125999977172
 20
746.4637956524625
 30
0.0
 10
1.439786139901116
 20
746.4509050075089
 30
0.0
 10
4.183226049219229
 20
747.5994981762765
 30
0.0
 10
6.979895788888825
 20
750.9258691985474
 30
0.0
 10
8.770300492989917
 20
754.8341045856818
 30
0.0
 10
9.82514633950268
 20
758.9932477884708
 30
0.0
 10
10.28271193841283
 20
763.2547661562116
 30
0.0
 10
10.16099656791266
 20
767.1863865648506
 30
0.0
 10
9.766608792884653
 20
769.6556718021152
 30
0.0
 10
9.548916171010205
 20
770.7052121139736
 30
0.0
  0
ARC
  5
655
330
1F
100
AcDbEntity
  8
Default
100
AcDbCircle
 10
21.9842376129127
 20
773.284510591579
 30
0.0
 40
12.7
100
AcDbArc
 50
178.9775798079509
 51
191.7179678781598
  0
SPLINE
  5
656
330
1F
100
AcDbEntity
  8
Default
100
AcDbSpline
210
0.0
220
0.0
230
1.0
 70
    12
 71
     2
 72
     6
 73
     3
 74
     0
 42
0.000000001
 43
0.0000000001
 40
-0.1297405451143296
 40
-0.1297405451143296
 40
-0.1297405451143296
 40
0.0
 40
0.0
 40
0.0
 10
9.28625958786506
 20
773.5111249677052
 30
0.0
 41
0.9999960316975588
 10
9.315660669013595
 20
775.1585680321463
 30
0.0
 41
0.999996865512317
 10
9.350059281528956
 20
776.8059143253144
 30
0.0
 41
1.0
  0
SPLINE
  5
657
330
1F
100
AcDbEntity
  8
Default
100
AcDbSpline
210
0.0
220
0.0
230
1.0
 70
    12
 71
     2
 72
     6
 73
     3
 74
     0
 42
0.000000001
 43
0.0000000001
 40
0.0
 40
0.0
 40
0.0
 40
0.0853474550214741
 40
0.0853474550214741
 40
0.0853474550214741
 10
10.28178461606512
 20
766.280074682802
 30
0.0
 41
1.0
 10
10.3576640163119
 20
765.1983842254144
 30
0.0
 41
0.9993970637774639
 10
10.35829222268148
 20
764.1140357877179
 30
0.0
 41
1.0
  0
SPLINE
  5
658
330
1F
100
AcDbEntity
  8
Default
100
AcDbSpline
210
0.0
220
0.0
230
1.0
 70
    12
 71
     2
 72
     6
 73
     3
 74
     0
 42
0.000000001
 43
0.0000000001
 40
0.0
 40
0.0
 40
0.0
 40
0.0853474550214741
 40
0.0853474550214741
 40
0.0853474550214741
 10
351.8926805414121
 20
1128.454540157304
 30
0.0
 41
1.0
 10
352.9743709987997
 20
1128.530419557558
 30
0.0
 41
0.9993970637774639
 10
354.0587194364962
 20
1128.531047763916
 30
0.0
 41
1.0
  0
SPLINE
  5
659
330
1F
100
AcDbEntity
  8
Default
100
AcDbSpline
210
0.0
220
0.0
230
1.0
 70
     8
 71
     3
 72
    12
 73
     8
 74
     0
 42
0.000000001
 43
0.0000000001
 40
0.0
 40
0.0
 40
0.0
 40
0.0
 40
0.1510110321465192
 40
0.3037660471064116
 40
0.5900965017365678
 40
0.8249401141264362
 40
1.014583801502342
 40
1.014583801502342
 40
1.014583801502342
 40
1.014583801502342
 10
351.0025014354214
 20
1107.966171232698
 30
0.0
 10
352.2755554406503
 20
1107.841299184757
 30
0.0
 10
354.8485717386029
 20
1107.744022811045
 30
0.0
 10
359.838346341221
 20
1108.181204669813
 30
0.0
 10
365.3791855188793
 20
1109.71669401722
 30
0.0
 10
370.4808965360462
 20
1113.139288846504
 30
0.0
 10
372.1254075021898
 20
1116.538246649396
 30
0.0
 10
372.0935691180894
 20
1118.172755528615
 30
0.0
  0
SPLINE
  5
65A
330
1F
100
AcDbEntity
  8
Default
100
AcDbSpline
210
0.0
220
0.0
230
1.0
 70
     8
 71
     3
 72
    12
 73
     8
 74
     0
 42
0.000000001
 43
0.0000000001
 40
-1.014583801502342
 40
-1.014583801502342
 40
-1.014583801502342
 40
-1.014583801502342
 40
-0.8249401141264362
 40
-0.5900965017365678
 40
-0.3037660471064116
 40
-0.1510110321465192
 40
0.0
 40
0.0
 40
0.0
 40
0.0
 10
372.0935691180894
 20
1118.172755528615
 30
0.0
 10
372.1254075021898
 20
1119.807264407833
 30
0.0
 10
370.4808965360462
 20
1123.206222210725
 30
0.0
 10
365.3791855188793
 20
1126.62881704001
 30
0.0
 10
359.838346341221
 20
1128.164306387416
 30
0.0
 10
354.8485717386029
 20
1128.601488246181
 30
0.0
 10
352.2755554406503
 20
1128.504211872473
 30
0.0
 10
351.0025014354214
 20
1128.379339824531
 30
0.0
  0
SPLINE
  5
65B
330
1F
100
AcDbEntity
  8
Default
100
AcDbSpline
210
0.0
220
0.0
230
1.0
 70
    12
 71
     2
 72
     6
 73
     3
 74
     0
 42
0.000000001
 43
0.0000000001
 40
0.0
 40
0.0
 40
0.0
 40
0.1369528492222414
 40
0.1369528492222414
 40
0.1369528492222414
 10
341.3668408988997
 20
1108.835441631813
 30
0.0
 41
1.0
 10
343.1057331607771
 20
1108.871751836514
 30
0.0
 41
0.9999966913238282
 10
344.8456137395297
 20
1108.852659496815
 30
0.0
 41
0.9999959461296658
  0
ARC
  5
65C
330
1F
100
AcDbEntity
  8
Default
100
AcDbCircle
 10
345.0544616174338
 20
1096.154376834822
 30
0.0
 40
12.7
100
AcDbArc
 50
78.48715217353211
 51
90.94225522512777
  0
SPLINE
  5
65D
330
1F
100
AcDbEntity
  8
Default
100
AcDbSpline
210
0.0
220
0.0
230
1.0
 70
     8
 71
     3
 72
    14
 73
    10
 74
     0
 42
0.000000001
 43
0.0000000001
 40
0.2772630823298201
 40
0.2772630823298201
 40
0.2772630823298201
 40
0.2772630823298201
 40
1.0
 40
2.0
 40
3.0
 40
4.0
 40
5.0
 40
6.0
 40
7.0
 40
7.0
 40
7.0
 40
7.0
 10
347.5892249585559
 20
1108.598852508973
 30
0.0
 10
348.598968565293
 20
1108.3931820456
 30
0.0
 10
351.0278633267189
 20
1108.010499578604
 30
0.0
 10
354.9179890680061
 20
1107.890068802821
 30
0.0
 10
359.1795074357469
 20
1108.347634401738
 30
0.0
 10
363.3386506385396
 20
1109.402480248251
 30
0.0
 10
367.2468860256667
 20
1111.192884952349
 30
0.0
 10
370.5732570479413
 20
1113.989554692022
 30
0.0
 10
371.7218502167052
 20
1116.732994601333
 30
0.0
 10
371.7089595717516
 20
1118.17276814124
 30
0.0
  0
SPLINE
  5
65E
330
1F
100
AcDbEntity
  8
Default
100
AcDbSpline
210
0.0
220
0.0
230
1.0
 70
     8
 71
     3
 72
    14
 73
    10
 74
     0
 42
0.000000001
 43
0.0000000001
 40
-7.0
 40
-7.0
 40
-7.0
 40
-7.0
 40
-6.0
 40
-5.0
 40
-4.0
 40
-3.0
 40
-2.0
 40
-1.0
 40
-0.2482205602640466
 40
-0.2482205602640466
 40
-0.2482205602640466
 40
-0.2482205602640466
 10
371.7089595717516
 20
1118.17276814124
 30
0.0
 10
371.7218502167052
 20
1119.612541681147
 30
0.0
 10
370.5732570479413
 20
1122.355981590458
 30
0.0
 10
367.2468860256667
 20
1125.152651330131
 30
0.0
 10
363.3386506385396
 20
1126.943056034228
 30
0.0
 10
359.1795074357469
 20
1127.997901880745
 30
0.0
 10
354.9179890680061
 20
1128.455467479658
 30
0.0
 10
350.9863686593635
 20
1128.333752109158
 30
0.0
 10
348.5170834221026
 20
1127.939364334127
 30
0.0
 10
347.4675431102405
 20
1127.721671712252
 30
0.0
  0
ARC
  5
65F
330
1F
100
AcDbEntity
  8
Default
100
AcDbCircle
 10
344.8882446326352
 20
1140.156993154155
 30
0.0
 40
12.7
100
AcDbArc
 50
268.9775798079509
 51
281.7179678781598
  0
SPLINE
  5
660
330
1F
100
AcDbEntity
  8
Default
100
AcDbSpline
210
0.0
220
0.0
230
1.0
 70
    12
 71
     2
 72
     6
 73
     3
 74
     0
 42
0.000000001
 43
0.0000000001
 40
-0.1297405451143296
 40
-0.1297405451143296
 40
-0.1297405451143296
 40
0.0
 40
0.0
 40
0.0
 10
344.6616302565126
 20
1127.459015129111
 30
0.0
 41
0.9999960316975588
 10
343.0141871920678
 20
1127.488416210252
 30
0.0
 41
0.999996865512317
 10
341.3668408988997
 20
1127.522814822764
 30
0.0
 41
1.0
  0
SPLINE
  5
661
330
1F
100
AcDbEntity
  8
Default
100
AcDbSpline
210
0.0
220
0.0
230
1.0
 70
    12
 71
     2
 72
     6
 73
     3
 74
     0
 42
0.000000001
 43
0.0000000001
 40
0.0
 40
0.0
 40
0.0
 40
0.0587632096241838
 40
0.0587632096241838
 40
0.0587632096241838
 10
1.476650273249106
 20
746.5867614083094
 30
0.0
 41
1.0
 10
0.7502618348116812
 20
746.3990596238714
 30
0.0
 41
0.9921107855315545
 10
0.0000146183483594
 20
746.3979471690495
 30
0.0
 41
1.0
  0
SPLINE
  5
662
330
1F
100
AcDbEntity
  8
Default
100
AcDbSpline
210
0.0
220
0.0
230
1.0
 70
    24
 71
     2
 72
     6
 73
     3
 74
     0
 42
0.000000001
 43
0.0000000001
 40
0.0
 40
0.0
 40
0.0
 40
0.0114467396849787
 40
0.0114467396849787
 40
0.0114467396849787
 10
-0.0000001562984835
 20
746.3979471690313
 30
0.0
 10
-0.0000000907784852
 20
746.25257357503
 30
0.0
 10
-0.0000000252512109
 20
746.1071999810323
 30
0.0
  0
SPLINE
  5
663
330
1F
100
AcDbEntity
  8
Default
100
AcDbSpline
210
0.0
220
0.0
230
1.0
 70
    12
 71
     2
 72
     6
 73
     3
 74
     0
 42
0.000000001
 43
0.0000000001
 40
0.0
 40
0.0
 40
0.0
 40
0.0586712320260919
 40
0.0586712320260919
 40
0.0586712320260919
 10
-0.0000001562984835
 20
746.3979471690313
 30
0.0
 41
1.0
 10
-0.7490612086148758
 20
746.3990515915416
 30
0.0
 41
0.9921343149382712
 10
-1.474373111235763
 20
746.5861780828332
 30
0.0
 41
1.0
  0
CIRCLE
  5
664
330
1F
100
AcDbEntity
  8
Default
100
AcDbCircle
 10
-423.4498965104394
 20
1102.275514025254
 30
0.0
 40
200.0249999999998
  0
SPLINE
  5
665
330
1F
100
AcDbEntity
  8
Default
100
AcDbSpline
210
0.0
220
0.0
230
1.0
 70
     8
 71
     3
 72
    22
 73
    18
 74
     0
 42
0.000000001
 43
0.0000000001
 40
0.0
 40
0.0
 40
0.0
 40
0.0
 40
0.2588469591229587
 40
0.6477254461891114
 40
1.024641027840087
 40
1.817983982162573
 40
2.582167143679937
 40
4.062052734317923
 40
7.850412104674
 40
9.497260537102542
 40
10.543391206404
 40
10.8432833113025
 40
12.15829953678302
 40
13.34949093133962
 40
14.77372714428499
 40
17.25709974516987
 40
21.82793658798906
 40
21.82793658798906
 40
21.82793658798906
 40
21.82793658798906
 10
196.5619435181543
 20
1454.76303202797
 30
0.0
 10
196.3586352096281
 20
1452.565249034209
 30
0.0
 10
197.3424643875951
 20
1447.118043045424
 30
0.0
 10
200.5051008589762
 20
1439.027048972339
 30
0.0
 10
206.2026741861518
 20
1427.11445865323
 30
0.0
 10
214.0253364454293
 20
1412.720074309253
 30
0.0
 10
225.2884062581034
 20
1389.595977256047
 30
0.0
 10
246.9121420126648
 20
1343.322879047259
 30
0.0
 10
269.2397545605599
 20
1289.1706360267
 30
0.0
 10
289.047531174936
 20
1238.005092278576
 30
0.0
 10
297.9405658523574
 20
1214.275559658758
 30
0.0
 10
305.5958809100666
 20
1193.073019523601
 30
0.0
 10
310.1301611390991
 20
1169.618238708712
 30
0.0
 10
311.8788726342864
 20
1136.382355958105
 30
0.0
 10
311.4186766518069
 20
1093.170928070091
 30
0.0
 10
302.2861164157112
 20
1021.766933788355
 30
0.0
 10
279.5854479773734
 20
965.454482100859
 30
0.0
 10
257.5850009821188
 20
933.5103095587751
 30
0.0
  0
SPLINE
  5
666
330
1F
100
AcDbEntity
  8
Default
100
AcDbSpline
210
0.0
220
0.0
230
1.0
 70
     8
 71
     3
 72
    19
 73
    15
 74
     0
 42
0.000000001
 43
0.0000000001
 40
-12.0
 40
-12.0
 40
-12.0
 40
-12.0
 40
-11.0
 40
-10.0
 40
-9.0
 40
-8.0
 40
-7.0
 40
-6.0
 40
-5.0
 40
-4.0
 40
-3.0
 40
-2.0
 40
-1.0
 40
0.0
 40
0.0
 40
0.0
 40
0.0
 10
223.1952048337516
 20
1498.49918406876
 30
0.0
 10
220.0001540133489
 20
1503.862904258624
 30
0.0
 10
207.1784696499781
 20
1507.930466991626
 30
0.0
 10
189.0630576357543
 20
1512.51695128509
 30
0.0
 10
170.2782084792961
 20
1515.922512555122
 30
0.0
 10
151.5575181608401
 20
1519.012456764549
 30
0.0
 10
132.7198968481643
 20
1521.540721793348
 30
0.0
 10
113.8376903750577
 20
1523.625972224198
 30
0.0
 10
94.91096381463648
 20
1525.285884720486
 30
0.0
 10
75.95552832035536
 20
1526.563752698307
 30
0.0
 10
56.97984225891923
 20
1527.494395711487
 30
0.0
 10
37.99164486839072
 20
1528.11381287383
 30
0.0
 10
18.99658888695194
 20
1528.457811230865
 30
0.0
 10
6.331394626486144
 20
1528.527413982387
 30
0.0
 10
-0.001176932008093
 20
1528.52823151558
 30
0.0
  0
SPLINE
  5
667
330
1F
100
AcDbEntity
  8
Default
100
AcDbSpline
210
0.0
220
0.0
230
1.0
 70
     8
 71
     3
 72
    19
 73
    15
 74
     0
 42
0.000000001
 43
0.0000000001
 40
0.0
 40
0.0
 40
0.0
 40
0.0
 40
1.0
 40
2.0
 40
3.0
 40
4.0
 40
5.0
 40
6.0
 40
7.0
 40
8.0
 40
9.0
 40
10.0
 40
11.0
 40
12.0
 40
12.0
 40
12.0
 40
12.0
 10
-0.001176932008093
 20
1528.52823151558
 30
0.0
 10
-6.333748490509606
 20
1528.527413982387
 30
0.0
 10
-18.99894275096812
 20
1528.457811230865
 30
0.0
 10
-37.99399873241418
 20
1528.11381287383
 30
0.0
 10
-56.9821961229427
 20
1527.494395711487
 30
0.0
 10
-75.95788218437883
 20
1526.563752698307
 30
0.0
 10
-94.91331767866723
 20
1525.285884720486
 30
0.0
 10
-113.8400442390812
 20
1523.625972224198
 30
0.0
 10
-132.7222507121951
 20
1521.540721793348
 30
0.0
 10
-151.5598720248563
 20
1519.012456764549
 30
0.0
 10
-170.2805623433269
 20
1515.922512555122
 30
0.0
 10
-189.0654114997778
 20
1512.51695128509
 30
0.0
 10
-207.1808235140015
 20
1507.930466991626
 30
0.0
 10
-220.0025078773797
 20
1503.862904258624
 30
0.0
 10
-223.1975586977751
 20
1498.49918406876
 30
0.0
  0
SPLINE
  5
668
330
1F
100
AcDbEntity
  8
Default
100
AcDbSpline
210
0.0
220
0.0
230
1.0
 70
    12
 71
     2
 72
     6
 73
     3
 74
     0
 42
0.000000001
 43
0.0000000001
 40
-0.443505275079806
 40
-0.443505275079806
 40
-0.443505275079806
 40
0.0
 40
0.0
 40
0.0
 10
-218.0055189606683
 20
1488.583649772505
 30
0.0
 41
1.0
 10
-221.6079923430116
 20
1493.012672520237
 30
0.0
 41
0.9799943751373794
 10
-223.2334798237025
 20
1498.638779451523
 30
0.0
 41
1.0
  0
SPLINE
  5
669
330
1F
100
AcDbEntity
  8
Default
100
AcDbSpline
210
0.0
220
0.0
230
1.0
 70
     8
 71
     3
 72
    12
 73
     8
 74
     0
 42
0.000000001
 43
0.0000000001
 40
-3.111933853859593
 40
-3.111933853859593
 40
-3.111933853859593
 40
-3.111933853859593
 40
-2.689379093202719
 40
-2.191051374651839
 40
-1.391396900347014
 40
-0.8495487423131249
 40
0.0
 40
0.0
 40
0.0
 40
0.0
 10
-223.2334798237025
 20
1498.638779451523
 30
0.0
 10
-224.3447509345824
 20
1502.155710878719
 30
0.0
 10
-222.4219163237322
 20
1510.753327332359
 30
0.0
 10
-209.5828077653459
 20
1518.496393202843
 30
0.0
 10
-194.5825160422064
 20
1522.549620264823
 30
0.0
 10
-176.374157279406
 20
1526.395578551796
 30
0.0
 10
-164.7811555751796
 20
1528.172508977541
 30
0.0
 10
-157.6749437665312
 20
1529.444531912958
 30
0.0
  0
SPLINE
  5
66A
330
1F
100
AcDbEntity
  8
Default
100
AcDbSpline
210
0.0
220
0.0
230
1.0
 70
    12
 71
     2
 72
     6
 73
     3
 74
     0
 42
0.000000001
 43
0.0000000001
 40
0.0
 40
0.0
 40
0.0
 40
6.233889429224446
 40
6.233889429224446
 40
6.233889429224446
 10
-157.6749437665312
 20
1529.444531912958
 30
0.0
 41
0.9999999519924591
 10
-79.34439478554486
 20
1542.078852155961
 30
0.0
 41
0.9967303545933507
 10
-0.001176932008093
 20
1541.931468622896
 30
0.0
 41
1.0
  0
SPLINE
  5
66B
330
1F
100
AcDbEntity
  8
Default
100
AcDbSpline
210
0.0
220
0.0
230
1.0
 70
    12
 71
     2
 72
     6
 73
     3
 74
     0
 42
0.000000001
 43
0.0000000001
 40
-6.233889429224446
 40
-6.233889429224446
 40
-6.233889429224446
 40
0.0
 40
0.0
 40
0.0
 10
-0.001176932008093
 20
1541.931468622896
 30
0.0
 41
1.0
 10
79.34262532368666
 20
1542.078853241519
 30
0.0
 41
0.996730330589404
 10
157.6737666760054
 20
1529.444531912958
 30
0.0
 41
1.0
  0
SPLINE
  5
66C
330
1F
100
AcDbEntity
  8
Default
100
AcDbSpline
210
0.0
220
0.0
230
1.0
 70
     8
 71
     3
 72
    12
 73
     8
 74
     0
 42
0.000000001
 43
0.0000000001
 40
0.0
 40
0.0
 40
0.0
 40
0.0
 40
0.8495817757806477
 40
1.391422022197968
 40
2.191064820612614
 40
2.689385262996221
 40
3.111933853859593
 40
3.111933853859593
 40
3.111933853859593
 40
3.111933853859593
 10
157.6737666760054
 20
1529.444531912958
 30
0.0
 10
164.7803980780263
 20
1528.172625034464
 30
0.0
 10
176.3737793531727
 20
1526.395658310174
 30
0.0
 10
194.5825157251784
 20
1522.549620264823
 30
0.0
 10
209.5828074483179
 20
1518.496393202843
 30
0.0
 10
222.4219160067041
 20
1510.753327332359
 30
0.0
 10
224.3447506175544
 20
1502.155710878719
 30
0.0
 10
223.2334795066745
 20
1498.638779451523
 30
0.0
  0
SPLINE
  5
66D
330
1F
100
AcDbEntity
  8
Default
100
AcDbSpline
210
0.0
220
0.0
230
1.0
 70
    12
 71
     2
 72
     6
 73
     3
 74
     0
 42
0.000000001
 43
0.0000000001
 40
0.0
 40
0.0
 40
0.0
 40
0.443505275079806
 40
0.443505275079806
 40
0.443505275079806
 10
223.2334795066745
 20
1498.638779451523
 30
0.0
 41
1.0
 10
221.6079920259836
 20
1493.012672520237
 30
0.0
 41
0.9799943751373794
 10
218.0055186436403
 20
1488.583649772505
 30
0.0
 41
1.0
  0
SPLINE
  5
66E
330
1F
100
AcDbEntity
  8
Default
100
AcDbSpline
210
0.0
220
0.0
230
1.0
 70
    12
 71
     2
 72
     6
 73
     3
 74
     0
 42
0.000000001
 43
0.0000000001
 40
-5.654573080352872
 40
-5.654573080352872
 40
-5.654573080352872
 40
0.0
 40
0.0
 40
0.0
 10
142.9817446030392
 20
1531.812651941875
 30
0.0
 41
1.0
 10
71.96746714675464
 20
1543.491985743682
 30
0.0
 41
0.9967681786255456
 10
-0.001176932008093
 20
1543.648045152762
 30
0.0
 41
1.0
  0
SPLINE
  5
66F
330
1F
100
AcDbEntity
  8
Default
100
AcDbSpline
210
0.0
220
0.0
230
1.0
 70
    12
 71
     2
 72
     6
 73
     3
 74
     0
 42
0.000000001
 43
0.0000000001
 40
0.0
 40
0.0
 40
0.0
 40
5.654573080352872
 40
5.654573080352872
 40
5.654573080352872
 10
-0.001176932008093
 20
1543.648045152762
 30
0.0
 41
1.0
 10
-71.96982101078538
 20
1543.491985743682
 30
0.0
 41
0.9967681786255456
 10
-142.9840984670627
 20
1531.812651941875
 30
0.0
 41
1.0
  0
SPLINE
  5
670
330
1F
100
AcDbEntity
  8
Default
100
AcDbSpline
210
0.0
220
0.0
230
1.0
 70
    12
 71
     2
 72
     6
 73
     3
 74
     0
 42
0.000000001
 43
0.0000000001
 40
-1.102413928352738
 40
-1.102413928352738
 40
-1.102413928352738
 40
0.0
 40
0.0
 40
0.0
 10
311.6269915457342
 20
1127.861478759851
 30
0.0
 41
0.9999999993925147
 10
325.6358404694875
 20
1127.706246510572
 30
0.0
 41
0.9999999996616539
 10
339.6457224670412
 20
1127.551174745129
 30
0.0
 41
1.0
  0
SPLINE
  5
671
330
1F
100
AcDbEntity
  8
Default
100
AcDbSpline
210
0.0
220
0.0
230
1.0
 70
     8
 71
     3
 72
    14
 73
    10
 74
     0
 42
0.000000001
 43
0.0000000001
 40
0.0
 40
0.0
 40
0.0
 40
0.0
 40
1.0
 40
2.0
 40
3.0
 40
4.0
 40
5.0
 40
6.0
 40
7.0
 40
7.0
 40
7.0
 40
7.0
 10
339.6457224670412
 20
1127.551174745129
 30
0.0
 10
341.4314850383926
 20
1127.524507571574
 30
0.0
 10
344.800437975482
 20
1127.008962080568
 30
0.0
 10
349.432818138961
 20
1124.830026721096
 30
0.0
 10
352.8570186252073
 20
1120.781394563825
 30
0.0
 10
352.771234842232
 20
1115.366432954261
 30
0.0
 10
349.2667634819263
 20
1111.400061160346
 30
0.0
 10
344.6086758854544
 20
1109.281177042953
 30
0.0
 10
341.2346084138007
 20
1108.80091339816
 30
0.0
 10
339.5471998414905
 20
1108.8001553827
 30
0.0
  0
SPLINE
  5
672
330
1F
100
AcDbEntity
  8
Default
100
AcDbSpline
210
0.0
220
0.0
230
1.0
 70
    12
 71
     2
 72
     6
 73
     3
 74
     0
 42
0.000000001
 43
0.0000000001
 40
0.0
 40
0.0
 40
0.0
 40
1.112498698414412
 40
1.112498698414412
 40
1.112498698414412
 10
339.5471998414905
 20
1108.8001553827
 30
0.0
 41
1.0
 10
325.4193251551442
 20
1108.644379885978
 30
0.0
 41
0.9999999996585591
 10
311.2914530863018
 20
1108.488367177934
 30
0.0
 41
0.9999999993875963
  0
SPLINE
  5
673
330
1F
100
AcDbEntity
  8
Default
100
AcDbSpline
210
0.0
220
0.0
230
1.0
 70
    12
 71
     2
 72
     6
 73
     3
 74
     0
 42
0.000000001
 43
0.0000000001
 40
-1.281345128275034
 40
-1.281345128275034
 40
-1.281345128275034
 40
0.0
 40
0.0
 40
0.0
 10
9.739118487235828
 20
811.093248216634
 30
0.0
 41
0.9999999993069707
 10
9.558660441845859
 20
794.8108383084022
 30
0.0
 41
0.9999999996067375
 10
9.378419203891098
 20
778.5270327571729
 30
0.0
 41
1.0
  0
SPLINE
  5
674
330
1F
100
AcDbEntity
  8
Default
100
AcDbSpline
210
0.0
220
0.0
230
1.0
 70
     8
 71
     3
 72
    14
 73
    10
 74
     0
 42
0.000000001
 43
0.0000000001
 40
0.0
 40
0.0
 40
0.0
 40
0.0
 40
1.0
 40
2.0
 40
3.0
 40
4.0
 40
5.0
 40
6.0
 40
7.0
 40
7.0
 40
7.0
 40
7.0
 10
9.378419203891098
 20
778.5270327571729
 30
0.0
 10
9.351752030332136
 20
776.7412701858289
 30
0.0
 10
8.836206539326667
 20
773.3723172487357
 30
0.0
 10
6.657271179854433
 20
768.7399370852603
 30
0.0
 10
2.60863902258643
 20
765.3157365990105
 30
0.0
 10
-2.806322586980968
 20
765.4015203819822
 30
0.0
 10
-6.772694380899338
 20
768.9059917422878
 30
0.0
 10
-8.891578498292801
 20
773.5640793387597
 30
0.0
 10
-9.371842143085814
 20
776.938146810417
 30
0.0
 10
-9.372600158541899
 20
778.6255553827309
 30
0.0
  0
SPLINE
  5
675
330
1F
100
AcDbEntity
  8
Default
100
AcDbSpline
210
0.0
220
0.0
230
1.0
 70
    12
 71
     2
 72
     6
 73
     3
 74
     0
 42
0.000000001
 43
0.0000000001
 40
0.0
 40
0.0
 40
0.0
 40
1.278324852146924
 40
1.278324852146924
 40
1.278324852146924
 10
-9.372600158541899
 20
778.6255553827309
 30
0.0
 41
1.0
 10
-9.551595144428574
 20
794.8592942142736
 30
0.0
 41
0.9999999996076647
 10
-9.730903328225394
 20
811.0930295894418
 30
0.0
 41
0.9999999993083845
  0
SPLINE
  5
676
330
1F
100
AcDbEntity
  8
Default
100
AcDbSpline
210
0.0
220
0.0
230
1.0
 70
     8
 71
     3
 72
    27
 73
    23
 74
     0
 42
0.000000001
 43
0.0000000001
 40
0.0
 40
0.0
 40
0.0
 40
0.0
 40
1.0
 40
2.0
 40
3.0
 40
4.0
 40
5.0
 40
6.0
 40
7.0
 40
8.0
 40
9.0
 40
10.0
 40
11.0
 40
12.0
 40
12.0
 40
12.0
 40
13.0
 40
14.0
 40
15.0
 40
16.0
 40
17.0
 40
17.59035361248205
 40
17.59035361248205
 40
17.59035361248205
 40
17.59035361248205
 10
-218.0055189606683
 20
1488.583649772505
 30
0.0
 10
-216.5829019627963
 20
1486.834628370778
 30
0.0
 10
-209.8919013882587
 20
1479.872817078524
 30
0.0
 10
-205.9312427372024
 20
1474.385918749073
 30
0.0
 10
-202.4767072060895
 20
1468.55833841369
 30
0.0
 10
-199.5354177688459
 20
1462.477081723808
 30
0.0
 10
-196.5831779790642
 20
1456.353301591791
 30
0.0
 10
-195.43535023613
 20
1449.612766975055
 30
0.0
 10
-196.3680326961439
 20
1442.859303920921
 30
0.0
 10
-198.1946524843552
 20
1436.345573200424
 30
0.0
 10
-200.5948724778682
 20
1430.015838482874
 30
0.0
 10
-203.3440037872751
 20
1423.83529717471
 30
0.0
 10
-206.3064932065645
 20
1417.754506047832
 30
0.0
 10
-208.3662277034273
 20
1413.743477002538
 30
0.0
 10
-209.4012809399028
 20
1411.740698314503
 30
0.0
 10
-214.4653815885358
 20
1401.988759734863
 30
0.0
 10
-224.3126731463017
 20
1382.336107324578
 30
0.0
 10
-237.8513596022785
 20
1352.272194639553
 30
0.0
 10
-250.5789278554766
 20
1321.859839848001
 30
0.0
 10
-262.5198411620113
 20
1291.129542735797
 30
0.0
 10
-272.2396940567596
 20
1264.374350368709
 30
0.0
 10
-277.95225186057
 20
1247.858233899604
 30
0.0
 10
-280.0404466142463
 20
1241.71629107942
 30
0.0
  0
SPLINE
  5
677
330
1F
100
AcDbEntity
  8
Default
100
AcDbSpline
210
0.0
220
0.0
230
1.0
 70
     8
 71
     3
 72
    59
 73
    55
 74
     0
 42
0.000000001
 43
0.0000000001
 40
26.00996749817882
 40
26.00996749817882
 40
26.00996749817882
 40
26.00996749817882
 40
27.0
 40
28.0
 40
29.0
 40
30.0
 40
31.0
 40
32.0
 40
33.0
 40
34.0
 40
35.0
 40
36.0
 40
36.0
 40
36.0
 40
37.0
 40
38.0
 40
39.0
 40
40.0
 40
41.0
 40
42.0
 40
43.0
 40
44.0
 40
45.0
 40
46.0
 40
47.0
 40
48.0
 40
49.0
 40
50.0
 40
51.0
 40
52.0
 40
53.0
 40
53.0
 40
53.0
 40
54.0
 40
55.0
 40
56.0
 40
57.0
 40
58.0
 40
59.0
 40
60.0
 40
60.0
 40
60.0
 40
61.0
 40
62.0
 40
63.0
 40
64.0
 40
65.0
 40
66.0
 40
67.0
 40
68.0
 40
69.0
 40
70.0
 40
71.0
 40
72.0
 40
72.0
 40
72.0
 40
72.0
 10
-276.3277364965215
 20
966.757726787428
 30
0.0
 10
-271.6903103988916
 20
956.7042230373976
 30
0.0
 10
-260.8399581822341
 20
937.1979633305587
 30
0.0
 10
-240.6941173445048
 20
910.4151983422038
 30
0.0
 10
-217.2335153949571
 20
886.3227813727158
 30
0.0
 10
-190.815375391754
 20
865.5264163123124
 30
0.0
 10
-162.161088509918
 20
847.9524227052884
 30
0.0
 10
-131.5648106419503
 20
834.0284985916174
 30
0.0
 10
-99.66108770824575
 20
823.489166633381
 30
0.0
 10
-66.87359419712084
 20
816.1676076201461
 30
0.0
 10
-33.55887048507066
 20
811.8856075941499
 30
0.0
 10
-11.18596141439411
 20
810.9701043865012
 30
0.0
 10
-0.0006239829999686
 20
810.9890481863136
 30
0.0
 10
11.1847134483869
 20
810.9701043865012
 30
0.0
 10
33.55762251907072
 20
811.8856075941499
 30
0.0
 10
66.8723462311209
 20
816.1676076201461
 30
0.0
 10
99.65983974223854
 20
823.489166633381
 30
0.0
 10
131.5635626759503
 20
834.0284985916174
 30
0.0
 10
162.1598405439108
 20
847.9524227052884
 30
0.0
 10
190.8141274257541
 20
865.5264163123124
 30
0.0
 10
217.2322674289499
 20
886.3227813727158
 30
0.0
 10
240.6928693784976
 20
910.4151983422038
 30
0.0
 10
260.9058678915135
 20
937.2872456915633
 30
0.0
 10
277.2436022943475
 20
966.7058786290713
 30
0.0
 10
288.9176659945115
 20
998.2581461905088
 30
0.0
 10
296.5891454764169
 20
1030.972427951967
 30
0.0
 10
301.30260469719
 20
1064.220260412904
 30
0.0
 10
303.5707799788106
 20
1097.725809781392
 30
0.0
 10
303.6447058272643
 20
1131.280292734324
 30
0.0
 10
302.2704190654877
 20
1164.859498620239
 30
0.0
 10
297.9122935134983
 20
1186.893328218963
 30
0.0
 10
294.5055886622176
 20
1197.555313044997
 30
0.0
 10
291.1810863449609
 20
1208.029001740719
 30
0.0
 10
284.4289471373086
 20
1228.944061221975
 30
0.0
 10
273.7768207969602
 20
1260.14320298879
 30
0.0
 10
262.5198408449906
 20
1291.129542735797
 30
0.0
 10
250.5789275384486
 20
1321.859839848001
 30
0.0
 10
237.8513592852505
 20
1352.272194639553
 30
0.0
 10
224.3126728292809
 20
1382.336107324578
 30
0.0
 10
214.4653812715078
 20
1401.988759734863
 30
0.0
 10
209.401280622882
 20
1411.740698314503
 30
0.0
 10
208.3662273864065
 20
1413.743477002538
 30
0.0
 10
206.3064928895364
 20
1417.754506047832
 30
0.0
 10
203.3440034702471
 20
1423.83529717471
 30
0.0
 10
200.5948721608474
 20
1430.015838482874
 30
0.0
 10
198.1946521673344
 20
1436.345573200424
 30
0.0
 10
196.3680323791232
 20
1442.859303920921
 30
0.0
 10
195.435349919102
 20
1449.612766975055
 30
0.0
 10
196.5831776620362
 20
1456.353301591791
 30
0.0
 10
199.5354174518252
 20
1462.477081723808
 30
0.0
 10
202.4767068890688
 20
1468.55833841369
 30
0.0
 10
205.9312424201744
 20
1474.385918749073
 30
0.0
 10
209.8919010712307
 20
1479.872817078524
 30
0.0
 10
216.5829016457756
 20
1486.834628370778
 30
0.0
 10
218.0055186436403
 20
1488.583649772505
 30
0.0
  0
SPLINE
  5
678
330
1F
100
AcDbEntity
  8
Default
100
AcDbSpline
210
0.0
220
0.0
230
1.0
 70
     8
 71
     3
 72
    15
 73
    11
 74
     0
 42
0.000000001
 43
0.0000000001
 40
0.0
 40
0.0
 40
0.0
 40
0.0
 40
0.2588469591229587
 40
0.6477254461891114
 40
1.024641027840087
 40
1.817983982162573
 40
2.582167143679937
 40
4.062052734317923
 40
7.850412104674
 40
8.912059032934525
 40
8.912059032934525
 40
8.912059032934525
 40
8.912059032934525
 10
-196.5619438351823
 20
1454.76303202797
 30
0.0
 10
-196.3586355266561
 20
1452.565249034209
 30
0.0
 10
-197.3424647046158
 20
1447.118043045424
 30
0.0
 10
-200.505101175997
 20
1439.027048972339
 30
0.0
 10
-206.2026745031799
 20
1427.11445865323
 30
0.0
 10
-214.02533676245
 20
1412.720074309253
 30
0.0
 10
-225.2884065751314
 20
1389.595977256047
 30
0.0
 10
-246.9121423296929
 20
1343.322879047259
 30
0.0
 10
-267.3502428053507
 20
1293.75336141691
 30
0.0
 10
-282.2626474794779
 20
1255.49905827056
 30
0.0
 10
-285.4913295574042
 20
1247.11140194418
 30
0.0
  0
SPLINE
  5
679
330
1F
100
AcDbEntity
  8
Default
100
AcDbSpline
210
0.0
220
0.0
230
1.0
 70
     8
 71
     3
 72
     8
 73
     4
 74
     0
 42
0.000000001
 43
0.0000000001
 40
20.3336008915702
 40
20.3336008915702
 40
20.3336008915702
 40
20.3336008915702
 40
21.82793658798906
 40
21.82793658798906
 40
21.82793658798906
 40
21.82793658798906
 10
-276.8579794624493
 20
966.1843295892527
 30
0.0
 10
-271.1908219767029
 20
954.8828839156872
 30
0.0
 10
-264.7775689651353
 20
943.9537620301075
 30
0.0
 10
-257.5850012991468
 20
933.5103095587751
 30
0.0
  0
SPLINE
  5
67A
330
1F
100
AcDbEntity
  8
Default
100
AcDbSpline
210
0.0
220
0.0
230
1.0
 70
     8
 71
     3
 72
    11
 73
     7
 74
     0
 42
0.000000001
 43
0.0000000001
 40
3.534603541119151
 40
3.534603541119151
 40
3.534603541119151
 40
3.534603541119151
 40
3.940395698505355
 40
7.777415887162893
 40
11.58776424105037
 40
15.35286584350305
 40
15.35286584350305
 40
15.35286584350305
 40
15.35286584350305
 10
-229.7066269791649
 20
1152.010271854475
 30
0.0
 10
-228.5699846840326
 20
1155.251592257175
 30
0.0
 10
-215.9919936644765
 20
1188.90019715655
 30
0.0
 10
-178.2900325418923
 20
1247.39467852608
 30
0.0
 10
-96.0993124338529
 20
1302.0560566398
 30
0.0
 10
-31.86292958695776
 20
1314.123076596078
 30
0.0
 10
-0.0006503608274215
 20
1314.130792042213
 30
0.0
  0
SPLINE
  5
67B
330
1F
100
AcDbEntity
  8
Default
100
AcDbSpline
210
0.0
220
0.0
230
1.0
 70
     8
 71
     3
 72
    12
 73
     8
 74
     0
 42
0.000000001
 43
0.0000000001
 40
0.0
 40
0.0
 40
0.0
 40
0.0
 40
1.918305221504867
 40
3.868777778011241
 40
7.624449324857683
 40
11.42846767657462
 40
15.35241906764609
 40
15.35241906764609
 40
15.35241906764609
 40
15.35241906764609
 10
-0.0006503608274215
 20
1314.130792042213
 30
0.0
 10
16.23942579779032
 20
1314.144271432417
 30
0.0
 10
49.0016741649124
 20
1310.974090603477
 30
0.0
 10
111.128260085683
 20
1292.328330917963
 30
0.0
 10
179.1979189463854
 20
1246.234789235592
 30
0.0
 10
232.6517144274003
 20
1162.67651751339
 30
0.0
 10
244.4745621898801
 20
1097.098623390694
 30
0.0
 10
244.4740198303225
 20
1063.891103737055
 30
0.0
  0
SPLINE
  5
67C
330
1F
100
AcDbEntity
  8
Default
100
AcDbSpline
210
0.0
220
0.0
230
1.0
 70
     8
 71
     3
 72
    12
 73
     8
 74
     0
 42
0.000000001
 43
0.0000000001
 40
-14.89017236839833
 40
-14.89017236839833
 40
-14.89017236839833
 40
-14.89017236839833
 40
-11.21816917573749
 40
-7.516682162771167
 40
-3.774519558109396
 40
-1.88935509827327
 40
0.0
 40
0.0
 40
0.0
 40
0.0
 10
244.4740198303225
 20
1063.891103737055
 30
0.0
 10
244.4823525778083
 20
1032.797307211599
 30
0.0
 10
231.6006665125278
 20
970.3845429816851
 30
0.0
 10
176.9397175032318
 20
891.4712482565832
 30
0.0
 10
109.2967631791362
 20
847.8626495950035
 30
0.0
 10
47.95406485092462
 20
829.8870611362058
 30
0.0
 10
15.99456011584334
 20
826.8133202021877
 30
0.0
 10
-0.0006514075539599
 20
826.8115989229213
 30
0.0
  0
SPLINE
  5
67D
330
1F
100
AcDbEntity
  8
Default
100
AcDbSpline
210
0.0
220
0.0
230
1.0
 70
     8
 71
     3
 72
    12
 73
     8
 74
     0
 42
0.000000001
 43
0.0000000001
 40
-14.89017233013332
 40
-14.89017233013332
 40
-14.89017233013332
 40
-14.89017233013332
 40
-11.11625270517792
 40
-7.371880431677227
 40
-3.66957874387039
 40
-1.832654236799995
 40
-1.682229782347938
 40
-1.682229782347938
 40
-1.682229782347938
 40
-1.682229782347938
 10
-0.0006514075539599
 20
826.8115989229213
 30
0.0
 10
-31.95317877749403
 20
826.8171892776468
 30
0.0
 10
-95.60699289532568
 20
839.0298903735333
 30
0.0
 10
-176.967003423244
 20
891.4905737039612
 30
0.0
 10
-222.6029438537771
 20
957.4023426931985
 30
0.0
 10
-237.0230618225942
 20
1003.640256378391
 30
0.0
 10
-240.2676166258352
 20
1020.151174500379
 30
0.0
 10
-240.5028934011025
 20
1021.402807391243
 30
0.0
  0
SPLINE
  5
685
330
1F
100
AcDbEntity
  8
Default
100
AcDbSpline
210
0.0
220
0.0
230
1.0
 70
     8
 71
     3
 72
    12
 73
     8
 74
     0
 42
0.000000001
 43
0.0000000001
 40
0.0
 40
0.0
 40
0.0
 40
0.0
 40
0.1510110321465192
 40
0.3037660471064116
 40
0.5900965017365678
 40
0.8249401141264362
 40
1.014583801502342
 40
1.014583801502342
 40
1.014583801502342
 40
1.014583801502342
 10
10.20658430854746
 20
-767.1702537887926
 30
0.0
 10
10.33145635648907
 20
-765.8971997835638
 30
0.0
 10
10.42873273019722
 20
-763.3241834856112
 30
0.0
 10
9.991550871422077
 20
-758.3344088829931
 30
0.0
 10
8.456061524022516
 20
-752.7935697053385
 30
0.0
 10
5.03346669473467
 20
-747.6918586881679
 30
0.0
 10
1.634508891849691
 20
-746.047347722028
 30
0.0
 10
0.0000000126274244
 20
-746.0791861061247
 30
0.0
  0
SPLINE
  5
686
330
1F
100
AcDbEntity
  8
Default
100
AcDbSpline
210
0.0
220
0.0
230
1.0
 70
     8
 71
     3
 72
    12
 73
     8
 74
     0
 42
0.000000001
 43
0.0000000001
 40
-1.014583801502342
 40
-1.014583801502342
 40
-1.014583801502342
 40
-1.014583801502342
 40
-0.8249401141264362
 40
-0.5900965017365678
 40
-0.3037660471064116
 40
-0.1510110321465192
 40
0.0
 40
0.0
 40
0.0
 40
0.0
 10
0.0000000126274244
 20
-746.0791861061247
 30
0.0
 10
-1.634508866587566
 20
-746.047347722028
 30
0.0
 10
-5.033466669479821
 20
-747.6918586881679
 30
0.0
 10
-8.456061498767667
 20
-752.7935697053385
 30
0.0
 10
-9.991550846167228
 20
-758.3344088829931
 30
0.0
 10
-10.42873270494237
 20
-763.3241834856112
 30
0.0
 10
-10.33145633123422
 20
-765.8971997835638
 30
0.0
 10
-10.20658428329261
 20
-767.1702537887926
 30
0.0
  0
SPLINE
  5
687
330
1F
100
AcDbEntity
  8
Default
100
AcDbSpline
210
0.0
220
0.0
230
1.0
 70
    12
 71
     2
 72
     6
 73
     3
 74
     0
 42
0.000000001
 43
0.0000000001
 40
0.0
 40
0.0
 40
0.0
 40
0.1369528492222414
 40
0.1369528492222414
 40
0.1369528492222414
 10
9.337313909429212
 20
-776.8059143253144
 30
0.0
 41
1.0
 10
9.301003704731556
 20
-775.0670220634369
 30
0.0
 41
0.9999966913238282
 10
9.320096044426463
 20
-773.3271414846845
 30
0.0
 41
0.9999959461296658
  0
ARC
  5
688
330
1F
100
AcDbEntity
  8
Default
100
AcDbCircle
 10
22.01837870641975
 20
-773.1182936067839
 30
0.0
 40
12.7
100
AcDbArc
 50
168.4871521735321
 51
180.9422552251408
  0
SPLINE
  5
689
330
1F
100
AcDbEntity
  8
Default
100
AcDbSpline
210
0.0
220
0.0
230
1.0
 70
     8
 71
     3
 72
    14
 73
    10
 74
     0
 42
0.000000001
 43
0.0000000001
 40
0.2772630823298201
 40
0.2772630823298201
 40
0.2772630823298201
 40
0.2772630823298201
 40
1.0
 40
2.0
 40
3.0
 40
4.0
 40
5.0
 40
6.0
 40
7.0
 40
7.0
 40
7.0
 40
7.0
 10
9.573903032269299
 20
-770.5835302656655
 30
0.0
 10
9.77957349564167
 20
-769.5737866589284
 30
0.0
 10
10.16225596263757
 20
-767.1448918974988
 30
0.0
 10
10.28268673841739
 20
-763.2547661562116
 30
0.0
 10
9.825121139507245
 20
-758.9932477884708
 30
0.0
 10
8.770275292994483
 20
-754.8341045856818
 30
0.0
 10
6.97987058889339
 20
-750.9258691985474
 30
0.0
 10
4.183200849216518
 20
-747.5994981762765
 30
0.0
 10
1.439760939905681
 20
-746.4509050075089
 30
0.0
 10
-0.0000125999977172
 20
-746.4637956524625
 30
0.0
  0
SPLINE
  5
68A
330
1F
100
AcDbEntity
  8
Default
100
AcDbSpline
210
0.0
220
0.0
230
1.0
 70
     8
 71
     3
 72
    14
 73
    10
 74
     0
 42
0.000000001
 43
0.0000000001
 40
-7.0
 40
-7.0
 40
-7.0
 40
-7.0
 40
-6.0
 40
-5.0
 40
-4.0
 40
-3.0
 40
-2.0
 40
-1.0
 40
-0.2482205602640466
 40
-0.2482205602640466
 40
-0.2482205602640466
 40
-0.2482205602640466
 10
-0.0000125999977172
 20
-746.4637956524625
 30
0.0
 10
-1.439786139901116
 20
-746.4509050075089
 30
0.0
 10
-4.183226049219229
 20
-747.5994981762765
 30
0.0
 10
-6.979895788888825
 20
-750.9258691985474
 30
0.0
 10
-8.770300492989917
 20
-754.8341045856818
 30
0.0
 10
-9.82514633950268
 20
-758.9932477884708
 30
0.0
 10
-10.28271193841283
 20
-763.2547661562116
 30
0.0
 10
-10.16099656791266
 20
-767.1863865648506
 30
0.0
 10
-9.766608792884653
 20
-769.6556718021152
 30
0.0
 10
-9.548916171010205
 20
-770.7052121139736
 30
0.0
  0
ARC
  5
68B
330
1F
100
AcDbEntity
  8
Default
100
AcDbCircle
 10
-21.9842376129127
 20
-773.284510591579
 30
0.0
 40
12.7
100
AcDbArc
 50
358.977579807951
 51
11.71796787815979
  0
SPLINE
  5
68C
330
1F
100
AcDbEntity
  8
Default
100
AcDbSpline
210
0.0
220
0.0
230
1.0
 70
    12
 71
     2
 72
     6
 73
     3
 74
     0
 42
0.000000001
 43
0.0000000001
 40
-0.1297405451143296
 40
-0.1297405451143296
 40
-0.1297405451143296
 40
0.0
 40
0.0
 40
0.0
 10
-9.28625958786506
 20
-773.5111249677052
 30
0.0
 41
0.9999960316975588
 10
-9.315660669013595
 20
-775.1585680321463
 30
0.0
 41
0.999996865512317
 10
-9.350059281528956
 20
-776.8059143253144
 30
0.0
 41
1.0
  0
SPLINE
  5
68D
330
1F
100
AcDbEntity
  8
Default
100
AcDbSpline
210
0.0
220
0.0
230
1.0
 70
    12
 71
     2
 72
     6
 73
     3
 74
     0
 42
0.000000001
 43
0.0000000001
 40
0.0
 40
0.0
 40
0.0
 40
0.0853474550214741
 40
0.0853474550214741
 40
0.0853474550214741
 10
-10.28178461606512
 20
-766.280074682802
 30
0.0
 41
1.0
 10
-10.3576640163119
 20
-765.1983842254144
 30
0.0
 41
0.9993970637774639
 10
-10.35829222268148
 20
-764.1140357877179
 30
0.0
 41
1.0
  0
SPLINE
  5
68E
330
1F
100
AcDbEntity
  8
Default
100
AcDbSpline
210
0.0
220
0.0
230
1.0
 70
    12
 71
     2
 72
     6
 73
     3
 74
     0
 42
0.000000001
 43
0.0000000001
 40
0.0
 40
0.0
 40
0.0
 40
0.0853474550214741
 40
0.0853474550214741
 40
0.0853474550214741
 10
-351.8926805414121
 20
-1128.454540157304
 30
0.0
 41
1.0
 10
-352.9743709987997
 20
-1128.530419557558
 30
0.0
 41
0.9993970637774639
 10
-354.0587194364962
 20
-1128.531047763916
 30
0.0
 41
1.0
  0
SPLINE
  5
68F
330
1F
100
AcDbEntity
  8
Default
100
AcDbSpline
210
0.0
220
0.0
230
1.0
 70
     8
 71
     3
 72
    12
 73
     8
 74
     0
 42
0.000000001
 43
0.0000000001
 40
0.0
 40
0.0
 40
0.0
 40
0.0
 40
0.1510110321465192
 40
0.3037660471064116
 40
0.5900965017365678
 40
0.8249401141264362
 40
1.014583801502342
 40
1.014583801502342
 40
1.014583801502342
 40
1.014583801502342
 10
-351.0025014354214
 20
-1107.966171232698
 30
0.0
 10
-352.2755554406503
 20
-1107.841299184757
 30
0.0
 10
-354.8485717386029
 20
-1107.744022811045
 30
0.0
 10
-359.838346341221
 20
-1108.181204669813
 30
0.0
 10
-365.3791855188793
 20
-1109.71669401722
 30
0.0
 10
-370.4808965360462
 20
-1113.139288846504
 30
0.0
 10
-372.1254075021898
 20
-1116.538246649396
 30
0.0
 10
-372.0935691180894
 20
-1118.172755528615
 30
0.0
  0
SPLINE
  5
690
330
1F
100
AcDbEntity
  8
Default
100
AcDbSpline
210
0.0
220
0.0
230
1.0
 70
     8
 71
     3
 72
    12
 73
     8
 74
     0
 42
0.000000001
 43
0.0000000001
 40
-1.014583801502342
 40
-1.014583801502342
 40
-1.014583801502342
 40
-1.014583801502342
 40
-0.8249401141264362
 40
-0.5900965017365678
 40
-0.3037660471064116
 40
-0.1510110321465192
 40
0.0
 40
0.0
 40
0.0
 40
0.0
 10
-372.0935691180894
 20
-1118.172755528615
 30
0.0
 10
-372.1254075021898
 20
-1119.807264407833
 30
0.0
 10
-370.4808965360462
 20
-1123.206222210725
 30
0.0
 10
-365.3791855188793
 20
-1126.62881704001
 30
0.0
 10
-359.838346341221
 20
-1128.164306387416
 30
0.0
 10
-354.8485717386029
 20
-1128.601488246181
 30
0.0
 10
-352.2755554406503
 20
-1128.504211872473
 30
0.0
 10
-351.0025014354214
 20
-1128.379339824531
 30
0.0
  0
SPLINE
  5
691
330
1F
100
AcDbEntity
  8
Default
100
AcDbSpline
210
0.0
220
0.0
230
1.0
 70
    12
 71
     2
 72
     6
 73
     3
 74
     0
 42
0.000000001
 43
0.0000000001
 40
0.0
 40
0.0
 40
0.0
 40
0.1369528492222414
 40
0.1369528492222414
 40
0.1369528492222414
 10
-341.3668408988997
 20
-1108.835441631813
 30
0.0
 41
1.0
 10
-343.1057331607771
 20
-1108.871751836514
 30
0.0
 41
0.9999966913238282
 10
-344.8456137395297
 20
-1108.852659496815
 30
0.0
 41
0.9999959461296658
  0
ARC
  5
692
330
1F
100
AcDbEntity
  8
Default
100
AcDbCircle
 10
-345.0544616174338
 20
-1096.154376834822
 30
0.0
 40
12.7
100
AcDbArc
 50
258.4871521735321
 51
270.9422552251278
  0
SPLINE
  5
693
330
1F
100
AcDbEntity
  8
Default
100
AcDbSpline
210
0.0
220
0.0
230
1.0
 70
     8
 71
     3
 72
    14
 73
    10
 74
     0
 42
0.000000001
 43
0.0000000001
 40
0.2772630823298201
 40
0.2772630823298201
 40
0.2772630823298201
 40
0.2772630823298201
 40
1.0
 40
2.0
 40
3.0
 40
4.0
 40
5.0
 40
6.0
 40
7.0
 40
7.0
 40
7.0
 40
7.0
 10
-347.5892249585559
 20
-1108.598852508973
 30
0.0
 10
-348.598968565293
 20
-1108.3931820456
 30
0.0
 10
-351.0278633267189
 20
-1108.010499578604
 30
0.0
 10
-354.9179890680061
 20
-1107.890068802821
 30
0.0
 10
-359.1795074357469
 20
-1108.347634401738
 30
0.0
 10
-363.3386506385396
 20
-1109.402480248251
 30
0.0
 10
-367.2468860256667
 20
-1111.192884952349
 30
0.0
 10
-370.5732570479413
 20
-1113.989554692022
 30
0.0
 10
-371.7218502167052
 20
-1116.732994601333
 30
0.0
 10
-371.7089595717516
 20
-1118.17276814124
 30
0.0
  0
SPLINE
  5
694
330
1F
100
AcDbEntity
  8
Default
100
AcDbSpline
210
0.0
220
0.0
230
1.0
 70
     8
 71
     3
 72
    14
 73
    10
 74
     0
 42
0.000000001
 43
0.0000000001
 40
-7.0
 40
-7.0
 40
-7.0
 40
-7.0
 40
-6.0
 40
-5.0
 40
-4.0
 40
-3.0
 40
-2.0
 40
-1.0
 40
-0.2482205602640466
 40
-0.2482205602640466
 40
-0.2482205602640466
 40
-0.2482205602640466
 10
-371.7089595717516
 20
-1118.17276814124
 30
0.0
 10
-371.7218502167052
 20
-1119.612541681147
 30
0.0
 10
-370.5732570479413
 20
-1122.355981590458
 30
0.0
 10
-367.2468860256667
 20
-1125.152651330131
 30
0.0
 10
-363.3386506385396
 20
-1126.943056034228
 30
0.0
 10
-359.1795074357469
 20
-1127.997901880745
 30
0.0
 10
-354.9179890680061
 20
-1128.455467479658
 30
0.0
 10
-350.9863686593635
 20
-1128.333752109158
 30
0.0
 10
-348.5170834221026
 20
-1127.939364334127
 30
0.0
 10
-347.4675431102405
 20
-1127.721671712252
 30
0.0
  0
ARC
  5
695
330
1F
100
AcDbEntity
  8
Default
100
AcDbCircle
 10
-344.8882446326352
 20
-1140.156993154155
 30
0.0
 40
12.7
100
AcDbArc
 50
88.97757980795093
 51
101.7179678781598
  0
SPLINE
  5
696
330
1F
100
AcDbEntity
  8
Default
100
AcDbSpline
210
0.0
220
0.0
230
1.0
 70
    12
 71
     2
 72
     6
 73
     3
 74
     0
 42
0.000000001
 43
0.0000000001
 40
-0.1297405451143296
 40
-0.1297405451143296
 40
-0.1297405451143296
 40
0.0
 40
0.0
 40
0.0
 10
-344.6616302565126
 20
-1127.459015129111
 30
0.0
 41
0.9999960316975588
 10
-343.0141871920678
 20
-1127.488416210252
 30
0.0
 41
0.999996865512317
 10
-341.3668408988997
 20
-1127.522814822764
 30
0.0
 41
1.0
  0
SPLINE
  5
697
330
1F
100
AcDbEntity
  8
Default
100
AcDbSpline
210
0.0
220
0.0
230
1.0
 70
    12
 71
     2
 72
     6
 73
     3
 74
     0
 42
0.000000001
 43
0.0000000001
 40
0.0
 40
0.0
 40
0.0
 40
0.0587632096241838
 40
0.0587632096241838
 40
0.0587632096241838
 10
-1.476650273249106
 20
-746.5867614083094
 30
0.0
 41
1.0
 10
-0.7502618348116812
 20
-746.3990596238714
 30
0.0
 41
0.9921107855315545
 10
-0.0000146183483594
 20
-746.3979471690495
 30
0.0
 41
1.0
  0
SPLINE
  5
698
330
1F
100
AcDbEntity
  8
Default
100
AcDbSpline
210
0.0
220
0.0
230
1.0
 70
    24
 71
     2
 72
     6
 73
     3
 74
     0
 42
0.000000001
 43
0.0000000001
 40
0.0
 40
0.0
 40
0.0
 40
0.0114467396849787
 40
0.0114467396849787
 40
0.0114467396849787
 10
0.0000001562984835
 20
-746.3979471690313
 30
0.0
 10
0.0000000907784852
 20
-746.25257357503
 30
0.0
 10
0.0000000252512109
 20
-746.1071999810323
 30
0.0
  0
SPLINE
  5
699
330
1F
100
AcDbEntity
  8
Default
100
AcDbSpline
210
0.0
220
0.0
230
1.0
 70
    12
 71
     2
 72
     6
 73
     3
 74
     0
 42
0.000000001
 43
0.0000000001
 40
0.0
 40
0.0
 40
0.0
 40
0.0586712320260919
 40
0.0586712320260919
 40
0.0586712320260919
 10
0.0000001562984835
 20
-746.3979471690313
 30
0.0
 41
1.0
 10
0.7490612086148758
 20
-746.3990515915416
 30
0.0
 41
0.9921343149382712
 10
1.474373111235763
 20
-746.5861780828332
 30
0.0
 41
1.0
  0
CIRCLE
  5
69A
330
1F
100
AcDbEntity
  8
Default
100
AcDbCircle
 10
423.4498965104394
 20
-1102.275514025254
 30
0.0
 40
200.0249999999998
  0
SPLINE
  5
69B
330
1F
100
AcDbEntity
  8
Default
100
AcDbSpline
210
0.0
220
0.0
230
1.0
 70
     8
 71
     3
 72
    22
 73
    18
 74
     0
 42
0.000000001
 43
0.0000000001
 40
0.0
 40
0.0
 40
0.0
 40
0.0
 40
0.2588469591229587
 40
0.6477254461891114
 40
1.024641027840087
 40
1.817983982162573
 40
2.582167143679937
 40
4.062052734317923
 40
7.850412104674
 40
9.497260537102542
 40
10.543391206404
 40
10.8432833113025
 40
12.15829953678302
 40
13.34949093133962
 40
14.77372714428499
 40
17.25709974516987
 40
21.82793658798906
 40
21.82793658798906
 40
21.82793658798906
 40
21.82793658798906
 10
-196.5619435181543
 20
-1454.76303202797
 30
0.0
 10
-196.3586352096281
 20
-1452.565249034209
 30
0.0
 10
-197.3424643875951
 20
-1447.118043045424
 30
0.0
 10
-200.5051008589762
 20
-1439.027048972339
 30
0.0
 10
-206.2026741861518
 20
-1427.11445865323
 30
0.0
 10
-214.0253364454293
 20
-1412.720074309253
 30
0.0
 10
-225.2884062581034
 20
-1389.595977256047
 30
0.0
 10
-246.9121420126648
 20
-1343.322879047259
 30
0.0
 10
-269.2397545605599
 20
-1289.1706360267
 30
0.0
 10
-289.047531174936
 20
-1238.005092278576
 30
0.0
 10
-297.9405658523574
 20
-1214.275559658758
 30
0.0
 10
-305.5958809100666
 20
-1193.073019523601
 30
0.0
 10
-310.1301611390991
 20
-1169.618238708712
 30
0.0
 10
-311.8788726342864
 20
-1136.382355958105
 30
0.0
 10
-311.4186766518069
 20
-1093.170928070091
 30
0.0
 10
-302.2861164157112
 20
-1021.766933788355
 30
0.0
 10
-279.5854479773734
 20
-965.454482100859
 30
0.0
 10
-257.5850009821188
 20
-933.5103095587751
 30
0.0
  0
SPLINE
  5
69C
330
1F
100
AcDbEntity
  8
Default
100
AcDbSpline
210
0.0
220
0.0
230
1.0
 70
     8
 71
     3
 72
    19
 73
    15
 74
     0
 42
0.000000001
 43
0.0000000001
 40
-12.0
 40
-12.0
 40
-12.0
 40
-12.0
 40
-11.0
 40
-10.0
 40
-9.0
 40
-8.0
 40
-7.0
 40
-6.0
 40
-5.0
 40
-4.0
 40
-3.0
 40
-2.0
 40
-1.0
 40
0.0
 40
0.0
 40
0.0
 40
0.0
 10
-223.1952048337516
 20
-1498.49918406876
 30
0.0
 10
-220.0001540133489
 20
-1503.862904258624
 30
0.0
 10
-207.1784696499781
 20
-1507.930466991626
 30
0.0
 10
-189.0630576357543
 20
-1512.51695128509
 30
0.0
 10
-170.2782084792961
 20
-1515.922512555122
 30
0.0
 10
-151.5575181608401
 20
-1519.012456764549
 30
0.0
 10
-132.7198968481643
 20
-1521.540721793348
 30
0.0
 10
-113.8376903750577
 20
-1523.625972224198
 30
0.0
 10
-94.91096381463648
 20
-1525.285884720486
 30
0.0
 10
-75.95552832035536
 20
-1526.563752698307
 30
0.0
 10
-56.97984225891923
 20
-1527.494395711487
 30
0.0
 10
-37.99164486839072
 20
-1528.11381287383
 30
0.0
 10
-18.99658888695194
 20
-1528.457811230865
 30
0.0
 10
-6.331394626486144
 20
-1528.527413982387
 30
0.0
 10
0.001176932008093
 20
-1528.52823151558
 30
0.0
  0
SPLINE
  5
69D
330
1F
100
AcDbEntity
  8
Default
100
AcDbSpline
210
0.0
220
0.0
230
1.0
 70
     8
 71
     3
 72
    19
 73
    15
 74
     0
 42
0.000000001
 43
0.0000000001
 40
0.0
 40
0.0
 40
0.0
 40
0.0
 40
1.0
 40
2.0
 40
3.0
 40
4.0
 40
5.0
 40
6.0
 40
7.0
 40
8.0
 40
9.0
 40
10.0
 40
11.0
 40
12.0
 40
12.0
 40
12.0
 40
12.0
 10
0.001176932008093
 20
-1528.52823151558
 30
0.0
 10
6.333748490509606
 20
-1528.527413982387
 30
0.0
 10
18.99894275096812
 20
-1528.457811230865
 30
0.0
 10
37.99399873241418
 20
-1528.11381287383
 30
0.0
 10
56.9821961229427
 20
-1527.494395711487
 30
0.0
 10
75.95788218437883
 20
-1526.563752698307
 30
0.0
 10
94.91331767866723
 20
-1525.285884720486
 30
0.0
 10
113.8400442390812
 20
-1523.625972224198
 30
0.0
 10
132.7222507121951
 20
-1521.540721793348
 30
0.0
 10
151.5598720248563
 20
-1519.012456764549
 30
0.0
 10
170.2805623433269
 20
-1515.922512555122
 30
0.0
 10
189.0654114997778
 20
-1512.51695128509
 30
0.0
 10
207.1808235140015
 20
-1507.930466991626
 30
0.0
 10
220.0025078773797
 20
-1503.862904258624
 30
0.0
 10
223.1975586977751
 20
-1498.49918406876
 30
0.0
  0
SPLINE
  5
69E
330
1F
100
AcDbEntity
  8
Default
100
AcDbSpline
210
0.0
220
0.0
230
1.0
 70
    12
 71
     2
 72
     6
 73
     3
 74
     0
 42
0.000000001
 43
0.0000000001
 40
-0.443505275079806
 40
-0.443505275079806
 40
-0.443505275079806
 40
0.0
 40
0.0
 40
0.0
 10
218.0055189606683
 20
-1488.583649772505
 30
0.0
 41
1.0
 10
221.6079923430116
 20
-1493.012672520237
 30
0.0
 41
0.9799943751373794
 10
223.2334798237025
 20
-1498.638779451523
 30
0.0
 41
1.0
  0
SPLINE
  5
69F
330
1F
100
AcDbEntity
  8
Default
100
AcDbSpline
210
0.0
220
0.0
230
1.0
 70
     8
 71
     3
 72
    12
 73
     8
 74
     0
 42
0.000000001
 43
0.0000000001
 40
-3.111933853859593
 40
-3.111933853859593
 40
-3.111933853859593
 40
-3.111933853859593
 40
-2.689379093202719
 40
-2.191051374651839
 40
-1.391396900347014
 40
-0.8495487423131249
 40
0.0
 40
0.0
 40
0.0
 40
0.0
 10
223.2334798237025
 20
-1498.638779451523
 30
0.0
 10
224.3447509345824
 20
-1502.155710878719
 30
0.0
 10
222.4219163237322
 20
-1510.753327332359
 30
0.0
 10
209.5828077653459
 20
-1518.496393202843
 30
0.0
 10
194.5825160422064
 20
-1522.549620264823
 30
0.0
 10
176.374157279406
 20
-1526.395578551796
 30
0.0
 10
164.7811555751796
 20
-1528.172508977541
 30
0.0
 10
157.6749437665312
 20
-1529.444531912958
 30
0.0
  0
SPLINE
  5
6A0
330
1F
100
AcDbEntity
  8
Default
100
AcDbSpline
210
0.0
220
0.0
230
1.0
 70
    12
 71
     2
 72
     6
 73
     3
 74
     0
 42
0.000000001
 43
0.0000000001
 40
0.0
 40
0.0
 40
0.0
 40
6.233889429224446
 40
6.233889429224446
 40
6.233889429224446
 10
157.6749437665312
 20
-1529.444531912958
 30
0.0
 41
0.9999999519924591
 10
79.34439478554486
 20
-1542.078852155961
 30
0.0
 41
0.9967303545933507
 10
0.001176932008093
 20
-1541.931468622896
 30
0.0
 41
1.0
  0
SPLINE
  5
6A1
330
1F
100
AcDbEntity
  8
Default
100
AcDbSpline
210
0.0
220
0.0
230
1.0
 70
    12
 71
     2
 72
     6
 73
     3
 74
     0
 42
0.000000001
 43
0.0000000001
 40
-6.233889429224446
 40
-6.233889429224446
 40
-6.233889429224446
 40
0.0
 40
0.0
 40
0.0
 10
0.001176932008093
 20
-1541.931468622896
 30
0.0
 41
1.0
 10
-79.34262532368666
 20
-1542.078853241519
 30
0.0
 41
0.996730330589404
 10
-157.6737666760054
 20
-1529.444531912958
 30
0.0
 41
1.0
  0
SPLINE
  5
6A2
330
1F
100
AcDbEntity
  8
Default
100
AcDbSpline
210
0.0
220
0.0
230
1.0
 70
     8
 71
     3
 72
    12
 73
     8
 74
     0
 42
0.000000001
 43
0.0000000001
 40
0.0
 40
0.0
 40
0.0
 40
0.0
 40
0.8495817757806477
 40
1.391422022197968
 40
2.191064820612614
 40
2.689385262996221
 40
3.111933853859593
 40
3.111933853859593
 40
3.111933853859593
 40
3.111933853859593
 10
-157.6737666760054
 20
-1529.444531912958
 30
0.0
 10
-164.7803980780263
 20
-1528.172625034464
 30
0.0
 10
-176.3737793531727
 20
-1526.395658310174
 30
0.0
 10
-194.5825157251784
 20
-1522.549620264823
 30
0.0
 10
-209.5828074483179
 20
-1518.496393202843
 30
0.0
 10
-222.4219160067041
 20
-1510.753327332359
 30
0.0
 10
-224.3447506175544
 20
-1502.155710878719
 30
0.0
 10
-223.2334795066745
 20
-1498.638779451523
 30
0.0
  0
SPLINE
  5
6A3
330
1F
100
AcDbEntity
  8
Default
100
AcDbSpline
210
0.0
220
0.0
230
1.0
 70
    12
 71
     2
 72
     6
 73
     3
 74
     0
 42
0.000000001
 43
0.0000000001
 40
0.0
 40
0.0
 40
0.0
 40
0.443505275079806
 40
0.443505275079806
 40
0.443505275079806
 10
-223.2334795066745
 20
-1498.638779451523
 30
0.0
 41
1.0
 10
-221.6079920259836
 20
-1493.012672520237
 30
0.0
 41
0.9799943751373794
 10
-218.0055186436403
 20
-1488.583649772505
 30
0.0
 41
1.0
  0
SPLINE
  5
6A4
330
1F
100
AcDbEntity
  8
Default
100
AcDbSpline
210
0.0
220
0.0
230
1.0
 70
    12
 71
     2
 72
     6
 73
     3
 74
     0
 42
0.000000001
 43
0.0000000001
 40
-5.654573080352872
 40
-5.654573080352872
 40
-5.654573080352872
 40
0.0
 40
0.0
 40
0.0
 10
-142.9817446030392
 20
-1531.812651941875
 30
0.0
 41
1.0
 10
-71.96746714675464
 20
-1543.491985743682
 30
0.0
 41
0.9967681786255456
 10
0.001176932008093
 20
-1543.648045152762
 30
0.0
 41
1.0
  0
SPLINE
  5
6A5
330
1F
100
AcDbEntity
  8
Default
100
AcDbSpline
210
0.0
220
0.0
230
1.0
 70
    12
 71
     2
 72
     6
 73
     3
 74
     0
 42
0.000000001
 43
0.0000000001
 40
0.0
 40
0.0
 40
0.0
 40
5.654573080352872
 40
5.654573080352872
 40
5.654573080352872
 10
0.001176932008093
 20
-1543.648045152762
 30
0.0
 41
1.0
 10
71.96982101078538
 20
-1543.491985743682
 30
0.0
 41
0.9967681786255456
 10
142.9840984670627
 20
-1531.812651941875
 30
0.0
 41
1.0
  0
SPLINE
  5
6A6
330
1F
100
AcDbEntity
  8
Default
100
AcDbSpline
210
0.0
220
0.0
230
1.0
 70
    12
 71
     2
 72
     6
 73
     3
 74
     0
 42
0.000000001
 43
0.0000000001
 40
-1.102413928352738
 40
-1.102413928352738
 40
-1.102413928352738
 40
0.0
 40
0.0
 40
0.0
 10
-311.6269915457342
 20
-1127.861478759851
 30
0.0
 41
0.9999999993925147
 10
-325.6358404694875
 20
-1127.706246510572
 30
0.0
 41
0.9999999996616539
 10
-339.6457224670412
 20
-1127.551174745129
 30
0.0
 41
1.0
  0
SPLINE
  5
6A7
330
1F
100
AcDbEntity
  8
Default
100
AcDbSpline
210
0.0
220
0.0
230
1.0
 70
     8
 71
     3
 72
    14
 73
    10
 74
     0
 42
0.000000001
 43
0.0000000001
 40
0.0
 40
0.0
 40
0.0
 40
0.0
 40
1.0
 40
2.0
 40
3.0
 40
4.0
 40
5.0
 40
6.0
 40
7.0
 40
7.0
 40
7.0
 40
7.0
 10
-339.6457224670412
 20
-1127.551174745129
 30
0.0
 10
-341.4314850383926
 20
-1127.524507571574
 30
0.0
 10
-344.800437975482
 20
-1127.008962080568
 30
0.0
 10
-349.432818138961
 20
-1124.830026721096
 30
0.0
 10
-352.8570186252073
 20
-1120.781394563825
 30
0.0
 10
-352.771234842232
 20
-1115.366432954261
 30
0.0
 10
-349.2667634819263
 20
-1111.400061160346
 30
0.0
 10
-344.6086758854544
 20
-1109.281177042953
 30
0.0
 10
-341.2346084138007
 20
-1108.80091339816
 30
0.0
 10
-339.5471998414905
 20
-1108.8001553827
 30
0.0
  0
SPLINE
  5
6A8
330
1F
100
AcDbEntity
  8
Default
100
AcDbSpline
210
0.0
220
0.0
230
1.0
 70
    12
 71
     2
 72
     6
 73
     3
 74
     0
 42
0.000000001
 43
0.0000000001
 40
0.0
 40
0.0
 40
0.0
 40
1.112498698414412
 40
1.112498698414412
 40
1.112498698414412
 10
-339.5471998414905
 20
-1108.8001553827
 30
0.0
 41
1.0
 10
-325.4193251551442
 20
-1108.644379885978
 30
0.0
 41
0.9999999996585591
 10
-311.2914530863018
 20
-1108.488367177934
 30
0.0
 41
0.9999999993875963
  0
SPLINE
  5
6A9
330
1F
100
AcDbEntity
  8
Default
100
AcDbSpline
210
0.0
220
0.0
230
1.0
 70
    12
 71
     2
 72
     6
 73
     3
 74
     0
 42
0.000000001
 43
0.0000000001
 40
-1.281345128275034
 40
-1.281345128275034
 40
-1.281345128275034
 40
0.0
 40
0.0
 40
0.0
 10
-9.739118487235828
 20
-811.093248216634
 30
0.0
 41
0.9999999993069707
 10
-9.558660441845859
 20
-794.8108383084022
 30
0.0
 41
0.9999999996067375
 10
-9.378419203891098
 20
-778.5270327571729
 30
0.0
 41
1.0
  0
SPLINE
  5
6AA
330
1F
100
AcDbEntity
  8
Default
100
AcDbSpline
210
0.0
220
0.0
230
1.0
 70
     8
 71
     3
 72
    14
 73
    10
 74
     0
 42
0.000000001
 43
0.0000000001
 40
0.0
 40
0.0
 40
0.0
 40
0.0
 40
1.0
 40
2.0
 40
3.0
 40
4.0
 40
5.0
 40
6.0
 40
7.0
 40
7.0
 40
7.0
 40
7.0
 10
-9.378419203891098
 20
-778.5270327571729
 30
0.0
 10
-9.351752030332136
 20
-776.7412701858289
 30
0.0
 10
-8.836206539326667
 20
-773.3723172487357
 30
0.0
 10
-6.657271179854433
 20
-768.7399370852603
 30
0.0
 10
-2.60863902258643
 20
-765.3157365990105
 30
0.0
 10
2.806322586980968
 20
-765.4015203819822
 30
0.0
 10
6.772694380899338
 20
-768.9059917422878
 30
0.0
 10
8.891578498292801
 20
-773.5640793387597
 30
0.0
 10
9.371842143085814
 20
-776.938146810417
 30
0.0
 10
9.372600158541899
 20
-778.6255553827309
 30
0.0
  0
SPLINE
  5
6AB
330
1F
100
AcDbEntity
  8
Default
100
AcDbSpline
210
0.0
220
0.0
230
1.0
 70
    12
 71
     2
 72
     6
 73
     3
 74
     0
 42
0.000000001
 43
0.0000000001
 40
0.0
 40
0.0
 40
0.0
 40
1.278324852146924
 40
1.278324852146924
 40
1.278324852146924
 10
9.372600158541899
 20
-778.6255553827309
 30
0.0
 41
1.0
 10
9.551595144428574
 20
-794.8592942142736
 30
0.0
 41
0.9999999996076647
 10
9.730903328225394
 20
-811.0930295894418
 30
0.0
 41
0.9999999993083845
  0
SPLINE
  5
6AC
330
1F
100
AcDbEntity
  8
Default
100
AcDbSpline
210
0.0
220
0.0
230
1.0
 70
     8
 71
     3
 72
    27
 73
    23
 74
     0
 42
0.000000001
 43
0.0000000001
 40
0.0
 40
0.0
 40
0.0
 40
0.0
 40
1.0
 40
2.0
 40
3.0
 40
4.0
 40
5.0
 40
6.0
 40
7.0
 40
8.0
 40
9.0
 40
10.0
 40
11.0
 40
12.0
 40
12.0
 40
12.0
 40
13.0
 40
14.0
 40
15.0
 40
16.0
 40
17.0
 40
17.59035361248205
 40
17.59035361248205
 40
17.59035361248205
 40
17.59035361248205
 10
218.0055189606683
 20
-1488.583649772505
 30
0.0
 10
216.5829019627963
 20
-1486.834628370778
 30
0.0
 10
209.8919013882587
 20
-1479.872817078524
 30
0.0
 10
205.9312427372024
 20
-1474.385918749073
 30
0.0
 10
202.4767072060895
 20
-1468.55833841369
 30
0.0
 10
199.5354177688459
 20
-1462.477081723808
 30
0.0
 10
196.5831779790642
 20
-1456.353301591791
 30
0.0
 10
195.43535023613
 20
-1449.612766975055
 30
0.0
 10
196.3680326961439
 20
-1442.859303920921
 30
0.0
 10
198.1946524843552
 20
-1436.345573200424
 30
0.0
 10
200.5948724778682
 20
-1430.015838482874
 30
0.0
 10
203.3440037872751
 20
-1423.83529717471
 30
0.0
 10
206.3064932065645
 20
-1417.754506047832
 30
0.0
 10
208.3662277034273
 20
-1413.743477002538
 30
0.0
 10
209.4012809399028
 20
-1411.740698314503
 30
0.0
 10
214.4653815885358
 20
-1401.988759734863
 30
0.0
 10
224.3126731463017
 20
-1382.336107324578
 30
0.0
 10
237.8513596022785
 20
-1352.272194639553
 30
0.0
 10
250.5789278554766
 20
-1321.859839848001
 30
0.0
 10
262.5198411620113
 20
-1291.129542735797
 30
0.0
 10
272.2396940567596
 20
-1264.374350368709
 30
0.0
 10
277.95225186057
 20
-1247.858233899604
 30
0.0
 10
280.0404466142463
 20
-1241.71629107942
 30
0.0
  0
SPLINE
  5
6AD
330
1F
100
AcDbEntity
  8
Default
100
AcDbSpline
210
0.0
220
0.0
230
1.0
 70
     8
 71
     3
 72
    59
 73
    55
 74
     0
 42
0.000000001
 43
0.0000000001
 40
26.00996749817882
 40
26.00996749817882
 40
26.00996749817882
 40
26.00996749817882
 40
27.0
 40
28.0
 40
29.0
 40
30.0
 40
31.0
 40
32.0
 40
33.0
 40
34.0
 40
35.0
 40
36.0
 40
36.0
 40
36.0
 40
37.0
 40
38.0
 40
39.0
 40
40.0
 40
41.0
 40
42.0
 40
43.0
 40
44.0
 40
45.0
 40
46.0
 40
47.0
 40
48.0
 40
49.0
 40
50.0
 40
51.0
 40
52.0
 40
53.0
 40
53.0
 40
53.0
 40
54.0
 40
55.0
 40
56.0
 40
57.0
 40
58.0
 40
59.0
 40
60.0
 40
60.0
 40
60.0
 40
61.0
 40
62.0
 40
63.0
 40
64.0
 40
65.0
 40
66.0
 40
67.0
 40
68.0
 40
69.0
 40
70.0
 40
71.0
 40
72.0
 40
72.0
 40
72.0
 40
72.0
 10
276.3277364965215
 20
-966.757726787428
 30
0.0
 10
271.6903103988916
 20
-956.7042230373976
 30
0.0
 10
260.8399581822341
 20
-937.1979633305587
 30
0.0
 10
240.6941173445048
 20
-910.4151983422038
 30
0.0
 10
217.2335153949571
 20
-886.3227813727158
 30
0.0
 10
190.815375391754
 20
-865.5264163123124
 30
0.0
 10
162.161088509918
 20
-847.9524227052884
 30
0.0
 10
131.5648106419503
 20
-834.0284985916174
 30
0.0
 10
99.66108770824575
 20
-823.489166633381
 30
0.0
 10
66.87359419712084
 20
-816.1676076201461
 30
0.0
 10
33.55887048507066
 20
-811.8856075941499
 30
0.0
 10
11.18596141439411
 20
-810.9701043865012
 30
0.0
 10
0.0006239829999686
 20
-810.9890481863136
 30
0.0
 10
-11.1847134483869
 20
-810.9701043865012
 30
0.0
 10
-33.55762251907072
 20
-811.8856075941499
 30
0.0
 10
-66.8723462311209
 20
-816.1676076201461
 30
0.0
 10
-99.65983974223854
 20
-823.489166633381
 30
0.0
 10
-131.5635626759503
 20
-834.0284985916174
 30
0.0
 10
-162.1598405439108
 20
-847.9524227052884
 30
0.0
 10
-190.8141274257541
 20
-865.5264163123124
 30
0.0
 10
-217.2322674289499
 20
-886.3227813727158
 30
0.0
 10
-240.6928693784976
 20
-910.4151983422038
 30
0.0
 10
-260.9058678915135
 20
-937.2872456915633
 30
0.0
 10
-277.2436022943475
 20
-966.7058786290713
 30
0.0
 10
-288.9176659945115
 20
-998.2581461905088
 30
0.0
 10
-296.5891454764169
 20
-1030.972427951967
 30
0.0
 10
-301.30260469719
 20
-1064.220260412904
 30
0.0
 10
-303.5707799788106
 20
-1097.725809781392
 30
0.0
 10
-303.6447058272643
 20
-1131.280292734324
 30
0.0
 10
-302.2704190654877
 20
-1164.859498620239
 30
0.0
 10
-297.9122935134983
 20
-1186.893328218963
 30
0.0
 10
-294.5055886622176
 20
-1197.555313044997
 30
0.0
 10
-291.1810863449609
 20
-1208.029001740719
 30
0.0
 10
-284.4289471373086
 20
-1228.944061221975
 30
0.0
 10
-273.7768207969602
 20
-1260.14320298879
 30
0.0
 10
-262.5198408449906
 20
-1291.129542735797
 30
0.0
 10
-250.5789275384486
 20
-1321.859839848001
 30
0.0
 10
-237.8513592852505
 20
-1352.272194639553
 30
0.0
 10
-224.3126728292809
 20
-1382.336107324578
 30
0.0
 10
-214.4653812715078
 20
-1401.988759734863
 30
0.0
 10
-209.401280622882
 20
-1411.740698314503
 30
0.0
 10
-208.3662273864065
 20
-1413.743477002538
 30
0.0
 10
-206.3064928895364
 20
-1417.754506047832
 30
0.0
 10
-203.3440034702471
 20
-1423.83529717471
 30
0.0
 10
-200.5948721608474
 20
-1430.015838482874
 30
0.0
 10
-198.1946521673344
 20
-1436.345573200424
 30
0.0
 10
-196.3680323791232
 20
-1442.859303920921
 30
0.0
 10
-195.435349919102
 20
-1449.612766975055
 30
0.0
 10
-196.5831776620362
 20
-1456.353301591791
 30
0.0
 10
-199.5354174518252
 20
-1462.477081723808
 30
0.0
 10
-202.4767068890688
 20
-1468.55833841369
 30
0.0
 10
-205.9312424201744
 20
-1474.385918749073
 30
0.0
 10
-209.8919010712307
 20
-1479.872817078524
 30
0.0
 10
-216.5829016457756
 20
-1486.834628370778
 30
0.0
 10
-218.0055186436403
 20
-1488.583649772505
 30
0.0
  0
SPLINE
  5
6AE
330
1F
100
AcDbEntity
  8
Default
100
AcDbSpline
210
0.0
220
0.0
230
1.0
 70
     8
 71
     3
 72
    15
 73
    11
 74
     0
 42
0.000000001
 43
0.0000000001
 40
0.0
 40
0.0
 40
0.0
 40
0.0
 40
0.2588469591229587
 40
0.6477254461891114
 40
1.024641027840087
 40
1.817983982162573
 40
2.582167143679937
 40
4.062052734317923
 40
7.850412104674
 40
8.912059032934525
 40
8.912059032934525
 40
8.912059032934525
 40
8.912059032934525
 10
196.5619438351823
 20
-1454.76303202797
 30
0.0
 10
196.3586355266561
 20
-1452.565249034209
 30
0.0
 10
197.3424647046158
 20
-1447.118043045424
 30
0.0
 10
200.505101175997
 20
-1439.027048972339
 30
0.0
 10
206.2026745031799
 20
-1427.11445865323
 30
0.0
 10
214.02533676245
 20
-1412.720074309253
 30
0.0
 10
225.2884065751314
 20
-1389.595977256047
 30
0.0
 10
246.9121423296929
 20
-1343.322879047259
 30
0.0
 10
267.3502428053507
 20
-1293.75336141691
 30
0.0
 10
282.2626474794779
 20
-1255.49905827056
 30
0.0
 10
285.4913295574042
 20
-1247.11140194418
 30
0.0
  0
SPLINE
  5
6AF
330
1F
100
AcDbEntity
  8
Default
100
AcDbSpline
210
0.0
220
0.0
230
1.0
 70
     8
 71
     3
 72
     8
 73
     4
 74
     0
 42
0.000000001
 43
0.0000000001
 40
20.3336008915702
 40
20.3336008915702
 40
20.3336008915702
 40
20.3336008915702
 40
21.82793658798906
 40
21.82793658798906
 40
21.82793658798906
 40
21.82793658798906
 10
276.8579794624493
 20
-966.1843295892527
 30
0.0
 10
271.1908219767029
 20
-954.8828839156872
 30
0.0
 10
264.7775689651353
 20
-943.9537620301075
 30
0.0
 10
257.5850012991468
 20
-933.5103095587751
 30
0.0
  0
SPLINE
  5
6B0
330
1F
100
AcDbEntity
  8
Default
100
AcDbSpline
210
0.0
220
0.0
230
1.0
 70
     8
 71
     3
 72
    11
 73
     7
 74
     0
 42
0.000000001
 43
0.0000000001
 40
3.534603541119151
 40
3.534603541119151
 40
3.534603541119151
 40
3.534603541119151
 40
3.940395698505355
 40
7.777415887162893
 40
11.58776424105037
 40
15.35286584350305
 40
15.35286584350305
 40
15.35286584350305
 40
15.35286584350305
 10
229.7066269791649
 20
-1152.010271854475
 30
0.0
 10
228.5699846840326
 20
-1155.251592257175
 30
0.0
 10
215.9919936644765
 20
-1188.90019715655
 30
0.0
 10
178.2900325418923
 20
-1247.39467852608
 30
0.0
 10
96.0993124338529
 20
-1302.0560566398
 30
0.0
 10
31.86292958695776
 20
-1314.123076596078
 30
0.0
 10
0.0006503608274215
 20
-1314.130792042213
 30
0.0
  0
SPLINE
  5
6B1
330
1F
100
AcDbEntity
  8
Default
100
AcDbSpline
210
0.0
220
0.0
230
1.0
 70
     8
 71
     3
 72
    12
 73
     8
 74
     0
 42
0.000000001
 43
0.0000000001
 40
0.0
 40
0.0
 40
0.0
 40
0.0
 40
1.918305221504867
 40
3.868777778011241
 40
7.624449324857683
 40
11.42846767657462
 40
15.35241906764609
 40
15.35241906764609
 40
15.35241906764609
 40
15.35241906764609
 10
0.0006503608274215
 20
-1314.130792042213
 30
0.0
 10
-16.23942579779032
 20
-1314.144271432417
 30
0.0
 10
-49.0016741649124
 20
-1310.974090603477
 30
0.0
 10
-111.128260085683
 20
-1292.328330917963
 30
0.0
 10
-179.1979189463854
 20
-1246.234789235592
 30
0.0
 10
-232.6517144274003
 20
-1162.67651751339
 30
0.0
 10
-244.4745621898801
 20
-1097.098623390694
 30
0.0
 10
-244.4740198303225
 20
-1063.891103737055
 30
0.0
  0
SPLINE
  5
6B2
330
1F
100
AcDbEntity
  8
Default
100
AcDbSpline
210
0.0
220
0.0
230
1.0
 70
     8
 71
     3
 72
    12
 73
     8
 74
     0
 42
0.000000001
 43
0.0000000001
 40
-14.89017236839833
 40
-14.89017236839833
 40
-14.89017236839833
 40
-14.89017236839833
 40
-11.21816917573749
 40
-7.516682162771167
 40
-3.774519558109396
 40
-1.88935509827327
 40
0.0
 40
0.0
 40
0.0
 40
0.0
 10
-244.4740198303225
 20
-1063.891103737055
 30
0.0
 10
-244.4823525778083
 20
-1032.797307211599
 30
0.0
 10
-231.6006665125278
 20
-970.3845429816851
 30
0.0
 10
-176.9397175032318
 20
-891.4712482565832
 30
0.0
 10
-109.2967631791362
 20
-847.8626495950035
 30
0.0
 10
-47.95406485092462
 20
-829.8870611362058
 30
0.0
 10
-15.99456011584334
 20
-826.8133202021877
 30
0.0
 10
0.0006514075539599
 20
-826.8115989229213
 30
0.0
  0
SPLINE
  5
6B3
330
1F
100
AcDbEntity
  8
Default
100
AcDbSpline
210
0.0
220
0.0
230
1.0
 70
     8
 71
     3
 72
    12
 73
     8
 74
     0
 42
0.000000001
 43
0.0000000001
 40
-14.89017233013332
 40
-14.89017233013332
 40
-14.89017233013332
 40
-14.89017233013332
 40
-11.11625270517792
 40
-7.371880431677227
 40
-3.66957874387039
 40
-1.832654236799995
 40
-1.682229782347938
 40
-1.682229782347938
 40
-1.682229782347938
 40
-1.682229782347938
 10
0.0006514075539599
 20
-826.8115989229213
 30
0.0
 10
31.95317877749403
 20
-826.8171892776468
 30
0.0
 10
95.60699289532568
 20
-839.0298903735333
 30
0.0
 10
176.967003423244
 20
-891.4905737039612
 30
0.0
 10
222.6029438537771
 20
-957.4023426931985
 30
0.0
 10
237.0230618225942
 20
-1003.640256378391
 30
0.0
 10
240.2676166258352
 20
-1020.151174500379
 30
0.0
 10
240.5028934011025
 20
-1021.402807391243
 30
0.0
  0
SPLINE
  5
6B4
330
1F
100
AcDbEntity
  8
Default
100
AcDbSpline
210
0.0
220
0.0
230
1.0
 70
     8
 71
     3
 72
    12
 73
     8
 74
     0
 42
0.000000001
 43
0.0000000001
 40
0.0
 40
0.0
 40
0.0
 40
0.0
 40
0.1510110321465192
 40
0.3037660471064116
 40
0.5900965017365678
 40
0.8249401141264362
 40
1.014583801502342
 40
1.014583801502342
 40
1.014583801502342
 40
1.014583801502342
 10
767.1702537887926
 20
10.20658430854752
 30
0.0
 10
765.8971997835638
 20
10.33145635648913
 30
0.0
 10
763.3241834856112
 20
10.42873273019728
 30
0.0
 10
758.3344088829931
 20
9.991550871422132
 30
0.0
 10
752.7935697053385
 20
8.456061524022569
 30
0.0
 10
747.6918586881679
 20
5.033466694734722
 30
0.0
 10
746.047347722028
 20
1.634508891849743
 30
0.0
 10
746.0791861061247
 20
0.0000000126274764
 30
0.0
  0
SPLINE
  5
6B5
330
1F
100
AcDbEntity
  8
Default
100
AcDbSpline
210
0.0
220
0.0
230
1.0
 70
     8
 71
     3
 72
    12
 73
     8
 74
     0
 42
0.000000001
 43
0.0000000001
 40
-1.014583801502342
 40
-1.014583801502342
 40
-1.014583801502342
 40
-1.014583801502342
 40
-0.8249401141264362
 40
-0.5900965017365678
 40
-0.3037660471064116
 40
-0.1510110321465192
 40
0.0
 40
0.0
 40
0.0
 40
0.0
 10
746.0791861061247
 20
0.0000000126274764
 30
0.0
 10
746.047347722028
 20
-1.634508866587514
 30
0.0
 10
747.6918586881679
 20
-5.033466669479769
 30
0.0
 10
752.7935697053385
 20
-8.456061498767613
 30
0.0
 10
758.3344088829931
 20
-9.991550846167173
 30
0.0
 10
763.3241834856112
 20
-10.42873270494232
 30
0.0
 10
765.8971997835638
 20
-10.33145633123416
 30
0.0
 10
767.1702537887926
 20
-10.20658428329255
 30
0.0
  0
SPLINE
  5
6B6
330
1F
100
AcDbEntity
  8
Default
100
AcDbSpline
210
0.0
220
0.0
230
1.0
 70
    12
 71
     2
 72
     6
 73
     3
 74
     0
 42
0.000000001
 43
0.0000000001
 40
0.0
 40
0.0
 40
0.0
 40
0.1369528492222414
 40
0.1369528492222414
 40
0.1369528492222414
 10
776.8059143253144
 20
9.337313909429271
 30
0.0
 41
1.0
 10
775.0670220634369
 20
9.301003704731614
 30
0.0
 41
0.9999966913238282
 10
773.3271414846845
 20
9.320096044426522
 30
0.0
 41
0.9999959461296658
  0
ARC
  5
6B7
330
1F
100
AcDbEntity
  8
Default
100
AcDbCircle
 10
773.1182936067839
 20
22.01837870641981
 30
0.0
 40
12.7
100
AcDbArc
 50
258.4871521735321
 51
270.9422552251408
  0
SPLINE
  5
6B8
330
1F
100
AcDbEntity
  8
Default
100
AcDbSpline
210
0.0
220
0.0
230
1.0
 70
     8
 71
     3
 72
    14
 73
    10
 74
     0
 42
0.000000001
 43
0.0000000001
 40
0.2772630823298201
 40
0.2772630823298201
 40
0.2772630823298201
 40
0.2772630823298201
 40
1.0
 40
2.0
 40
3.0
 40
4.0
 40
5.0
 40
6.0
 40
7.0
 40
7.0
 40
7.0
 40
7.0
 10
770.5835302656655
 20
9.573903032269356
 30
0.0
 10
769.5737866589284
 20
9.779573495641727
 30
0.0
 10
767.1448918974988
 20
10.16225596263763
 30
0.0
 10
763.2547661562116
 20
10.28268673841745
 30
0.0
 10
758.9932477884708
 20
9.825121139507301
 30
0.0
 10
754.8341045856818
 20
8.770275292994536
 30
0.0
 10
750.9258691985474
 20
6.979870588893444
 30
0.0
 10
747.5994981762765
 20
4.183200849216571
 30
0.0
 10
746.4509050075089
 20
1.439760939905733
 30
0.0
 10
746.4637956524625
 20
-0.0000125999976651
 30
0.0
  0
SPLINE
  5
6B9
330
1F
100
AcDbEntity
  8
Default
100
AcDbSpline
210
0.0
220
0.0
230
1.0
 70
     8
 71
     3
 72
    14
 73
    10
 74
     0
 42
0.000000001
 43
0.0000000001
 40
-7.0
 40
-7.0
 40
-7.0
 40
-7.0
 40
-6.0
 40
-5.0
 40
-4.0
 40
-3.0
 40
-2.0
 40
-1.0
 40
-0.2482205602640466
 40
-0.2482205602640466
 40
-0.2482205602640466
 40
-0.2482205602640466
 10
746.4637956524625
 20
-0.0000125999976651
 30
0.0
 10
746.4509050075089
 20
-1.439786139901064
 30
0.0
 10
747.5994981762765
 20
-4.183226049219176
 30
0.0
 10
750.9258691985474
 20
-6.979895788888772
 30
0.0
 10
754.8341045856818
 20
-8.770300492989864
 30
0.0
 10
758.9932477884708
 20
-9.825146339502625
 30
0.0
 10
763.2547661562116
 20
-10.28271193841277
 30
0.0
 10
767.1863865648506
 20
-10.1609965679126
 30
0.0
 10
769.6556718021152
 20
-9.766608792884596
 30
0.0
 10
770.7052121139736
 20
-9.548916171010148
 30
0.0
  0
ARC
  5
6BA
330
1F
100
AcDbEntity
  8
Default
100
AcDbCircle
 10
773.284510591579
 20
-21.98423761291264
 30
0.0
 40
12.7
100
AcDbArc
 50
88.97757980795097
 51
101.7179678781598
  0
SPLINE
  5
6BB
330
1F
100
AcDbEntity
  8
Default
100
AcDbSpline
210
0.0
220
0.0
230
1.0
 70
    12
 71
     2
 72
     6
 73
     3
 74
     0
 42
0.000000001
 43
0.0000000001
 40
-0.1297405451143296
 40
-0.1297405451143296
 40
-0.1297405451143296
 40
0.0
 40
0.0
 40
0.0
 10
773.5111249677052
 20
-9.286259587865002
 30
0.0
 41
0.9999960316975588
 10
775.1585680321463
 20
-9.315660669013537
 30
0.0
 41
0.999996865512317
 10
776.8059143253144
 20
-9.350059281528897
 30
0.0
 41
1.0
  0
SPLINE
  5
6BC
330
1F
100
AcDbEntity
  8
Default
100
AcDbSpline
210
0.0
220
0.0
230
1.0
 70
    12
 71
     2
 72
     6
 73
     3
 74
     0
 42
0.000000001
 43
0.0000000001
 40
0.0
 40
0.0
 40
0.0
 40
0.0853474550214741
 40
0.0853474550214741
 40
0.0853474550214741
 10
766.280074682802
 20
-10.28178461606507
 30
0.0
 41
1.0
 10
765.1983842254144
 20
-10.35766401631184
 30
0.0
 41
0.9993970637774639
 10
764.1140357877179
 20
-10.35829222268143
 30
0.0
 41
1.0
  0
SPLINE
  5
6BD
330
1F
100
AcDbEntity
  8
Default
100
AcDbSpline
210
0.0
220
0.0
230
1.0
 70
    12
 71
     2
 72
     6
 73
     3
 74
     0
 42
0.000000001
 43
0.0000000001
 40
0.0
 40
0.0
 40
0.0
 40
0.0853474550214741
 40
0.0853474550214741
 40
0.0853474550214741
 10
1128.454540157304
 20
-351.892680541412
 30
0.0
 41
1.0
 10
1128.530419557558
 20
-352.9743709987996
 30
0.0
 41
0.9993970637774639
 10
1128.531047763916
 20
-354.058719436496
 30
0.0
 41
1.0
  0
SPLINE
  5
6BE
330
1F
100
AcDbEntity
  8
Default
100
AcDbSpline
210
0.0
220
0.0
230
1.0
 70
     8
 71
     3
 72
    12
 73
     8
 74
     0
 42
0.000000001
 43
0.0000000001
 40
0.0
 40
0.0
 40
0.0
 40
0.0
 40
0.1510110321465192
 40
0.3037660471064116
 40
0.5900965017365678
 40
0.8249401141264362
 40
1.014583801502342
 40
1.014583801502342
 40
1.014583801502342
 40
1.014583801502342
 10
1107.966171232698
 20
-351.0025014354213
 30
0.0
 10
1107.841299184757
 20
-352.2755554406503
 30
0.0
 10
1107.744022811045
 20
-354.8485717386028
 30
0.0
 10
1108.181204669813
 20
-359.8383463412209
 30
0.0
 10
1109.71669401722
 20
-365.3791855188791
 30
0.0
 10
1113.139288846504
 20
-370.4808965360461
 30
0.0
 10
1116.538246649396
 20
-372.1254075021897
 30
0.0
 10
1118.172755528615
 20
-372.0935691180892
 30
0.0
  0
SPLINE
  5
6BF
330
1F
100
AcDbEntity
  8
Default
100
AcDbSpline
210
0.0
220
0.0
230
1.0
 70
     8
 71
     3
 72
    12
 73
     8
 74
     0
 42
0.000000001
 43
0.0000000001
 40
-1.014583801502342
 40
-1.014583801502342
 40
-1.014583801502342
 40
-1.014583801502342
 40
-0.8249401141264362
 40
-0.5900965017365678
 40
-0.3037660471064116
 40
-0.1510110321465192
 40
0.0
 40
0.0
 40
0.0
 40
0.0
 10
1118.172755528615
 20
-372.0935691180892
 30
0.0
 10
1119.807264407833
 20
-372.1254075021897
 30
0.0
 10
1123.206222210725
 20
-370.4808965360461
 30
0.0
 10
1126.62881704001
 20
-365.3791855188791
 30
0.0
 10
1128.164306387416
 20
-359.8383463412209
 30
0.0
 10
1128.601488246181
 20
-354.8485717386028
 30
0.0
 10
1128.504211872473
 20
-352.2755554406503
 30
0.0
 10
1128.379339824531
 20
-351.0025014354213
 30
0.0
  0
SPLINE
  5
6C0
330
1F
100
AcDbEntity
  8
Default
100
AcDbSpline
210
0.0
220
0.0
230
1.0
 70
    12
 71
     2
 72
     6
 73
     3
 74
     0
 42
0.000000001
 43
0.0000000001
 40
0.0
 40
0.0
 40
0.0
 40
0.1369528492222414
 40
0.1369528492222414
 40
0.1369528492222414
 10
1108.835441631813
 20
-341.3668408988996
 30
0.0
 41
1.0
 10
1108.871751836514
 20
-343.1057331607771
 30
0.0
 41
0.9999966913238282
 10
1108.852659496815
 20
-344.8456137395295
 30
0.0
 41
0.9999959461296658
  0
ARC
  5
6C1
330
1F
100
AcDbEntity
  8
Default
100
AcDbCircle
 10
1096.154376834822
 20
-345.0544616174337
 30
0.0
 40
12.7
100
AcDbArc
 50
348.4871521735322
 51
0.9422552251277942
  0
SPLINE
  5
6C2
330
1F
100
AcDbEntity
  8
Default
100
AcDbSpline
210
0.0
220
0.0
230
1.0
 70
     8
 71
     3
 72
    14
 73
    10
 74
     0
 42
0.000000001
 43
0.0000000001
 40
0.2772630823298201
 40
0.2772630823298201
 40
0.2772630823298201
 40
0.2772630823298201
 40
1.0
 40
2.0
 40
3.0
 40
4.0
 40
5.0
 40
6.0
 40
7.0
 40
7.0
 40
7.0
 40
7.0
 10
1108.598852508973
 20
-347.5892249585557
 30
0.0
 10
1108.3931820456
 20
-348.5989685652929
 30
0.0
 10
1108.010499578604
 20
-351.0278633267188
 30
0.0
 10
1107.890068802821
 20
-354.917989068006
 30
0.0
 10
1108.347634401738
 20
-359.1795074357468
 30
0.0
 10
1109.402480248251
 20
-363.3386506385394
 30
0.0
 10
1111.192884952349
 20
-367.2468860256667
 30
0.0
 10
1113.989554692022
 20
-370.5732570479412
 30
0.0
 10
1116.732994601333
 20
-371.7218502167051
 30
0.0
 10
1118.17276814124
 20
-371.7089595717515
 30
0.0
  0
SPLINE
  5
6C3
330
1F
100
AcDbEntity
  8
Default
100
AcDbSpline
210
0.0
220
0.0
230
1.0
 70
     8
 71
     3
 72
    14
 73
    10
 74
     0
 42
0.000000001
 43
0.0000000001
 40
-7.0
 40
-7.0
 40
-7.0
 40
-7.0
 40
-6.0
 40
-5.0
 40
-4.0
 40
-3.0
 40
-2.0
 40
-1.0
 40
-0.2482205602640466
 40
-0.2482205602640466
 40
-0.2482205602640466
 40
-0.2482205602640466
 10
1118.17276814124
 20
-371.7089595717515
 30
0.0
 10
1119.612541681147
 20
-371.7218502167051
 30
0.0
 10
1122.355981590458
 20
-370.5732570479412
 30
0.0
 10
1125.152651330131
 20
-367.2468860256667
 30
0.0
 10
1126.943056034228
 20
-363.3386506385394
 30
0.0
 10
1127.997901880745
 20
-359.1795074357468
 30
0.0
 10
1128.455467479658
 20
-354.917989068006
 30
0.0
 10
1128.333752109158
 20
-350.9863686593634
 30
0.0
 10
1127.939364334127
 20
-348.5170834221025
 30
0.0
 10
1127.721671712252
 20
-347.4675431102404
 30
0.0
  0
ARC
  5
6C4
330
1F
100
AcDbEntity
  8
Default
100
AcDbCircle
 10
1140.156993154155
 20
-344.8882446326351
 30
0.0
 40
12.7
100
AcDbArc
 50
178.9775798079509
 51
191.7179678781598
  0
SPLINE
  5
6C5
330
1F
100
AcDbEntity
  8
Default
100
AcDbSpline
210
0.0
220
0.0
230
1.0
 70
    12
 71
     2
 72
     6
 73
     3
 74
     0
 42
0.000000001
 43
0.0000000001
 40
-0.1297405451143296
 40
-0.1297405451143296
 40
-0.1297405451143296
 40
0.0
 40
0.0
 40
0.0
 10
1127.459015129111
 20
-344.6616302565125
 30
0.0
 41
0.9999960316975588
 10
1127.488416210252
 20
-343.0141871920676
 30
0.0
 41
0.999996865512317
 10
1127.522814822764
 20
-341.3668408988996
 30
0.0
 41
1.0
  0
SPLINE
  5
6C6
330
1F
100
AcDbEntity
  8
Default
100
AcDbSpline
210
0.0
220
0.0
230
1.0
 70
    12
 71
     2
 72
     6
 73
     3
 74
     0
 42
0.000000001
 43
0.0000000001
 40
0.0
 40
0.0
 40
0.0
 40
0.0587632096241838
 40
0.0587632096241838
 40
0.0587632096241838
 10
746.5867614083094
 20
-1.476650273249054
 30
0.0
 41
1.0
 10
746.3990596238714
 20
-0.7502618348116292
 30
0.0
 41
0.9921107855315545
 10
746.3979471690495
 20
-0.0000146183483073
 30
0.0
 41
1.0
  0
SPLINE
  5
6C7
330
1F
100
AcDbEntity
  8
Default
100
AcDbSpline
210
0.0
220
0.0
230
1.0
 70
    24
 71
     2
 72
     6
 73
     3
 74
     0
 42
0.000000001
 43
0.0000000001
 40
0.0
 40
0.0
 40
0.0
 40
0.0114467396849787
 40
0.0114467396849787
 40
0.0114467396849787
 10
746.3979471690313
 20
0.0000001562985355
 30
0.0
 10
746.25257357503
 20
0.0000000907785372
 30
0.0
 10
746.1071999810323
 20
0.0000000252512629
 30
0.0
  0
SPLINE
  5
6C8
330
1F
100
AcDbEntity
  8
Default
100
AcDbSpline
210
0.0
220
0.0
230
1.0
 70
    12
 71
     2
 72
     6
 73
     3
 74
     0
 42
0.000000001
 43
0.0000000001
 40
0.0
 40
0.0
 40
0.0
 40
0.0586712320260919
 40
0.0586712320260919
 40
0.0586712320260919
 10
746.3979471690313
 20
0.0000001562985355
 30
0.0
 41
1.0
 10
746.3990515915416
 20
0.7490612086149279
 30
0.0
 41
0.9921343149382712
 10
746.5861780828332
 20
1.474373111235815
 30
0.0
 41
1.0
  0
CIRCLE
  5
6C9
330
1F
100
AcDbEntity
  8
Default
100
AcDbCircle
 10
1102.275514025254
 20
423.4498965104395
 30
0.0
 40
200.0249999999998
  0
SPLINE
  5
6CA
330
1F
100
AcDbEntity
  8
Default
100
AcDbSpline
210
0.0
220
0.0
230
1.0
 70
     8
 71
     3
 72
    22
 73
    18
 74
     0
 42
0.000000001
 43
0.0000000001
 40
0.0
 40
0.0
 40
0.0
 40
0.0
 40
0.2588469591229587
 40
0.6477254461891114
 40
1.024641027840087
 40
1.817983982162573
 40
2.582167143679937
 40
4.062052734317923
 40
7.850412104674
 40
9.497260537102542
 40
10.543391206404
 40
10.8432833113025
 40
12.15829953678302
 40
13.34949093133962
 40
14.77372714428499
 40
17.25709974516987
 40
21.82793658798906
 40
21.82793658798906
 40
21.82793658798906
 40
21.82793658798906
 10
1454.76303202797
 20
-196.5619435181541
 30
0.0
 10
1452.565249034209
 20
-196.3586352096279
 30
0.0
 10
1447.118043045424
 20
-197.3424643875949
 30
0.0
 10
1439.027048972339
 20
-200.505100858976
 30
0.0
 10
1427.11445865323
 20
-206.2026741861517
 30
0.0
 10
1412.720074309253
 20
-214.0253364454291
 30
0.0
 10
1389.595977256047
 20
-225.2884062581031
 30
0.0
 10
1343.322879047259
 20
-246.9121420126647
 30
0.0
 10
1289.1706360267
 20
-269.2397545605598
 30
0.0
 10
1238.005092278576
 20
-289.0475311749359
 30
0.0
 10
1214.275559658758
 20
-297.9405658523572
 30
0.0
 10
1193.073019523601
 20
-305.5958809100665
 30
0.0
 10
1169.618238708712
 20
-310.1301611390989
 30
0.0
 10
1136.382355958105
 20
-311.8788726342863
 30
0.0
 10
1093.170928070091
 20
-311.4186766518068
 30
0.0
 10
1021.766933788355
 20
-302.286116415711
 30
0.0
 10
965.454482100859
 20
-279.5854479773733
 30
0.0
 10
933.5103095587751
 20
-257.5850009821187
 30
0.0
  0
SPLINE
  5
6CB
330
1F
100
AcDbEntity
  8
Default
100
AcDbSpline
210
0.0
220
0.0
230
1.0
 70
     8
 71
     3
 72
    19
 73
    15
 74
     0
 42
0.000000001
 43
0.0000000001
 40
-12.0
 40
-12.0
 40
-12.0
 40
-12.0
 40
-11.0
 40
-10.0
 40
-9.0
 40
-8.0
 40
-7.0
 40
-6.0
 40
-5.0
 40
-4.0
 40
-3.0
 40
-2.0
 40
-1.0
 40
0.0
 40
0.0
 40
0.0
 40
0.0
 10
1498.49918406876
 20
-223.1952048337514
 30
0.0
 10
1503.862904258624
 20
-220.0001540133487
 30
0.0
 10
1507.930466991626
 20
-207.1784696499778
 30
0.0
 10
1512.51695128509
 20
-189.0630576357541
 30
0.0
 10
1515.922512555122
 20
-170.2782084792959
 30
0.0
 10
1519.012456764549
 20
-151.5575181608399
 30
0.0
 10
1521.540721793348
 20
-132.7198968481641
 30
0.0
 10
1523.625972224198
 20
-113.8376903750575
 30
0.0
 10
1525.285884720486
 20
-94.91096381463625
 30
0.0
 10
1526.563752698307
 20
-75.95552832035514
 30
0.0
 10
1527.494395711487
 20
-56.979842258919
 30
0.0
 10
1528.11381287383
 20
-37.9916448683905
 30
0.0
 10
1528.457811230865
 20
-18.99658888695171
 30
0.0
 10
1528.527413982387
 20
-6.331394626485918
 30
0.0
 10
1528.52823151558
 20
0.0011769320083187
 30
0.0
  0
SPLINE
  5
6CC
330
1F
100
AcDbEntity
  8
Default
100
AcDbSpline
210
0.0
220
0.0
230
1.0
 70
     8
 71
     3
 72
    19
 73
    15
 74
     0
 42
0.000000001
 43
0.0000000001
 40
0.0
 40
0.0
 40
0.0
 40
0.0
 40
1.0
 40
2.0
 40
3.0
 40
4.0
 40
5.0
 40
6.0
 40
7.0
 40
8.0
 40
9.0
 40
10.0
 40
11.0
 40
12.0
 40
12.0
 40
12.0
 40
12.0
 10
1528.52823151558
 20
0.0011769320083187
 30
0.0
 10
1528.527413982387
 20
6.333748490509831
 30
0.0
 10
1528.457811230865
 20
18.99894275096835
 30
0.0
 10
1528.11381287383
 20
37.99399873241441
 30
0.0
 10
1527.494395711487
 20
56.98219612294292
 30
0.0
 10
1526.563752698307
 20
75.95788218437906
 30
0.0
 10
1525.285884720486
 20
94.91331767866745
 30
0.0
 10
1523.625972224198
 20
113.8400442390814
 30
0.0
 10
1521.540721793348
 20
132.7222507121953
 30
0.0
 10
1519.012456764549
 20
151.5598720248565
 30
0.0
 10
1515.922512555122
 20
170.2805623433271
 30
0.0
 10
1512.51695128509
 20
189.065411499778
 30
0.0
 10
1507.930466991626
 20
207.1808235140017
 30
0.0
 10
1503.862904258624
 20
220.0025078773799
 30
0.0
 10
1498.49918406876
 20
223.1975586977753
 30
0.0
  0
SPLINE
  5
6CD
330
1F
100
AcDbEntity
  8
Default
100
AcDbSpline
210
0.0
220
0.0
230
1.0
 70
    12
 71
     2
 72
     6
 73
     3
 74
     0
 42
0.000000001
 43
0.0000000001
 40
-0.443505275079806
 40
-0.443505275079806
 40
-0.443505275079806
 40
0.0
 40
0.0
 40
0.0
 10
1488.583649772505
 20
218.0055189606685
 30
0.0
 41
1.0
 10
1493.012672520237
 20
221.6079923430118
 30
0.0
 41
0.9799943751373794
 10
1498.638779451523
 20
223.2334798237027
 30
0.0
 41
1.0
  0
SPLINE
  5
6CE
330
1F
100
AcDbEntity
  8
Default
100
AcDbSpline
210
0.0
220
0.0
230
1.0
 70
     8
 71
     3
 72
    12
 73
     8
 74
     0
 42
0.000000001
 43
0.0000000001
 40
-3.111933853859593
 40
-3.111933853859593
 40
-3.111933853859593
 40
-3.111933853859593
 40
-2.689379093202719
 40
-2.191051374651839
 40
-1.391396900347014
 40
-0.8495487423131249
 40
0.0
 40
0.0
 40
0.0
 40
0.0
 10
1498.638779451523
 20
223.2334798237027
 30
0.0
 10
1502.155710878719
 20
224.3447509345827
 30
0.0
 10
1510.753327332359
 20
222.4219163237324
 30
0.0
 10
1518.496393202843
 20
209.5828077653461
 30
0.0
 10
1522.549620264823
 20
194.5825160422066
 30
0.0
 10
1526.395578551796
 20
176.3741572794063
 30
0.0
 10
1528.172508977541
 20
164.7811555751798
 30
0.0
 10
1529.444531912958
 20
157.6749437665314
 30
0.0
  0
SPLINE
  5
6CF
330
1F
100
AcDbEntity
  8
Default
100
AcDbSpline
210
0.0
220
0.0
230
1.0
 70
    12
 71
     2
 72
     6
 73
     3
 74
     0
 42
0.000000001
 43
0.0000000001
 40
0.0
 40
0.0
 40
0.0
 40
6.233889429224446
 40
6.233889429224446
 40
6.233889429224446
 10
1529.444531912958
 20
157.6749437665314
 30
0.0
 41
0.9999999519924591
 10
1542.078852155961
 20
79.34439478554509
 30
0.0
 41
0.9967303545933507
 10
1541.931468622896
 20
0.0011769320083217
 30
0.0
 41
1.0
  0
SPLINE
  5
6D0
330
1F
100
AcDbEntity
  8
Default
100
AcDbSpline
210
0.0
220
0.0
230
1.0
 70
    12
 71
     2
 72
     6
 73
     3
 74
     0
 42
0.000000001
 43
0.0000000001
 40
-6.233889429224446
 40
-6.233889429224446
 40
-6.233889429224446
 40
0.0
 40
0.0
 40
0.0
 10
1541.931468622896
 20
0.0011769320083217
 30
0.0
 41
1.0
 10
1542.078853241519
 20
-79.34262532368643
 30
0.0
 41
0.996730330589404
 10
1529.444531912958
 20
-157.6737666760052
 30
0.0
 41
1.0
  0
SPLINE
  5
6D1
330
1F
100
AcDbEntity
  8
Default
100
AcDbSpline
210
0.0
220
0.0
230
1.0
 70
     8
 71
     3
 72
    12
 73
     8
 74
     0
 42
0.000000001
 43
0.0000000001
 40
0.0
 40
0.0
 40
0.0
 40
0.0
 40
0.8495817757806477
 40
1.391422022197968
 40
2.191064820612614
 40
2.689385262996221
 40
3.111933853859593
 40
3.111933853859593
 40
3.111933853859593
 40
3.111933853859593
 10
1529.444531912958
 20
-157.6737666760052
 30
0.0
 10
1528.172625034464
 20
-164.7803980780261
 30
0.0
 10
1526.395658310174
 20
-176.3737793531725
 30
0.0
 10
1522.549620264823
 20
-194.5825157251781
 30
0.0
 10
1518.496393202843
 20
-209.5828074483177
 30
0.0
 10
1510.753327332359
 20
-222.4219160067039
 30
0.0
 10
1502.155710878719
 20
-224.3447506175542
 30
0.0
 10
1498.638779451523
 20
-223.2334795066742
 30
0.0
  0
SPLINE
  5
6D2
330
1F
100
AcDbEntity
  8
Default
100
AcDbSpline
210
0.0
220
0.0
230
1.0
 70
    12
 71
     2
 72
     6
 73
     3
 74
     0
 42
0.000000001
 43
0.0000000001
 40
0.0
 40
0.0
 40
0.0
 40
0.443505275079806
 40
0.443505275079806
 40
0.443505275079806
 10
1498.638779451523
 20
-223.2334795066742
 30
0.0
 41
1.0
 10
1493.012672520237
 20
-221.6079920259833
 30
0.0
 41
0.9799943751373794
 10
1488.583649772505
 20
-218.00551864364
 30
0.0
 41
1.0
  0
SPLINE
  5
6D3
330
1F
100
AcDbEntity
  8
Default
100
AcDbSpline
210
0.0
220
0.0
230
1.0
 70
    12
 71
     2
 72
     6
 73
     3
 74
     0
 42
0.000000001
 43
0.0000000001
 40
-5.654573080352872
 40
-5.654573080352872
 40
-5.654573080352872
 40
0.0
 40
0.0
 40
0.0
 10
1531.812651941875
 20
-142.981744603039
 30
0.0
 41
1.0
 10
1543.491985743682
 20
-71.96746714675441
 30
0.0
 41
0.9967681786255456
 10
1543.648045152762
 20
0.0011769320083221
 30
0.0
 41
1.0
  0
SPLINE
  5
6D4
330
1F
100
AcDbEntity
  8
Default
100
AcDbSpline
210
0.0
220
0.0
230
1.0
 70
    12
 71
     2
 72
     6
 73
     3
 74
     0
 42
0.000000001
 43
0.0000000001
 40
0.0
 40
0.0
 40
0.0
 40
5.654573080352872
 40
5.654573080352872
 40
5.654573080352872
 10
1543.648045152762
 20
0.0011769320083221
 30
0.0
 41
1.0
 10
1543.491985743682
 20
71.9698210107856
 30
0.0
 41
0.9967681786255456
 10
1531.812651941875
 20
142.9840984670629
 30
0.0
 41
1.0
  0
SPLINE
  5
6D5
330
1F
100
AcDbEntity
  8
Default
100
AcDbSpline
210
0.0
220
0.0
230
1.0
 70
    12
 71
     2
 72
     6
 73
     3
 74
     0
 42
0.000000001
 43
0.0000000001
 40
-1.102413928352738
 40
-1.102413928352738
 40
-1.102413928352738
 40
0.0
 40
0.0
 40
0.0
 10
1127.861478759851
 20
-311.6269915457341
 30
0.0
 41
0.9999999993925147
 10
1127.706246510572
 20
-325.6358404694873
 30
0.0
 41
0.9999999996616539
 10
1127.551174745129
 20
-339.6457224670411
 30
0.0
 41
1.0
  0
SPLINE
  5
6D6
330
1F
100
AcDbEntity
  8
Default
100
AcDbSpline
210
0.0
220
0.0
230
1.0
 70
     8
 71
     3
 72
    14
 73
    10
 74
     0
 42
0.000000001
 43
0.0000000001
 40
0.0
 40
0.0
 40
0.0
 40
0.0
 40
1.0
 40
2.0
 40
3.0
 40
4.0
 40
5.0
 40
6.0
 40
7.0
 40
7.0
 40
7.0
 40
7.0
 10
1127.551174745129
 20
-339.6457224670411
 30
0.0
 10
1127.524507571574
 20
-341.4314850383925
 30
0.0
 10
1127.008962080568
 20
-344.800437975482
 30
0.0
 10
1124.830026721096
 20
-349.4328181389609
 30
0.0
 10
1120.781394563825
 20
-352.8570186252072
 30
0.0
 10
1115.366432954261
 20
-352.7712348422318
 30
0.0
 10
1111.400061160346
 20
-349.2667634819262
 30
0.0
 10
1109.281177042953
 20
-344.6086758854543
 30
0.0
 10
1108.80091339816
 20
-341.2346084138006
 30
0.0
 10
1108.8001553827
 20
-339.5471998414904
 30
0.0
  0
SPLINE
  5
6D7
330
1F
100
AcDbEntity
  8
Default
100
AcDbSpline
210
0.0
220
0.0
230
1.0
 70
    12
 71
     2
 72
     6
 73
     3
 74
     0
 42
0.000000001
 43
0.0000000001
 40
0.0
 40
0.0
 40
0.0
 40
1.112498698414412
 40
1.112498698414412
 40
1.112498698414412
 10
1108.8001553827
 20
-339.5471998414904
 30
0.0
 41
1.0
 10
1108.644379885978
 20
-325.4193251551441
 30
0.0
 41
0.9999999996585591
 10
1108.488367177934
 20
-311.2914530863017
 30
0.0
 41
0.9999999993875963
  0
SPLINE
  5
6D8
330
1F
100
AcDbEntity
  8
Default
100
AcDbSpline
210
0.0
220
0.0
230
1.0
 70
    12
 71
     2
 72
     6
 73
     3
 74
     0
 42
0.000000001
 43
0.0000000001
 40
-1.281345128275034
 40
-1.281345128275034
 40
-1.281345128275034
 40
0.0
 40
0.0
 40
0.0
 10
811.093248216634
 20
-9.739118487235762
 30
0.0
 41
0.9999999993069707
 10
794.8108383084022
 20
-9.558660441845796
 30
0.0
 41
0.9999999996067375
 10
778.5270327571729
 20
-9.37841920389104
 30
0.0
 41
1.0
  0
SPLINE
  5
6D9
330
1F
100
AcDbEntity
  8
Default
100
AcDbSpline
210
0.0
220
0.0
230
1.0
 70
     8
 71
     3
 72
    14
 73
    10
 74
     0
 42
0.000000001
 43
0.0000000001
 40
0.0
 40
0.0
 40
0.0
 40
0.0
 40
1.0
 40
2.0
 40
3.0
 40
4.0
 40
5.0
 40
6.0
 40
7.0
 40
7.0
 40
7.0
 40
7.0
 10
778.5270327571729
 20
-9.37841920389104
 30
0.0
 10
776.7412701858289
 20
-9.351752030332077
 30
0.0
 10
773.3723172487357
 20
-8.836206539326608
 30
0.0
 10
768.7399370852603
 20
-6.657271179854376
 30
0.0
 10
765.3157365990105
 20
-2.608639022586374
 30
0.0
 10
765.4015203819822
 20
2.806322586981024
 30
0.0
 10
768.9059917422878
 20
6.772694380899395
 30
0.0
 10
773.5640793387597
 20
8.89157849829286
 30
0.0
 10
776.938146810417
 20
9.371842143085872
 30
0.0
 10
778.6255553827309
 20
9.372600158541958
 30
0.0
  0
SPLINE
  5
6DA
330
1F
100
AcDbEntity
  8
Default
100
AcDbSpline
210
0.0
220
0.0
230
1.0
 70
    12
 71
     2
 72
     6
 73
     3
 74
     0
 42
0.000000001
 43
0.0000000001
 40
0.0
 40
0.0
 40
0.0
 40
1.278324852146924
 40
1.278324852146924
 40
1.278324852146924
 10
778.6255553827309
 20
9.372600158541958
 30
0.0
 41
1.0
 10
794.8592942142736
 20
9.551595144428636
 30
0.0
 41
0.9999999996076647
 10
811.0930295894418
 20
9.73090332822546
 30
0.0
 41
0.9999999993083845
  0
SPLINE
  5
6DB
330
1F
100
AcDbEntity
  8
Default
100
AcDbSpline
210
0.0
220
0.0
230
1.0
 70
     8
 71
     3
 72
    27
 73
    23
 74
     0
 42
0.000000001
 43
0.0000000001
 40
0.0
 40
0.0
 40
0.0
 40
0.0
 40
1.0
 40
2.0
 40
3.0
 40
4.0
 40
5.0
 40
6.0
 40
7.0
 40
8.0
 40
9.0
 40
10.0
 40
11.0
 40
12.0
 40
12.0
 40
12.0
 40
13.0
 40
14.0
 40
15.0
 40
16.0
 40
17.0
 40
17.59035361248205
 40
17.59035361248205
 40
17.59035361248205
 40
17.59035361248205
 10
1488.583649772505
 20
218.0055189606685
 30
0.0
 10
1486.834628370778
 20
216.5829019627965
 30
0.0
 10
1479.872817078524
 20
209.8919013882589
 30
0.0
 10
1474.385918749073
 20
205.9312427372026
 30
0.0
 10
1468.55833841369
 20
202.4767072060897
 30
0.0
 10
1462.477081723808
 20
199.5354177688461
 30
0.0
 10
1456.353301591791
 20
196.5831779790644
 30
0.0
 10
1449.612766975055
 20
195.4353502361302
 30
0.0
 10
1442.859303920921
 20
196.3680326961441
 30
0.0
 10
1436.345573200424
 20
198.1946524843553
 30
0.0
 10
1430.015838482874
 20
200.5948724778684
 30
0.0
 10
1423.83529717471
 20
203.3440037872753
 30
0.0
 10
1417.754506047832
 20
206.3064932065647
 30
0.0
 10
1413.743477002538
 20
208.3662277034275
 30
0.0
 10
1411.740698314503
 20
209.401280939903
 30
0.0
 10
1401.988759734863
 20
214.465381588536
 30
0.0
 10
1382.336107324578
 20
224.3126731463019
 30
0.0
 10
1352.272194639553
 20
237.8513596022787
 30
0.0
 10
1321.859839848001
 20
250.5789278554768
 30
0.0
 10
1291.129542735797
 20
262.5198411620115
 30
0.0
 10
1264.374350368709
 20
272.2396940567598
 30
0.0
 10
1247.858233899604
 20
277.9522518605701
 30
0.0
 10
1241.71629107942
 20
280.0404466142465
 30
0.0
  0
SPLINE
  5
6DC
330
1F
100
AcDbEntity
  8
Default
100
AcDbSpline
210
0.0
220
0.0
230
1.0
 70
     8
 71
     3
 72
    59
 73
    55
 74
     0
 42
0.000000001
 43
0.0000000001
 40
26.00996749817882
 40
26.00996749817882
 40
26.00996749817882
 40
26.00996749817882
 40
27.0
 40
28.0
 40
29.0
 40
30.0
 40
31.0
 40
32.0
 40
33.0
 40
34.0
 40
35.0
 40
36.0
 40
36.0
 40
36.0
 40
37.0
 40
38.0
 40
39.0
 40
40.0
 40
41.0
 40
42.0
 40
43.0
 40
44.0
 40
45.0
 40
46.0
 40
47.0
 40
48.0
 40
49.0
 40
50.0
 40
51.0
 40
52.0
 40
53.0
 40
53.0
 40
53.0
 40
54.0
 40
55.0
 40
56.0
 40
57.0
 40
58.0
 40
59.0
 40
60.0
 40
60.0
 40
60.0
 40
61.0
 40
62.0
 40
63.0
 40
64.0
 40
65.0
 40
66.0
 40
67.0
 40
68.0
 40
69.0
 40
70.0
 40
71.0
 40
72.0
 40
72.0
 40
72.0
 40
72.0
 10
966.757726787428
 20
276.3277364965217
 30
0.0
 10
956.7042230373976
 20
271.6903103988917
 30
0.0
 10
937.1979633305587
 20
260.8399581822342
 30
0.0
 10
910.4151983422038
 20
240.6941173445049
 30
0.0
 10
886.3227813727158
 20
217.2335153949572
 30
0.0
 10
865.5264163123124
 20
190.8153753917541
 30
0.0
 10
847.9524227052884
 20
162.1610885099181
 30
0.0
 10
834.0284985916174
 20
131.5648106419504
 30
0.0
 10
823.489166633381
 20
99.66108770824583
 30
0.0
 10
816.1676076201461
 20
66.87359419712091
 30
0.0
 10
811.8856075941499
 20
33.55887048507072
 30
0.0
 10
810.9701043865012
 20
11.18596141439418
 30
0.0
 10
810.9890481863136
 20
0.000623983000035
 30
0.0
 10
810.9701043865012
 20
-11.18471344838683
 30
0.0
 10
811.8856075941499
 20
-33.55762251907066
 30
0.0
 10
816.1676076201461
 20
-66.87234623112082
 30
0.0
 10
823.489166633381
 20
-99.65983974223847
 30
0.0
 10
834.0284985916174
 20
-131.5635626759503
 30
0.0
 10
847.9524227052884
 20
-162.1598405439107
 30
0.0
 10
865.5264163123124
 20
-190.814127425754
 30
0.0
 10
886.3227813727158
 20
-217.2322674289498
 30
0.0
 10
910.4151983422038
 20
-240.6928693784975
 30
0.0
 10
937.2872456915633
 20
-260.9058678915133
 30
0.0
 10
966.7058786290713
 20
-277.2436022943474
 30
0.0
 10
998.2581461905088
 20
-288.9176659945114
 30
0.0
 10
1030.972427951967
 20
-296.5891454764168
 30
0.0
 10
1064.220260412904
 20
-301.3026046971898
 30
0.0
 10
1097.725809781392
 20
-303.5707799788105
 30
0.0
 10
1131.280292734324
 20
-303.6447058272642
 30
0.0
 10
1164.859498620239
 20
-302.2704190654875
 30
0.0
 10
1186.893328218963
 20
-297.9122935134981
 30
0.0
 10
1197.555313044997
 20
-294.5055886622175
 30
0.0
 10
1208.029001740719
 20
-291.1810863449608
 30
0.0
 10
1228.944061221975
 20
-284.4289471373084
 30
0.0
 10
1260.14320298879
 20
-273.7768207969601
 30
0.0
 10
1291.129542735797
 20
-262.5198408449904
 30
0.0
 10
1321.859839848001
 20
-250.5789275384485
 30
0.0
 10
1352.272194639553
 20
-237.8513592852503
 30
0.0
 10
1382.336107324578
 20
-224.3126728292807
 30
0.0
 10
1401.988759734863
 20
-214.4653812715076
 30
0.0
 10
1411.740698314503
 20
-209.4012806228819
 30
0.0
 10
1413.743477002538
 20
-208.3662273864063
 30
0.0
 10
1417.754506047832
 20
-206.3064928895363
 30
0.0
 10
1423.83529717471
 20
-203.3440034702469
 30
0.0
 10
1430.015838482874
 20
-200.5948721608473
 30
0.0
 10
1436.345573200424
 20
-198.1946521673342
 30
0.0
 10
1442.859303920921
 20
-196.368032379123
 30
0.0
 10
1449.612766975055
 20
-195.4353499191018
 30
0.0
 10
1456.353301591791
 20
-196.583177662036
 30
0.0
 10
1462.477081723808
 20
-199.535417451825
 30
0.0
 10
1468.55833841369
 20
-202.4767068890685
 30
0.0
 10
1474.385918749073
 20
-205.9312424201741
 30
0.0
 10
1479.872817078524
 20
-209.8919010712304
 30
0.0
 10
1486.834628370778
 20
-216.5829016457753
 30
0.0
 10
1488.583649772505
 20
-218.00551864364
 30
0.0
  0
SPLINE
  5
6DD
330
1F
100
AcDbEntity
  8
Default
100
AcDbSpline
210
0.0
220
0.0
230
1.0
 70
     8
 71
     3
 72
    15
 73
    11
 74
     0
 42
0.000000001
 43
0.0000000001
 40
0.0
 40
0.0
 40
0.0
 40
0.0
 40
0.2588469591229587
 40
0.6477254461891114
 40
1.024641027840087
 40
1.817983982162573
 40
2.582167143679937
 40
4.062052734317923
 40
7.850412104674
 40
8.912059032934525
 40
8.912059032934525
 40
8.912059032934525
 40
8.912059032934525
 10
1454.76303202797
 20
196.5619438351825
 30
0.0
 10
1452.565249034209
 20
196.3586355266563
 30
0.0
 10
1447.118043045424
 20
197.342464704616
 30
0.0
 10
1439.027048972339
 20
200.5051011759972
 30
0.0
 10
1427.11445865323
 20
206.2026745031801
 30
0.0
 10
1412.720074309253
 20
214.0253367624502
 30
0.0
 10
1389.595977256047
 20
225.2884065751316
 30
0.0
 10
1343.322879047259
 20
246.912142329693
 30
0.0
 10
1293.75336141691
 20
267.3502428053509
 30
0.0
 10
1255.49905827056
 20
282.262647479478
 30
0.0
 10
1247.11140194418
 20
285.4913295574044
 30
0.0
  0
SPLINE
  5
6DE
330
1F
100
AcDbEntity
  8
Default
100
AcDbSpline
210
0.0
220
0.0
230
1.0
 70
     8
 71
     3
 72
     8
 73
     4
 74
     0
 42
0.000000001
 43
0.0000000001
 40
20.3336008915702
 40
20.3336008915702
 40
20.3336008915702
 40
20.3336008915702
 40
21.82793658798906
 40
21.82793658798906
 40
21.82793658798906
 40
21.82793658798906
 10
966.1843295892527
 20
276.8579794624494
 30
0.0
 10
954.8828839156872
 20
271.190821976703
 30
0.0
 10
943.9537620301075
 20
264.7775689651354
 30
0.0
 10
933.5103095587751
 20
257.585001299147
 30
0.0
  0
SPLINE
  5
6DF
330
1F
100
AcDbEntity
  8
Default
100
AcDbSpline
210
0.0
220
0.0
230
1.0
 70
     8
 71
     3
 72
    11
 73
     7
 74
     0
 42
0.000000001
 43
0.0000000001
 40
3.534603541119151
 40
3.534603541119151
 40
3.534603541119151
 40
3.534603541119151
 40
3.940395698505355
 40
7.777415887162893
 40
11.58776424105037
 40
15.35286584350305
 40
15.35286584350305
 40
15.35286584350305
 40
15.35286584350305
 10
1152.010271854475
 20
229.706626979165
 30
0.0
 10
1155.251592257175
 20
228.5699846840327
 30
0.0
 10
1188.90019715655
 20
215.9919936644766
 30
0.0
 10
1247.39467852608
 20
178.2900325418924
 30
0.0
 10
1302.0560566398
 20
96.09931243385307
 30
0.0
 10
1314.123076596078
 20
31.86292958695794
 30
0.0
 10
1314.130792042213
 20
0.0006503608275996
 30
0.0
  0
SPLINE
  5
6E0
330
1F
100
AcDbEntity
  8
Default
100
AcDbSpline
210
0.0
220
0.0
230
1.0
 70
     8
 71
     3
 72
    12
 73
     8
 74
     0
 42
0.000000001
 43
0.0000000001
 40
0.0
 40
0.0
 40
0.0
 40
0.0
 40
1.918305221504867
 40
3.868777778011241
 40
7.624449324857683
 40
11.42846767657462
 40
15.35241906764609
 40
15.35241906764609
 40
15.35241906764609
 40
15.35241906764609
 10
1314.130792042213
 20
0.0006503608275996
 30
0.0
 10
1314.144271432417
 20
-16.23942579779014
 30
0.0
 10
1310.974090603477
 20
-49.00167416491222
 30
0.0
 10
1292.328330917963
 20
-111.1282600856828
 30
0.0
 10
1246.234789235592
 20
-179.1979189463853
 30
0.0
 10
1162.67651751339
 20
-232.6517144274002
 30
0.0
 10
1097.098623390694
 20
-244.47456218988
 30
0.0
 10
1063.891103737055
 20
-244.4740198303224
 30
0.0
  0
SPLINE
  5
6E1
330
1F
100
AcDbEntity
  8
Default
100
AcDbSpline
210
0.0
220
0.0
230
1.0
 70
     8
 71
     3
 72
    12
 73
     8
 74
     0
 42
0.000000001
 43
0.0000000001
 40
-14.89017236839833
 40
-14.89017236839833
 40
-14.89017236839833
 40
-14.89017236839833
 40
-11.21816917573749
 40
-7.516682162771167
 40
-3.774519558109396
 40
-1.88935509827327
 40
0.0
 40
0.0
 40
0.0
 40
0.0
 10
1063.891103737055
 20
-244.4740198303224
 30
0.0
 10
1032.797307211599
 20
-244.4823525778082
 30
0.0
 10
970.3845429816851
 20
-231.6006665125277
 30
0.0
 10
891.4712482565832
 20
-176.9397175032317
 30
0.0
 10
847.8626495950035
 20
-109.2967631791361
 30
0.0
 10
829.8870611362058
 20
-47.95406485092455
 30
0.0
 10
826.8133202021877
 20
-15.99456011584327
 30
0.0
 10
826.8115989229213
 20
0.0006514075540298
 30
0.0
  0
SPLINE
  5
6E2
330
1F
100
AcDbEntity
  8
Default
100
AcDbSpline
210
0.0
220
0.0
230
1.0
 70
     8
 71
     3
 72
    12
 73
     8
 74
     0
 42
0.000000001
 43
0.0000000001
 40
-14.89017233013332
 40
-14.89017233013332
 40
-14.89017233013332
 40
-14.89017233013332
 40
-11.11625270517792
 40
-7.371880431677227
 40
-3.66957874387039
 40
-1.832654236799995
 40
-1.682229782347938
 40
-1.682229782347938
 40
-1.682229782347938
 40
-1.682229782347938
 10
826.8115989229213
 20
0.0006514075540298
 30
0.0
 10
826.8171892776468
 20
31.9531787774941
 30
0.0
 10
839.0298903735333
 20
95.60699289532575
 30
0.0
 10
891.4905737039612
 20
176.9670034232441
 30
0.0
 10
957.4023426931985
 20
222.6029438537772
 30
0.0
 10
1003.640256378391
 20
237.0230618225943
 30
0.0
 10
1020.151174500379
 20
240.2676166258353
 30
0.0
 10
1021.402807391243
 20
240.5028934011026
 30
0.0
  0
SPLINE
  5
6E3
330
1F
100
AcDbEntity
  8
Default
100
AcDbSpline
210
0.0
220
0.0
230
1.0
 70
     8
 71
     3
 72
    12
 73
     8
 74
     0
 42
0.000000001
 43
0.0000000001
 40
0.0
 40
0.0
 40
0.0
 40
0.0
 40
0.1510110321465192
 40
0.3037660471064116
 40
0.5900965017365678
 40
0.8249401141264362
 40
1.014583801502342
 40
1.014583801502342
 40
1.014583801502342
 40
1.014583801502342
 10
-767.1702537887926
 20
-10.20658430854775
 30
0.0
 10
-765.8971997835638
 20
-10.33145635648935
 30
0.0
 10
-763.3241834856112
 20
-10.4287327301975
 30
0.0
 10
-758.3344088829931
 20
-9.99155087142236
 30
0.0
 10
-752.7935697053385
 20
-8.456061524022796
 30
0.0
 10
-747.6918586881679
 20
-5.03346669473495
 30
0.0
 10
-746.047347722028
 20
-1.63450889184997
 30
0.0
 10
-746.0791861061247
 20
-0.0000000126277038
 30
0.0
  0
SPLINE
  5
6E4
330
1F
100
AcDbEntity
  8
Default
100
AcDbSpline
210
0.0
220
0.0
230
1.0
 70
     8
 71
     3
 72
    12
 73
     8
 74
     0
 42
0.000000001
 43
0.0000000001
 40
-1.014583801502342
 40
-1.014583801502342
 40
-1.014583801502342
 40
-1.014583801502342
 40
-0.8249401141264362
 40
-0.5900965017365678
 40
-0.3037660471064116
 40
-0.1510110321465192
 40
0.0
 40
0.0
 40
0.0
 40
0.0
 10
-746.0791861061247
 20
-0.0000000126277038
 30
0.0
 10
-746.047347722028
 20
1.634508866587287
 30
0.0
 10
-747.6918586881679
 20
5.033466669479541
 30
0.0
 10
-752.7935697053385
 20
8.456061498767386
 30
0.0
 10
-758.3344088829931
 20
9.991550846166946
 30
0.0
 10
-763.3241834856112
 20
10.42873270494209
 30
0.0
 10
-765.8971997835638
 20
10.33145633123393
 30
0.0
 10
-767.1702537887926
 20
10.20658428329233
 30
0.0
  0
SPLINE
  5
6E5
330
1F
100
AcDbEntity
  8
Default
100
AcDbSpline
210
0.0
220
0.0
230
1.0
 70
    12
 71
     2
 72
     6
 73
     3
 74
     0
 42
0.000000001
 43
0.0000000001
 40
0.0
 40
0.0
 40
0.0
 40
0.1369528492222414
 40
0.1369528492222414
 40
0.1369528492222414
 10
-776.8059143253144
 20
-9.337313909429498
 30
0.0
 41
1.0
 10
-775.0670220634369
 20
-9.301003704731842
 30
0.0
 41
0.9999966913238282
 10
-773.3271414846845
 20
-9.320096044426749
 30
0.0
 41
0.9999959461296658
  0
ARC
  5
6E6
330
1F
100
AcDbEntity
  8
Default
100
AcDbCircle
 10
-773.1182936067839
 20
-22.01837870642004
 30
0.0
 40
12.7
100
AcDbArc
 50
78.48715217353213
 51
90.94225522514083
  0
SPLINE
  5
6E7
330
1F
100
AcDbEntity
  8
Default
100
AcDbSpline
210
0.0
220
0.0
230
1.0
 70
     8
 71
     3
 72
    14
 73
    10
 74
     0
 42
0.000000001
 43
0.0000000001
 40
0.2772630823298201
 40
0.2772630823298201
 40
0.2772630823298201
 40
0.2772630823298201
 40
1.0
 40
2.0
 40
3.0
 40
4.0
 40
5.0
 40
6.0
 40
7.0
 40
7.0
 40
7.0
 40
7.0
 10
-770.5835302656655
 20
-9.573903032269583
 30
0.0
 10
-769.5737866589284
 20
-9.779573495641955
 30
0.0
 10
-767.1448918974988
 20
-10.16225596263786
 30
0.0
 10
-763.2547661562116
 20
-10.28268673841768
 30
0.0
 10
-758.9932477884708
 20
-9.825121139507528
 30
0.0
 10
-754.8341045856818
 20
-8.770275292994764
 30
0.0
 10
-750.9258691985474
 20
-6.979870588893671
 30
0.0
 10
-747.5994981762765
 20
-4.183200849216798
 30
0.0
 10
-746.4509050075089
 20
-1.439760939905961
 30
0.0
 10
-746.4637956524625
 20
0.0000125999974378
 30
0.0
  0
SPLINE
  5
6E8
330
1F
100
AcDbEntity
  8
Default
100
AcDbSpline
210
0.0
220
0.0
230
1.0
 70
     8
 71
     3
 72
    14
 73
    10
 74
     0
 42
0.000000001
 43
0.0000000001
 40
-7.0
 40
-7.0
 40
-7.0
 40
-7.0
 40
-6.0
 40
-5.0
 40
-4.0
 40
-3.0
 40
-2.0
 40
-1.0
 40
-0.2482205602640466
 40
-0.2482205602640466
 40
-0.2482205602640466
 40
-0.2482205602640466
 10
-746.4637956524625
 20
0.0000125999974378
 30
0.0
 10
-746.4509050075089
 20
1.439786139900836
 30
0.0
 10
-747.5994981762765
 20
4.183226049218949
 30
0.0
 10
-750.9258691985474
 20
6.979895788888544
 30
0.0
 10
-754.8341045856818
 20
8.770300492989637
 30
0.0
 10
-758.9932477884708
 20
9.825146339502397
 30
0.0
 10
-763.2547661562116
 20
10.28271193841255
 30
0.0
 10
-767.1863865648506
 20
10.16099656791237
 30
0.0
 10
-769.6556718021152
 20
9.766608792884369
 30
0.0
 10
-770.7052121139736
 20
9.548916171009921
 30
0.0
  0
ARC
  5
6E9
330
1F
100
AcDbEntity
  8
Default
100
AcDbCircle
 10
-773.284510591579
 20
21.98423761291241
 30
0.0
 40
12.7
100
AcDbArc
 50
268.977579807951
 51
281.7179678781598
  0
SPLINE
  5
6EA
330
1F
100
AcDbEntity
  8
Default
100
AcDbSpline
210
0.0
220
0.0
230
1.0
 70
    12
 71
     2
 72
     6
 73
     3
 74
     0
 42
0.000000001
 43
0.0000000001
 40
-0.1297405451143296
 40
-0.1297405451143296
 40
-0.1297405451143296
 40
0.0
 40
0.0
 40
0.0
 10
-773.5111249677052
 20
9.286259587864774
 30
0.0
 41
0.9999960316975588
 10
-775.1585680321463
 20
9.315660669013309
 30
0.0
 41
0.999996865512317
 10
-776.8059143253144
 20
9.35005928152867
 30
0.0
 41
1.0
  0
SPLINE
  5
6EB
330
1F
100
AcDbEntity
  8
Default
100
AcDbSpline
210
0.0
220
0.0
230
1.0
 70
    12
 71
     2
 72
     6
 73
     3
 74
     0
 42
0.000000001
 43
0.0000000001
 40
0.0
 40
0.0
 40
0.0
 40
0.0853474550214741
 40
0.0853474550214741
 40
0.0853474550214741
 10
-766.280074682802
 20
10.28178461606484
 30
0.0
 41
1.0
 10
-765.1983842254144
 20
10.35766401631161
 30
0.0
 41
0.9993970637774639
 10
-764.1140357877179
 20
10.3582922226812
 30
0.0
 41
1.0
  0
SPLINE
  5
6EC
330
1F
100
AcDbEntity
  8
Default
100
AcDbSpline
210
0.0
220
0.0
230
1.0
 70
    12
 71
     2
 72
     6
 73
     3
 74
     0
 42
0.000000001
 43
0.0000000001
 40
0.0
 40
0.0
 40
0.0
 40
0.0853474550214741
 40
0.0853474550214741
 40
0.0853474550214741
 10
-1128.454540157304
 20
351.8926805414118
 30
0.0
 41
1.0
 10
-1128.530419557558
 20
352.9743709987994
 30
0.0
 41
0.9993970637774639
 10
-1128.531047763916
 20
354.0587194364958
 30
0.0
 41
1.0
  0
SPLINE
  5
6ED
330
1F
100
AcDbEntity
  8
Default
100
AcDbSpline
210
0.0
220
0.0
230
1.0
 70
     8
 71
     3
 72
    12
 73
     8
 74
     0
 42
0.000000001
 43
0.0000000001
 40
0.0
 40
0.0
 40
0.0
 40
0.0
 40
0.1510110321465192
 40
0.3037660471064116
 40
0.5900965017365678
 40
0.8249401141264362
 40
1.014583801502342
 40
1.014583801502342
 40
1.014583801502342
 40
1.014583801502342
 10
-1107.966171232698
 20
351.0025014354211
 30
0.0
 10
-1107.841299184757
 20
352.27555544065
 30
0.0
 10
-1107.744022811045
 20
354.8485717386026
 30
0.0
 10
-1108.181204669813
 20
359.8383463412207
 30
0.0
 10
-1109.71669401722
 20
365.3791855188789
 30
0.0
 10
-1113.139288846504
 20
370.4808965360459
 30
0.0
 10
-1116.538246649396
 20
372.1254075021894
 30
0.0
 10
-1118.172755528615
 20
372.093569118089
 30
0.0
  0
SPLINE
  5
6EE
330
1F
100
AcDbEntity
  8
Default
100
AcDbSpline
210
0.0
220
0.0
230
1.0
 70
     8
 71
     3
 72
    12
 73
     8
 74
     0
 42
0.000000001
 43
0.0000000001
 40
-1.014583801502342
 40
-1.014583801502342
 40
-1.014583801502342
 40
-1.014583801502342
 40
-0.8249401141264362
 40
-0.5900965017365678
 40
-0.3037660471064116
 40
-0.1510110321465192
 40
0.0
 40
0.0
 40
0.0
 40
0.0
 10
-1118.172755528615
 20
372.093569118089
 30
0.0
 10
-1119.807264407833
 20
372.1254075021894
 30
0.0
 10
-1123.206222210725
 20
370.4808965360459
 30
0.0
 10
-1126.62881704001
 20
365.3791855188789
 30
0.0
 10
-1128.164306387416
 20
359.8383463412207
 30
0.0
 10
-1128.601488246181
 20
354.8485717386026
 30
0.0
 10
-1128.504211872473
 20
352.27555544065
 30
0.0
 10
-1128.379339824531
 20
351.0025014354211
 30
0.0
  0
SPLINE
  5
6EF
330
1F
100
AcDbEntity
  8
Default
100
AcDbSpline
210
0.0
220
0.0
230
1.0
 70
    12
 71
     2
 72
     6
 73
     3
 74
     0
 42
0.000000001
 43
0.0000000001
 40
0.0
 40
0.0
 40
0.0
 40
0.1369528492222414
 40
0.1369528492222414
 40
0.1369528492222414
 10
-1108.835441631813
 20
341.3668408988993
 30
0.0
 41
1.0
 10
-1108.871751836514
 20
343.1057331607768
 30
0.0
 41
0.9999966913238282
 10
-1108.852659496815
 20
344.8456137395293
 30
0.0
 41
0.9999959461296658
  0
ARC
  5
6F0
330
1F
100
AcDbEntity
  8
Default
100
AcDbCircle
 10
-1096.154376834822
 20
345.0544616174335
 30
0.0
 40
12.7
100
AcDbArc
 50
168.4871521735321
 51
180.9422552251278
  0
SPLINE
  5
6F1
330
1F
100
AcDbEntity
  8
Default
100
AcDbSpline
210
0.0
220
0.0
230
1.0
 70
     8
 71
     3
 72
    14
 73
    10
 74
     0
 42
0.000000001
 43
0.0000000001
 40
0.2772630823298201
 40
0.2772630823298201
 40
0.2772630823298201
 40
0.2772630823298201
 40
1.0
 40
2.0
 40
3.0
 40
4.0
 40
5.0
 40
6.0
 40
7.0
 40
7.0
 40
7.0
 40
7.0
 10
-1108.598852508973
 20
347.5892249585555
 30
0.0
 10
-1108.3931820456
 20
348.5989685652927
 30
0.0
 10
-1108.010499578604
 20
351.0278633267186
 30
0.0
 10
-1107.890068802821
 20
354.9179890680058
 30
0.0
 10
-1108.347634401738
 20
359.1795074357466
 30
0.0
 10
-1109.402480248251
 20
363.3386506385392
 30
0.0
 10
-1111.192884952349
 20
367.2468860256664
 30
0.0
 10
-1113.989554692022
 20
370.573257047941
 30
0.0
 10
-1116.732994601333
 20
371.7218502167049
 30
0.0
 10
-1118.17276814124
 20
371.7089595717513
 30
0.0
  0
SPLINE
  5
6F2
330
1F
100
AcDbEntity
  8
Default
100
AcDbSpline
210
0.0
220
0.0
230
1.0
 70
     8
 71
     3
 72
    14
 73
    10
 74
     0
 42
0.000000001
 43
0.0000000001
 40
-7.0
 40
-7.0
 40
-7.0
 40
-7.0
 40
-6.0
 40
-5.0
 40
-4.0
 40
-3.0
 40
-2.0
 40
-1.0
 40
-0.2482205602640466
 40
-0.2482205602640466
 40
-0.2482205602640466
 40
-0.2482205602640466
 10
-1118.17276814124
 20
371.7089595717513
 30
0.0
 10
-1119.612541681147
 20
371.7218502167049
 30
0.0
 10
-1122.355981590458
 20
370.573257047941
 30
0.0
 10
-1125.152651330131
 20
367.2468860256664
 30
0.0
 10
-1126.943056034228
 20
363.3386506385392
 30
0.0
 10
-1127.997901880745
 20
359.1795074357466
 30
0.0
 10
-1128.455467479658
 20
354.9179890680058
 30
0.0
 10
-1128.333752109158
 20
350.9863686593632
 30
0.0
 10
-1127.939364334127
 20
348.5170834221023
 30
0.0
 10
-1127.721671712252
 20
347.4675431102402
 30
0.0
  0
ARC
  5
6F3
330
1F
100
AcDbEntity
  8
Default
100
AcDbCircle
 10
-1140.156993154155
 20
344.8882446326348
 30
0.0
 40
12.7
100
AcDbArc
 50
358.9775798079509
 51
11.71796787815982
  0
SPLINE
  5
6F4
330
1F
100
AcDbEntity
  8
Default
100
AcDbSpline
210
0.0
220
0.0
230
1.0
 70
    12
 71
     2
 72
     6
 73
     3
 74
     0
 42
0.000000001
 43
0.0000000001
 40
-0.1297405451143296
 40
-0.1297405451143296
 40
-0.1297405451143296
 40
0.0
 40
0.0
 40
0.0
 10
-1127.459015129111
 20
344.6616302565122
 30
0.0
 41
0.9999960316975588
 10
-1127.488416210252
 20
343.0141871920674
 30
0.0
 41
0.999996865512317
 10
-1127.522814822764
 20
341.3668408988993
 30
0.0
 41
1.0
  0
SPLINE
  5
6F5
330
1F
100
AcDbEntity
  8
Default
100
AcDbSpline
210
0.0
220
0.0
230
1.0
 70
    12
 71
     2
 72
     6
 73
     3
 74
     0
 42
0.000000001
 43
0.0000000001
 40
0.0
 40
0.0
 40
0.0
 40
0.0587632096241838
 40
0.0587632096241838
 40
0.0587632096241838
 10
-746.5867614083094
 20
1.476650273248826
 30
0.0
 41
1.0
 10
-746.3990596238714
 20
0.7502618348114018
 30
0.0
 41
0.9921107855315545
 10
-746.3979471690495
 20
0.0000146183480799
 30
0.0
 41
1.0
  0
SPLINE
  5
6F6
330
1F
100
AcDbEntity
  8
Default
100
AcDbSpline
210
0.0
220
0.0
230
1.0
 70
    24
 71
     2
 72
     6
 73
     3
 74
     0
 42
0.000000001
 43
0.0000000001
 40
0.0
 40
0.0
 40
0.0
 40
0.0114467396849787
 40
0.0114467396849787
 40
0.0114467396849787
 10
-746.3979471690313
 20
-0.0000001562987629
 30
0.0
 10
-746.25257357503
 20
-0.0000000907787646
 30
0.0
 10
-746.1071999810323
 20
-0.0000000252514903
 30
0.0
  0
SPLINE
  5
6F7
330
1F
100
AcDbEntity
  8
Default
100
AcDbSpline
210
0.0
220
0.0
230
1.0
 70
    12
 71
     2
 72
     6
 73
     3
 74
     0
 42
0.000000001
 43
0.0000000001
 40
0.0
 40
0.0
 40
0.0
 40
0.0586712320260919
 40
0.0586712320260919
 40
0.0586712320260919
 10
-746.3979471690313
 20
-0.0000001562987629
 30
0.0
 41
1.0
 10
-746.3990515915416
 20
-0.7490612086151553
 30
0.0
 41
0.9921343149382712
 10
-746.5861780828332
 20
-1.474373111236043
 30
0.0
 41
1.0
  0
CIRCLE
  5
6F8
330
1F
100
AcDbEntity
  8
Default
100
AcDbCircle
 10
-1102.275514025254
 20
-423.4498965104397
 30
0.0
 40
200.0249999999998
  0
SPLINE
  5
6F9
330
1F
100
AcDbEntity
  8
Default
100
AcDbSpline
210
0.0
220
0.0
230
1.0
 70
     8
 71
     3
 72
    22
 73
    18
 74
     0
 42
0.000000001
 43
0.0000000001
 40
0.0
 40
0.0
 40
0.0
 40
0.0
 40
0.2588469591229587
 40
0.6477254461891114
 40
1.024641027840087
 40
1.817983982162573
 40
2.582167143679937
 40
4.062052734317923
 40
7.850412104674
 40
9.497260537102542
 40
10.543391206404
 40
10.8432833113025
 40
12.15829953678302
 40
13.34949093133962
 40
14.77372714428499
 40
17.25709974516987
 40
21.82793658798906
 40
21.82793658798906
 40
21.82793658798906
 40
21.82793658798906
 10
-1454.76303202797
 20
196.5619435181539
 30
0.0
 10
-1452.565249034209
 20
196.3586352096277
 30
0.0
 10
-1447.118043045424
 20
197.3424643875947
 30
0.0
 10
-1439.027048972339
 20
200.5051008589758
 30
0.0
 10
-1427.11445865323
 20
206.2026741861514
 30
0.0
 10
-1412.720074309253
 20
214.0253364454288
 30
0.0
 10
-1389.595977256047
 20
225.2884062581029
 30
0.0
 10
-1343.322879047259
 20
246.9121420126644
 30
0.0
 10
-1289.1706360267
 20
269.2397545605595
 30
0.0
 10
-1238.005092278576
 20
289.0475311749356
 30
0.0
 10
-1214.275559658758
 20
297.940565852357
 30
0.0
 10
-1193.073019523601
 20
305.5958809100662
 30
0.0
 10
-1169.618238708712
 20
310.1301611390987
 30
0.0
 10
-1136.382355958105
 20
311.878872634286
 30
0.0
 10
-1093.170928070091
 20
311.4186766518066
 30
0.0
 10
-1021.766933788355
 20
302.2861164157108
 30
0.0
 10
-965.454482100859
 20
279.5854479773731
 30
0.0
 10
-933.5103095587751
 20
257.5850009821185
 30
0.0
  0
SPLINE
  5
6FA
330
1F
100
AcDbEntity
  8
Default
100
AcDbSpline
210
0.0
220
0.0
230
1.0
 70
     8
 71
     3
 72
    19
 73
    15
 74
     0
 42
0.000000001
 43
0.0000000001
 40
-12.0
 40
-12.0
 40
-12.0
 40
-12.0
 40
-11.0
 40
-10.0
 40
-9.0
 40
-8.0
 40
-7.0
 40
-6.0
 40
-5.0
 40
-4.0
 40
-3.0
 40
-2.0
 40
-1.0
 40
0.0
 40
0.0
 40
0.0
 40
0.0
 10
-1498.49918406876
 20
223.1952048337512
 30
0.0
 10
-1503.862904258624
 20
220.0001540133485
 30
0.0
 10
-1507.930466991626
 20
207.1784696499776
 30
0.0
 10
-1512.51695128509
 20
189.0630576357539
 30
0.0
 10
-1515.922512555122
 20
170.2782084792957
 30
0.0
 10
-1519.012456764549
 20
151.5575181608396
 30
0.0
 10
-1521.540721793348
 20
132.7198968481639
 30
0.0
 10
-1523.625972224198
 20
113.8376903750572
 30
0.0
 10
-1525.285884720486
 20
94.91096381463604
 30
0.0
 10
-1526.563752698307
 20
75.95552832035491
 30
0.0
 10
-1527.494395711487
 20
56.97984225891878
 30
0.0
 10
-1528.11381287383
 20
37.99164486839027
 30
0.0
 10
-1528.457811230865
 20
18.99658888695148
 30
0.0
 10
-1528.527413982387
 20
6.331394626485691
 30
0.0
 10
-1528.52823151558
 20
-0.0011769320085461
 30
0.0
  0
SPLINE
  5
6FB
330
1F
100
AcDbEntity
  8
Default
100
AcDbSpline
210
0.0
220
0.0
230
1.0
 70
     8
 71
     3
 72
    19
 73
    15
 74
     0
 42
0.000000001
 43
0.0000000001
 40
0.0
 40
0.0
 40
0.0
 40
0.0
 40
1.0
 40
2.0
 40
3.0
 40
4.0
 40
5.0
 40
6.0
 40
7.0
 40
8.0
 40
9.0
 40
10.0
 40
11.0
 40
12.0
 40
12.0
 40
12.0
 40
12.0
 10
-1528.52823151558
 20
-0.0011769320085461
 30
0.0
 10
-1528.527413982387
 20
-6.333748490510059
 30
0.0
 10
-1528.457811230865
 20
-18.99894275096858
 30
0.0
 10
-1528.11381287383
 20
-37.99399873241464
 30
0.0
 10
-1527.494395711487
 20
-56.98219612294315
 30
0.0
 10
-1526.563752698307
 20
-75.95788218437928
 30
0.0
 10
-1525.285884720486
 20
-94.91331767866768
 30
0.0
 10
-1523.625972224198
 20
-113.8400442390816
 30
0.0
 10
-1521.540721793348
 20
-132.7222507121955
 30
0.0
 10
-1519.012456764549
 20
-151.5598720248567
 30
0.0
 10
-1515.922512555122
 20
-170.2805623433273
 30
0.0
 10
-1512.51695128509
 20
-189.0654114997783
 30
0.0
 10
-1507.930466991626
 20
-207.180823514002
 30
0.0
 10
-1503.862904258624
 20
-220.0025078773801
 30
0.0
 10
-1498.49918406876
 20
-223.1975586977755
 30
0.0
  0
SPLINE
  5
6FC
330
1F
100
AcDbEntity
  8
Default
100
AcDbSpline
210
0.0
220
0.0
230
1.0
 70
    12
 71
     2
 72
     6
 73
     3
 74
     0
 42
0.000000001
 43
0.0000000001
 40
-0.443505275079806
 40
-0.443505275079806
 40
-0.443505275079806
 40
0.0
 40
0.0
 40
0.0
 10
-1488.583649772505
 20
-218.0055189606687
 30
0.0
 41
1.0
 10
-1493.012672520237
 20
-221.607992343012
 30
0.0
 41
0.9799943751373794
 10
-1498.638779451523
 20
-223.233479823703
 30
0.0
 41
1.0
  0
SPLINE
  5
6FD
330
1F
100
AcDbEntity
  8
Default
100
AcDbSpline
210
0.0
220
0.0
230
1.0
 70
     8
 71
     3
 72
    12
 73
     8
 74
     0
 42
0.000000001
 43
0.0000000001
 40
-3.111933853859593
 40
-3.111933853859593
 40
-3.111933853859593
 40
-3.111933853859593
 40
-2.689379093202719
 40
-2.191051374651839
 40
-1.391396900347014
 40
-0.8495487423131249
 40
0.0
 40
0.0
 40
0.0
 40
0.0
 10
-1498.638779451523
 20
-223.233479823703
 30
0.0
 10
-1502.155710878719
 20
-224.3447509345829
 30
0.0
 10
-1510.753327332359
 20
-222.4219163237326
 30
0.0
 10
-1518.496393202843
 20
-209.5828077653464
 30
0.0
 10
-1522.549620264823
 20
-194.5825160422068
 30
0.0
 10
-1526.395578551796
 20
-176.3741572794065
 30
0.0
 10
-1528.172508977541
 20
-164.78115557518
 30
0.0
 10
-1529.444531912958
 20
-157.6749437665317
 30
0.0
  0
SPLINE
  5
6FE
330
1F
100
AcDbEntity
  8
Default
100
AcDbSpline
210
0.0
220
0.0
230
1.0
 70
    12
 71
     2
 72
     6
 73
     3
 74
     0
 42
0.000000001
 43
0.0000000001
 40
0.0
 40
0.0
 40
0.0
 40
6.233889429224446
 40
6.233889429224446
 40
6.233889429224446
 10
-1529.444531912958
 20
-157.6749437665317
 30
0.0
 41
0.9999999519924591
 10
-1542.078852155961
 20
-79.34439478554532
 30
0.0
 41
0.9967303545933507
 10
-1541.931468622896
 20
-0.0011769320085491
 30
0.0
 41
1.0
  0
SPLINE
  5
6FF
330
1F
100
AcDbEntity
  8
Default
100
AcDbSpline
210
0.0
220
0.0
230
1.0
 70
    12
 71
     2
 72
     6
 73
     3
 74
     0
 42
0.000000001
 43
0.0000000001
 40
-6.233889429224446
 40
-6.233889429224446
 40
-6.233889429224446
 40
0.0
 40
0.0
 40
0.0
 10
-1541.931468622896
 20
-0.0011769320085491
 30
0.0
 41
1.0
 10
-1542.078853241519
 20
79.3426253236862
 30
0.0
 41
0.996730330589404
 10
-1529.444531912958
 20
157.673766676005
 30
0.0
 41
1.0
  0
SPLINE
  5
700
330
1F
100
AcDbEntity
  8
Default
100
AcDbSpline
210
0.0
220
0.0
230
1.0
 70
     8
 71
     3
 72
    12
 73
     8
 74
     0
 42
0.000000001
 43
0.0000000001
 40
0.0
 40
0.0
 40
0.0
 40
0.0
 40
0.8495817757806477
 40
1.391422022197968
 40
2.191064820612614
 40
2.689385262996221
 40
3.111933853859593
 40
3.111933853859593
 40
3.111933853859593
 40
3.111933853859593
 10
-1529.444531912958
 20
157.673766676005
 30
0.0
 10
-1528.172625034464
 20
164.7803980780259
 30
0.0
 10
-1526.395658310174
 20
176.3737793531722
 30
0.0
 10
-1522.549620264823
 20
194.5825157251779
 30
0.0
 10
-1518.496393202843
 20
209.5828074483175
 30
0.0
 10
-1510.753327332359
 20
222.4219160067037
 30
0.0
 10
-1502.155710878719
 20
224.3447506175539
 30
0.0
 10
-1498.638779451523
 20
223.233479506674
 30
0.0
  0
SPLINE
  5
701
330
1F
100
AcDbEntity
  8
Default
100
AcDbSpline
210
0.0
220
0.0
230
1.0
 70
    12
 71
     2
 72
     6
 73
     3
 74
     0
 42
0.000000001
 43
0.0000000001
 40
0.0
 40
0.0
 40
0.0
 40
0.443505275079806
 40
0.443505275079806
 40
0.443505275079806
 10
-1498.638779451523
 20
223.233479506674
 30
0.0
 41
1.0
 10
-1493.012672520237
 20
221.6079920259831
 30
0.0
 41
0.9799943751373794
 10
-1488.583649772505
 20
218.0055186436398
 30
0.0
 41
1.0
  0
SPLINE
  5
702
330
1F
100
AcDbEntity
  8
Default
100
AcDbSpline
210
0.0
220
0.0
230
1.0
 70
    12
 71
     2
 72
     6
 73
     3
 74
     0
 42
0.000000001
 43
0.0000000001
 40
-5.654573080352872
 40
-5.654573080352872
 40
-5.654573080352872
 40
0.0
 40
0.0
 40
0.0
 10
-1531.812651941875
 20
142.9817446030388
 30
0.0
 41
1.0
 10
-1543.491985743682
 20
71.96746714675419
 30
0.0
 41
0.9967681786255456
 10
-1543.648045152762
 20
-0.0011769320085494
 30
0.0
 41
1.0
  0
SPLINE
  5
703
330
1F
100
AcDbEntity
  8
Default
100
AcDbSpline
210
0.0
220
0.0
230
1.0
 70
    12
 71
     2
 72
     6
 73
     3
 74
     0
 42
0.000000001
 43
0.0000000001
 40
0.0
 40
0.0
 40
0.0
 40
5.654573080352872
 40
5.654573080352872
 40
5.654573080352872
 10
-1543.648045152762
 20
-0.0011769320085494
 30
0.0
 41
1.0
 10
-1543.491985743682
 20
-71.96982101078583
 30
0.0
 41
0.9967681786255456
 10
-1531.812651941875
 20
-142.9840984670631
 30
0.0
 41
1.0
  0
SPLINE
  5
704
330
1F
100
AcDbEntity
  8
Default
100
AcDbSpline
210
0.0
220
0.0
230
1.0
 70
    12
 71
     2
 72
     6
 73
     3
 74
     0
 42
0.000000001
 43
0.0000000001
 40
-1.102413928352738
 40
-1.102413928352738
 40
-1.102413928352738
 40
0.0
 40
0.0
 40
0.0
 10
-1127.861478759851
 20
311.6269915457339
 30
0.0
 41
0.9999999993925147
 10
-1127.706246510572
 20
325.6358404694871
 30
0.0
 41
0.9999999996616539
 10
-1127.551174745129
 20
339.6457224670409
 30
0.0
 41
1.0
  0
SPLINE
  5
705
330
1F
100
AcDbEntity
  8
Default
100
AcDbSpline
210
0.0
220
0.0
230
1.0
 70
     8
 71
     3
 72
    14
 73
    10
 74
     0
 42
0.000000001
 43
0.0000000001
 40
0.0
 40
0.0
 40
0.0
 40
0.0
 40
1.0
 40
2.0
 40
3.0
 40
4.0
 40
5.0
 40
6.0
 40
7.0
 40
7.0
 40
7.0
 40
7.0
 10
-1127.551174745129
 20
339.6457224670409
 30
0.0
 10
-1127.524507571574
 20
341.4314850383922
 30
0.0
 10
-1127.008962080568
 20
344.8004379754817
 30
0.0
 10
-1124.830026721096
 20
349.4328181389607
 30
0.0
 10
-1120.781394563825
 20
352.8570186252069
 30
0.0
 10
-1115.366432954261
 20
352.7712348422316
 30
0.0
 10
-1111.400061160346
 20
349.266763481926
 30
0.0
 10
-1109.281177042953
 20
344.6086758854541
 30
0.0
 10
-1108.80091339816
 20
341.2346084138004
 30
0.0
 10
-1108.8001553827
 20
339.5471998414901
 30
0.0
  0
SPLINE
  5
706
330
1F
100
AcDbEntity
  8
Default
100
AcDbSpline
210
0.0
220
0.0
230
1.0
 70
    12
 71
     2
 72
     6
 73
     3
 74
     0
 42
0.000000001
 43
0.0000000001
 40
0.0
 40
0.0
 40
0.0
 40
1.112498698414412
 40
1.112498698414412
 40
1.112498698414412
 10
-1108.8001553827
 20
339.5471998414901
 30
0.0
 41
1.0
 10
-1108.644379885978
 20
325.4193251551438
 30
0.0
 41
0.9999999996585591
 10
-1108.488367177934
 20
311.2914530863014
 30
0.0
 41
0.9999999993875963
  0
SPLINE
  5
707
330
1F
100
AcDbEntity
  8
Default
100
AcDbSpline
210
0.0
220
0.0
230
1.0
 70
    12
 71
     2
 72
     6
 73
     3
 74
     0
 42
0.000000001
 43
0.0000000001
 40
-1.281345128275034
 40
-1.281345128275034
 40
-1.281345128275034
 40
0.0
 40
0.0
 40
0.0
 10
-811.093248216634
 20
9.739118487235534
 30
0.0
 41
0.9999999993069707
 10
-794.8108383084022
 20
9.558660441845569
 30
0.0
 41
0.9999999996067375
 10
-778.5270327571729
 20
9.378419203890812
 30
0.0
 41
1.0
  0
SPLINE
  5
708
330
1F
100
AcDbEntity
  8
Default
100
AcDbSpline
210
0.0
220
0.0
230
1.0
 70
     8
 71
     3
 72
    14
 73
    10
 74
     0
 42
0.000000001
 43
0.0000000001
 40
0.0
 40
0.0
 40
0.0
 40
0.0
 40
1.0
 40
2.0
 40
3.0
 40
4.0
 40
5.0
 40
6.0
 40
7.0
 40
7.0
 40
7.0
 40
7.0
 10
-778.5270327571729
 20
9.378419203890812
 30
0.0
 10
-776.7412701858289
 20
9.35175203033185
 30
0.0
 10
-773.3723172487357
 20
8.836206539326381
 30
0.0
 10
-768.7399370852603
 20
6.657271179854149
 30
0.0
 10
-765.3157365990105
 20
2.608639022586146
 30
0.0
 10
-765.4015203819822
 20
-2.806322586981252
 30
0.0
 10
-768.9059917422878
 20
-6.772694380899622
 30
0.0
 10
-773.5640793387597
 20
-8.891578498293087
 30
0.0
 10
-776.938146810417
 20
-9.3718421430861
 30
0.0
 10
-778.6255553827309
 20
-9.372600158542185
 30
0.0
  0
SPLINE
  5
709
330
1F
100
AcDbEntity
  8
Default
100
AcDbSpline
210
0.0
220
0.0
230
1.0
 70
    12
 71
     2
 72
     6
 73
     3
 74
     0
 42
0.000000001
 43
0.0000000001
 40
0.0
 40
0.0
 40
0.0
 40
1.278324852146924
 40
1.278324852146924
 40
1.278324852146924
 10
-778.6255553827309
 20
-9.372600158542185
 30
0.0
 41
1.0
 10
-794.8592942142736
 20
-9.551595144428864
 30
0.0
 41
0.9999999996076647
 10
-811.0930295894418
 20
-9.730903328225688
 30
0.0
 41
0.9999999993083845
  0
SPLINE
  5
70A
330
1F
100
AcDbEntity
  8
Default
100
AcDbSpline
210
0.0
220
0.0
230
1.0
 70
     8
 71
     3
 72
    27
 73
    23
 74
     0
 42
0.000000001
 43
0.0000000001
 40
0.0
 40
0.0
 40
0.0
 40
0.0
 40
1.0
 40
2.0
 40
3.0
 40
4.0
 40
5.0
 40
6.0
 40
7.0
 40
8.0
 40
9.0
 40
10.0
 40
11.0
 40
12.0
 40
12.0
 40
12.0
 40
13.0
 40
14.0
 40
15.0
 40
16.0
 40
17.0
 40
17.59035361248205
 40
17.59035361248205
 40
17.59035361248205
 40
17.59035361248205
 10
-1488.583649772505
 20
-218.0055189606687
 30
0.0
 10
-1486.834628370778
 20
-216.5829019627968
 30
0.0
 10
-1479.872817078524
 20
-209.8919013882591
 30
0.0
 10
-1474.385918749073
 20
-205.9312427372029
 30
0.0
 10
-1468.55833841369
 20
-202.4767072060899
 30
0.0
 10
-1462.477081723808
 20
-199.5354177688463
 30
0.0
 10
-1456.353301591791
 20
-196.5831779790646
 30
0.0
 10
-1449.612766975055
 20
-195.4353502361304
 30
0.0
 10
-1442.859303920921
 20
-196.3680326961443
 30
0.0
 10
-1436.345573200424
 20
-198.1946524843556
 30
0.0
 10
-1430.015838482874
 20
-200.5948724778686
 30
0.0
 10
-1423.83529717471
 20
-203.3440037872756
 30
0.0
 10
-1417.754506047832
 20
-206.3064932065649
 30
0.0
 10
-1413.743477002538
 20
-208.3662277034277
 30
0.0
 10
-1411.740698314503
 20
-209.4012809399032
 30
0.0
 10
-1401.988759734863
 20
-214.4653815885362
 30
0.0
 10
-1382.336107324578
 20
-224.3126731463021
 30
0.0
 10
-1352.272194639553
 20
-237.851359602279
 30
0.0
 10
-1321.859839848001
 20
-250.578927855477
 30
0.0
 10
-1291.129542735797
 20
-262.5198411620117
 30
0.0
 10
-1264.374350368709
 20
-272.23969405676
 30
0.0
 10
-1247.858233899604
 20
-277.9522518605704
 30
0.0
 10
-1241.71629107942
 20
-280.0404466142467
 30
0.0
  0
SPLINE
  5
70B
330
1F
100
AcDbEntity
  8
Default
100
AcDbSpline
210
0.0
220
0.0
230
1.0
 70
     8
 71
     3
 72
    59
 73
    55
 74
     0
 42
0.000000001
 43
0.0000000001
 40
26.00996749817882
 40
26.00996749817882
 40
26.00996749817882
 40
26.00996749817882
 40
27.0
 40
28.0
 40
29.0
 40
30.0
 40
31.0
 40
32.0
 40
33.0
 40
34.0
 40
35.0
 40
36.0
 40
36.0
 40
36.0
 40
37.0
 40
38.0
 40
39.0
 40
40.0
 40
41.0
 40
42.0
 40
43.0
 40
44.0
 40
45.0
 40
46.0
 40
47.0
 40
48.0
 40
49.0
 40
50.0
 40
51.0
 40
52.0
 40
53.0
 40
53.0
 40
53.0
 40
54.0
 40
55.0
 40
56.0
 40
57.0
 40
58.0
 40
59.0
 40
60.0
 40
60.0
 40
60.0
 40
61.0
 40
62.0
 40
63.0
 40
64.0
 40
65.0
 40
66.0
 40
67.0
 40
68.0
 40
69.0
 40
70.0
 40
71.0
 40
72.0
 40
72.0
 40
72.0
 40
72.0
 10
-966.757726787428
 20
-276.3277364965219
 30
0.0
 10
-956.7042230373976
 20
-271.6903103988919
 30
0.0
 10
-937.1979633305587
 20
-260.8399581822344
 30
0.0
 10
-910.4151983422038
 20
-240.6941173445051
 30
0.0
 10
-886.3227813727158
 20
-217.2335153949574
 30
0.0
 10
-865.5264163123124
 20
-190.8153753917543
 30
0.0
 10
-847.9524227052884
 20
-162.1610885099183
 30
0.0
 10
-834.0284985916174
 20
-131.5648106419506
 30
0.0
 10
-823.489166633381
 20
-99.66108770824606
 30
0.0
 10
-816.1676076201461
 20
-66.87359419712113
 30
0.0
 10
-811.8856075941499
 20
-33.55887048507095
 30
0.0
 10
-810.9701043865012
 20
-11.1859614143944
 30
0.0
 10
-810.9890481863136
 20
-0.0006239830002623
 30
0.0
 10
-810.9701043865012
 20
11.18471344838661
 30
0.0
 10
-811.8856075941499
 20
33.55762251907043
 30
0.0
 10
-816.1676076201461
 20
66.8723462311206
 30
0.0
 10
-823.489166633381
 20
99.65983974223824
 30
0.0
 10
-834.0284985916174
 20
131.56356267595
 30
0.0
 10
-847.9524227052884
 20
162.1598405439105
 30
0.0
 10
-865.5264163123124
 20
190.8141274257538
 30
0.0
 10
-886.3227813727158
 20
217.2322674289496
 30
0.0
 10
-910.4151983422038
 20
240.6928693784973
 30
0.0
 10
-937.2872456915633
 20
260.9058678915131
 30
0.0
 10
-966.7058786290713
 20
277.2436022943472
 30
0.0
 10
-998.2581461905088
 20
288.9176659945111
 30
0.0
 10
-1030.972427951967
 20
296.5891454764165
 30
0.0
 10
-1064.220260412904
 20
301.3026046971896
 30
0.0
 10
-1097.725809781392
 20
303.5707799788103
 30
0.0
 10
-1131.280292734324
 20
303.6447058272639
 30
0.0
 10
-1164.859498620239
 20
302.2704190654873
 30
0.0
 10
-1186.893328218963
 20
297.9122935134979
 30
0.0
 10
-1197.555313044997
 20
294.5055886622172
 30
0.0
 10
-1208.029001740719
 20
291.1810863449606
 30
0.0
 10
-1228.944061221975
 20
284.4289471373082
 30
0.0
 10
-1260.14320298879
 20
273.7768207969598
 30
0.0
 10
-1291.129542735797
 20
262.5198408449902
 30
0.0
 10
-1321.859839848001
 20
250.5789275384482
 30
0.0
 10
-1352.272194639553
 20
237.8513592852501
 30
0.0
 10
-1382.336107324578
 20
224.3126728292805
 30
0.0
 10
-1401.988759734863
 20
214.4653812715074
 30
0.0
 10
-1411.740698314503
 20
209.4012806228816
 30
0.0
 10
-1413.743477002538
 20
208.3662273864061
 30
0.0
 10
-1417.754506047832
 20
206.306492889536
 30
0.0
 10
-1423.83529717471
 20
203.3440034702467
 30
0.0
 10
-1430.015838482874
 20
200.594872160847
 30
0.0
 10
-1436.345573200424
 20
198.194652167334
 30
0.0
 10
-1442.859303920921
 20
196.3680323791227
 30
0.0
 10
-1449.612766975055
 20
195.4353499191016
 30
0.0
 10
-1456.353301591791
 20
196.5831776620357
 30
0.0
 10
-1462.477081723808
 20
199.5354174518247
 30
0.0
 10
-1468.55833841369
 20
202.4767068890683
 30
0.0
 10
-1474.385918749073
 20
205.9312424201739
 30
0.0
 10
-1479.872817078524
 20
209.8919010712302
 30
0.0
 10
-1486.834628370778
 20
216.5829016457751
 30
0.0
 10
-1488.583649772505
 20
218.0055186436398
 30
0.0
  0
SPLINE
  5
70C
330
1F
100
AcDbEntity
  8
Default
100
AcDbSpline
210
0.0
220
0.0
230
1.0
 70
     8
 71
     3
 72
    15
 73
    11
 74
     0
 42
0.000000001
 43
0.0000000001
 40
0.0
 40
0.0
 40
0.0
 40
0.0
 40
0.2588469591229587
 40
0.6477254461891114
 40
1.024641027840087
 40
1.817983982162573
 40
2.582167143679937
 40
4.062052734317923
 40
7.850412104674
 40
8.912059032934525
 40
8.912059032934525
 40
8.912059032934525
 40
8.912059032934525
 10
-1454.76303202797
 20
-196.5619438351827
 30
0.0
 10
-1452.565249034209
 20
-196.3586355266565
 30
0.0
 10
-1447.118043045424
 20
-197.3424647046162
 30
0.0
 10
-1439.027048972339
 20
-200.5051011759974
 30
0.0
 10
-1427.11445865323
 20
-206.2026745031803
 30
0.0
 10
-1412.720074309253
 20
-214.0253367624505
 30
0.0
 10
-1389.595977256047
 20
-225.2884065751318
 30
0.0
 10
-1343.322879047259
 20
-246.9121423296932
 30
0.0
 10
-1293.75336141691
 20
-267.3502428053511
 30
0.0
 10
-1255.49905827056
 20
-282.2626474794783
 30
0.0
 10
-1247.11140194418
 20
-285.4913295574046
 30
0.0
  0
SPLINE
  5
70D
330
1F
100
AcDbEntity
  8
Default
100
AcDbSpline
210
0.0
220
0.0
230
1.0
 70
     8
 71
     3
 72
     8
 73
     4
 74
     0
 42
0.000000001
 43
0.0000000001
 40
20.3336008915702
 40
20.3336008915702
 40
20.3336008915702
 40
20.3336008915702
 40
21.82793658798906
 40
21.82793658798906
 40
21.82793658798906
 40
21.82793658798906
 10
-966.1843295892527
 20
-276.8579794624496
 30
0.0
 10
-954.8828839156872
 20
-271.1908219767032
 30
0.0
 10
-943.9537620301075
 20
-264.7775689651356
 30
0.0
 10
-933.5103095587751
 20
-257.5850012991472
 30
0.0
  0
SPLINE
  5
70E
330
1F
100
AcDbEntity
  8
Default
100
AcDbSpline
210
0.0
220
0.0
230
1.0
 70
     8
 71
     3
 72
    11
 73
     7
 74
     0
 42
0.000000001
 43
0.0000000001
 40
3.534603541119151
 40
3.534603541119151
 40
3.534603541119151
 40
3.534603541119151
 40
3.940395698505355
 40
7.777415887162893
 40
11.58776424105037
 40
15.35286584350305
 40
15.35286584350305
 40
15.35286584350305
 40
15.35286584350305
 10
-1152.010271854475
 20
-229.7066269791653
 30
0.0
 10
-1155.251592257175
 20
-228.5699846840329
 30
0.0
 10
-1188.90019715655
 20
-215.9919936644768
 30
0.0
 10
-1247.39467852608
 20
-178.2900325418927
 30
0.0
 10
-1302.0560566398
 20
-96.09931243385331
 30
0.0
 10
-1314.123076596078
 20
-31.86292958695817
 30
0.0
 10
-1314.130792042213
 20
-0.000650360827827
 30
0.0
  0
SPLINE
  5
70F
330
1F
100
AcDbEntity
  8
Default
100
AcDbSpline
210
0.0
220
0.0
230
1.0
 70
     8
 71
     3
 72
    12
 73
     8
 74
     0
 42
0.000000001
 43
0.0000000001
 40
0.0
 40
0.0
 40
0.0
 40
0.0
 40
1.918305221504867
 40
3.868777778011241
 40
7.624449324857683
 40
11.42846767657462
 40
15.35241906764609
 40
15.35241906764609
 40
15.35241906764609
 40
15.35241906764609
 10
-1314.130792042213
 20
-0.000650360827827
 30
0.0
 10
-1314.144271432417
 20
16.23942579778991
 30
0.0
 10
-1310.974090603477
 20
49.001674164912
 30
0.0
 10
-1292.328330917963
 20
111.1282600856826
 30
0.0
 10
-1246.234789235592
 20
179.1979189463851
 30
0.0
 10
-1162.67651751339
 20
232.6517144273999
 30
0.0
 10
-1097.098623390694
 20
244.4745621898797
 30
0.0
 10
-1063.891103737055
 20
244.4740198303222
 30
0.0
  0
SPLINE
  5
710
330
1F
100
AcDbEntity
  8
Default
100
AcDbSpline
210
0.0
220
0.0
230
1.0
 70
     8
 71
     3
 72
    12
 73
     8
 74
     0
 42
0.000000001
 43
0.0000000001
 40
-14.89017236839833
 40
-14.89017236839833
 40
-14.89017236839833
 40
-14.89017236839833
 40
-11.21816917573749
 40
-7.516682162771167
 40
-3.774519558109396
 40
-1.88935509827327
 40
0.0
 40
0.0
 40
0.0
 40
0.0
 10
-1063.891103737055
 20
244.4740198303222
 30
0.0
 10
-1032.797307211599
 20
244.482352577808
 30
0.0
 10
-970.3845429816851
 20
231.6006665125275
 30
0.0
 10
-891.4712482565832
 20
176.9397175032315
 30
0.0
 10
-847.8626495950035
 20
109.2967631791359
 30
0.0
 10
-829.8870611362058
 20
47.95406485092432
 30
0.0
 10
-826.8133202021877
 20
15.99456011584304
 30
0.0
 10
-826.8115989229213
 20
-0.0006514075542571
 30
0.0
  0
SPLINE
  5
711
330
1F
100
AcDbEntity
  8
Default
100
AcDbSpline
210
0.0
220
0.0
230
1.0
 70
     8
 71
     3
 72
    12
 73
     8
 74
     0
 42
0.000000001
 43
0.0000000001
 40
-14.89017233013332
 40
-14.89017233013332
 40
-14.89017233013332
 40
-14.89017233013332
 40
-11.11625270517792
 40
-7.371880431677227
 40
-3.66957874387039
 40
-1.832654236799995
 40
-1.682229782347938
 40
-1.682229782347938
 40
-1.682229782347938
 40
-1.682229782347938
 10
-826.8115989229213
 20
-0.0006514075542571
 30
0.0
 10
-826.8171892776468
 20
-31.95317877749433
 30
0.0
 10
-839.0298903735333
 20
-95.60699289532598
 30
0.0
 10
-891.4905737039612
 20
-176.9670034232443
 30
0.0
 10
-957.4023426931985
 20
-222.6029438537774
 30
0.0
 10
-1003.640256378391
 20
-237.0230618225945
 30
0.0
 10
-1020.151174500379
 20
-240.2676166258356
 30
0.0
 10
-1021.402807391243
 20
-240.5028934011028
 30
0.0
  0
ENDSEC
  0
SECTION
  2
OBJECTS
  0
DICTIONARY
  5
C
330
0
100
AcDbDictionary
281
     1
  3
ACAD_CIP_PREVIOUS_PRODUCT_INFO
350
3F8
  3
ACAD_COLOR
350
3F0
  3
ACAD_DETAILVIEWSTYLE
350
3ED
  3
ACAD_GROUP
350
D
  3
ACAD_LAYOUT
350
1A
  3
ACAD_MATERIAL
350
43
  3
ACAD_MLEADERSTYLE
350
3EC
  3
ACAD_MLINESTYLE
350
17
  3
ACAD_PLOTSETTINGS
350
19
  3
ACAD_PLOTSTYLENAME
350
E
  3
ACAD_SCALELIST
350
47
  3
ACAD_SECTIONVIEWSTYLE
350
3EE
  3
ACAD_TABLESTYLE
350
3EB
  3
ACAD_VISUALSTYLE
350
2A
  3
ACDB_RECOMPOSE_DATA
350
738
  3
AcDbVariableDictionary
350
3B2
  0
DICTIONARY
  5
3B0
330
8
100
AcDbDictionary
280
     1
281
     1
  0
SUN
  5
69
330
29
100
AcDbSun
 90
        1
290
     0
 63
     7
421
 16777215
 40
1.0
291
     1
 91
  2455826
 92
 54000000
292
     0
 70
     0
 71
   256
280
     1
  0
DICTIONARY
  5
40C
330
2
100
AcDbDictionary
280
     1
281
     1
  3
ACAD_LAYERSTATES
360
40D
  0
DICTIONARY
  5
3F9
330
10
100
AcDbDictionary
280
     1
281
     1
  3
ADSK_XREC_LAYER_RECONCILED
360
3FA
  0
DICTIONARY
  5
40B
330
40A
100
AcDbDictionary
280
     1
281
     1
  0
XRECORD
  5
3F8
102
{ACAD_REACTORS
330
C
102
}
330
C
100
AcDbXrecord
280
     1
300
ACD
300
2016
300
ACD_F_S
  0
DICTIONARY
  5
3F0
102
{ACAD_REACTORS
330
C
102
}
330
C
100
AcDbDictionary
281
     1
  0
DICTIONARY
  5
3ED
102
{ACAD_REACTORS
330
C
102
}
330
C
100
AcDbDictionary
281
     1
  3
Imperial24
350
3F4
  0
DICTIONARY
  5
D
102
{ACAD_REACTORS
330
C
102
}
330
C
100
AcDbDictionary
281
     1
  0
DICTIONARY
  5
1A
102
{ACAD_REACTORS
330
C
102
}
330
C
100
AcDbDictionary
281
     1
  3
Layout1
350
1E
  3
Layout2
350
26
  3
Model
350
22
  0
DICTIONARY
  5
43
102
{ACAD_REACTORS
330
C
102
}
330
C
100
AcDbDictionary
281
     1
  3
ByBlock
350
45
  3
ByLayer
350
44
  3
Global
350
46
  0
DICTIONARY
  5
3EC
102
{ACAD_REACTORS
330
C
102
}
330
C
100
AcDbDictionary
281
     1
  3
Standard
350
3F2
  0
DICTIONARY
  5
17
102
{ACAD_REACTORS
330
C
102
}
330
C
100
AcDbDictionary
281
     1
  3
Standard
350
18
  0
DICTIONARY
  5
19
102
{ACAD_REACTORS
330
C
102
}
330
C
100
AcDbDictionary
281
     1
  0
ACDBDICTIONARYWDFLT
  5
E
102
{ACAD_REACTORS
330
C
102
}
330
C
100
AcDbDictionary
281
     1
  3
Normal
350
F
100
AcDbDictionaryWithDefault
340
F
  0
DICTIONARY
  5
47
102
{ACAD_REACTORS
330
C
102
}
330
C
100
AcDbDictionary
281
     1
  3
A0
350
48
  3
A1
350
49
  3
A2
350
4A
  3
A3
350
4B
  3
A4
350
4C
  3
A5
350
4D
  3
A6
350
4E
  3
A7
350
4F
  3
A8
350
50
  3
A9
350
51
  3
B0
350
52
  3
B1
350
53
  3
B2
350
54
  3
B3
350
55
  3
B4
350
56
  3
B5
350
57
  3
B6
350
58
  3
B7
350
59
  3
B8
350
5A
  3
B9
350
5B
  3
C0
350
5C
  3
C1
350
5D
  3
C2
350
5E
  3
C3
350
5F
  3
C4
350
60
  3
C5
350
61
  3
C6
350
62
  3
C7
350
63
  3
C8
350
64
  3
C9
350
65
  3
D0
350
66
  3
D1
350
67
  3
D2
350
68
  0
DICTIONARY
  5
3EE
102
{ACAD_REACTORS
330
C
102
}
330
C
100
AcDbDictionary
281
     1
  3
Imperial24
350
3F3
  0
DICTIONARY
  5
3EB
102
{ACAD_REACTORS
330
C
102
}
330
C
100
AcDbDictionary
281
     1
  3
Standard
350
3F1
  0
DICTIONARY
  5
2A
102
{ACAD_REACTORS
330
C
102
}
330
C
100
AcDbDictionary
281
     1
  3
2dWireframe
350
2F
  3
Basic
350
32
  3
Brighten
350
36
  3
ColorChange
350
3A
  3
Conceptual
350
34
  3
Dim
350
35
  3
EdgeColorOff
350
3D
  3
Facepattern
350
39
  3
Flat
350
2B
  3
FlatWithEdges
350
2C
  3
Gouraud
350
2D
  3
GouraudWithEdges
350
2E
  3
Hidden
350
31
  3
JitterOff
350
3B
  3
Linepattern
350
38
  3
OverhangOff
350
3C
  3
Realistic
350
33
  3
Shaded
350
42
  3
Shaded with edges
350
41
  3
Shades of Gray
350
3E
  3
Sketchy
350
3F
  3
Thicken
350
37
  3
Wireframe
350
30
  3
X-Ray
350
40
  0
XRECORD
  5
738
102
{ACAD_REACTORS
330
C
102
}
330
C
100
AcDbXrecord
280
     1
 90
        1
330
3F1
330
3F3
330
3F4
  0
DICTIONARY
  5
3B2
102
{ACAD_REACTORS
330
C
102
}
330
C
100
AcDbDictionary
281
     1
  3
CANNOSCALE
350
3B3
  3
CMLEADERSTYLE
350
5FA
  3
CTABLESTYLE
350
5F9
  3
CVIEWDETAILSTYLE
350
5FB
  3
CVIEWSECTIONSTYLE
350
5FC
  3
LAYEREVAL
350
5FE
  3
LAYERNOTIFY
350
5FF
  3
LIGHTINGUNITS
350
5FD
  3
MSLTSCALE
350
3B4
  0
DICTIONARY
  5
40D
102
{ACAD_REACTORS
330
40C
102
}
330
40C
100
AcDbDictionary
281
     1
  0
XRECORD
  5
3FA
102
{ACAD_REACTORS
330
3F9
102
}
330
3F9
100
AcDbXrecord
280
     1
290
     1
  0
ACDBDETAILVIEWSTYLE
  5
3F4
102
{ACAD_XDICTIONARY
360
5F6
102
}
102
{ACAD_REACTORS
330
3ED
102
}
330
3ED
100
AcDbModelDocViewStyle
 70
     0
  3
Imperial24
290
     0
100
AcDbDetailViewStyle
 70
     0
 71
     0
 90
        3
 71
     1
340
11
 62
   256
 40
0.24
340
0
 62
   256
 40
0.24
300

 40
0.36
280
     3
 71
     2
340
16
 90
       25
 62
   256
 71
     3
340
11
 62
   256
 40
0.24
 90
        1
 40
0.75
 90
        1
300
%<\AcVar ViewType \f "%tc1">% %<\AcVar ViewDetailId>%\PSCALE %<\AcVar ViewScale \f "%sn">%
 71
     4
340
16
 90
       25
 62
   256
340
16
 90
       25
 62
   256
280
     0
  0
LAYOUT
  5
1E
102
{ACAD_REACTORS
330
1A
102
}
330
1A
100
AcDbPlotSettings
  1

  2
none_device
  4

  6

 40
0.0
 41
0.0
 42
0.0
 43
0.0
 44
0.0
 45
0.0
 46
0.0
 47
0.0
 48
0.0
 49
0.0
140
0.0
141
0.0
142
1.0
143
1.0
 70
   688
 72
     0
 73
     0
 74
     5
  7

 75
    16
147
1.0
 76
     0
 77
     2
 78
   300
148
0.0
149
0.0
100
AcDbLayout
  1
Layout1
 70
     1
 71
     1
 10
0.0
 20
0.0
 11
12.0
 21
9.0
 12
0.0
 22
0.0
 32
0.0
 14
1.000000000000000E+20
 24
1.000000000000000E+20
 34
1.000000000000000E+20
 15
-1.000000000000000E+20
 25
-1.000000000000000E+20
 35
-1.000000000000000E+20
146
0.0
 13
0.0
 23
0.0
 33
0.0
 16
1.0
 26
0.0
 36
0.0
 17
0.0
 27
1.0
 37
0.0
 76
     0
330
1B
  0
LAYOUT
  5
26
102
{ACAD_REACTORS
330
1A
102
}
330
1A
100
AcDbPlotSettings
  1

  2
none_device
  4

  6

 40
0.0
 41
0.0
 42
0.0
 43
0.0
 44
0.0
 45
0.0
 46
0.0
 47
0.0
 48
0.0
 49
0.0
140
0.0
141
0.0
142
1.0
143
1.0
 70
   688
 72
     0
 73
     0
 74
     5
  7

 75
    16
147
1.0
 76
     0
 77
     2
 78
   300
148
0.0
149
0.0
100
AcDbLayout
  1
Layout2
 70
     1
 71
     2
 10
0.0
 20
0.0
 11
0.0
 21
0.0
 12
0.0
 22
0.0
 32
0.0
 14
0.0
 24
0.0
 34
0.0
 15
0.0
 25
0.0
 35
0.0
146
0.0
 13
0.0
 23
0.0
 33
0.0
 16
1.0
 26
0.0
 36
0.0
 17
0.0
 27
1.0
 37
0.0
 76
     0
330
23
  0
LAYOUT
  5
22
102
{ACAD_REACTORS
330
1A
102
}
330
1A
100
AcDbPlotSettings
  1

  2
none_device
  4
Letter_(8.50_x_11.00_Inches)
  6

 40
6.349999999999999
 41
6.349999999999999
 42
6.350005079999999
 43
6.350005079999999
 44
215.9
 45
279.4
 46
0.0
 47
0.0
 48
0.0
 49
0.0
140
0.0
141
0.0
142
1.0
143
1.0
 70
  1712
 72
     0
 73
     0
 74
     0
  7

 75
     0
147
1.0
 76
     0
 77
     2
 78
   300
148
0.0
149
0.0
100
AcDbLayout
  1
Model
 70
     1
 71
     0
 10
0.0
 20
0.0
 11
12.0
 21
9.0
 12
0.0
 22
0.0
 32
0.0
 14
-1403.18427867203
 24
-1403.18427867203
 34
-0.0000000000006447
 15
1403.18427867203
 25
1403.18427867203
 35
1018.90550933908
146
0.0
 13
0.0
 23
0.0
 33
0.0
 16
1.0
 26
0.0
 36
0.0
 17
0.0
 27
1.0
 37
0.0
 76
     0
330
1F
331
29
  0
MATERIAL
  5
45
102
{ACAD_REACTORS
330
43
102
}
330
43
100
AcDbMaterial
  1
ByBlock
 73
     1
 78
     1
172
     1
176
     1
270
     1
274
     1
  0
MATERIAL
  5
44
102
{ACAD_REACTORS
330
43
102
}
330
43
100
AcDbMaterial
  1
ByLayer
 73
     1
 78
     1
172
     1
176
     1
270
     1
274
     1
  0
MATERIAL
  5
46
102
{ACAD_REACTORS
330
43
102
}
330
43
100
AcDbMaterial
  1
Global
 73
     1
 78
     1
172
     1
176
     1
270
     1
274
     1
  0
MLEADERSTYLE
  5
3F2
102
{ACAD_REACTORS
330
3EC
102
}
330
3EC
100
AcDbMLeaderStyle
179
     2
170
     2
171
     1
172
     0
 90
        2
 40
0.0
 41
0.0
173
     1
 91
-1056964608
340
14
 92
       -2
290
     1
 42
0.09
291
     1
 43
0.36
  3
Standard
 44
0.18
300

342
11
174
     1
178
     6
175
     1
176
     0
 93
-1056964608
 45
0.18
292
     0
297
     0
 46
0.18
 94
-1056964608
 47
1.0
 49
1.0
140
1.0
293
     1
141
0.0
294
     1
177
     0
142
1.0
295
     1
296
     0
143
0.125
271
     0
272
     9
273
     9
298
     1
  0
MLINESTYLE
  5
18
102
{ACAD_REACTORS
330
17
102
}
330
17
100
AcDbMlineStyle
  2
STANDARD
 70
     0
  3

 62
   256
 51
90.0
 52
90.0
 71
     2
 49
0.5
 62
   256
  6
BYLAYER
 49
-0.5
 62
   256
  6
BYLAYER
  0
ACDBPLACEHOLDER
  5
F
102
{ACAD_REACTORS
330
E
102
}
330
E
  0
SCALE
  5
48
102
{ACAD_REACTORS
330
47
102
}
330
47
100
AcDbScale
 70
     0
300
1:1
140
1.0
141
1.0
290
     1
  0
SCALE
  5
49
102
{ACAD_REACTORS
330
47
102
}
330
47
100
AcDbScale
 70
     0
300
1:2
140
1.0
141
2.0
290
     0
  0
SCALE
  5
4A
102
{ACAD_REACTORS
330
47
102
}
330
47
100
AcDbScale
 70
     0
300
1:4
140
1.0
141
4.0
290
     0
  0
SCALE
  5
4B
102
{ACAD_REACTORS
330
47
102
}
330
47
100
AcDbScale
 70
     0
300
1:5
140
1.0
141
5.0
290
     0
  0
SCALE
  5
4C
102
{ACAD_REACTORS
330
47
102
}
330
47
100
AcDbScale
 70
     0
300
1:8
140
1.0
141
8.0
290
     0
  0
SCALE
  5
4D
102
{ACAD_REACTORS
330
47
102
}
330
47
100
AcDbScale
 70
     0
300
1:10
140
1.0
141
10.0
290
     0
  0
SCALE
  5
4E
102
{ACAD_REACTORS
330
47
102
}
330
47
100
AcDbScale
 70
     0
300
1:16
140
1.0
141
16.0
290
     0
  0
SCALE
  5
4F
102
{ACAD_REACTORS
330
47
102
}
330
47
100
AcDbScale
 70
     0
300
1:20
140
1.0
141
20.0
290
     0
  0
SCALE
  5
50
102
{ACAD_REACTORS
330
47
102
}
330
47
100
AcDbScale
 70
     0
300
1:30
140
1.0
141
30.0
290
     0
  0
SCALE
  5
51
102
{ACAD_REACTORS
330
47
102
}
330
47
100
AcDbScale
 70
     0
300
1:40
140
1.0
141
40.0
290
     0
  0
SCALE
  5
52
102
{ACAD_REACTORS
330
47
102
}
330
47
100
AcDbScale
 70
     0
300
1:50
140
1.0
141
50.0
290
     0
  0
SCALE
  5
53
102
{ACAD_REACTORS
330
47
102
}
330
47
100
AcDbScale
 70
     0
300
1:100
140
1.0
141
100.0
290
     0
  0
SCALE
  5
54
102
{ACAD_REACTORS
330
47
102
}
330
47
100
AcDbScale
 70
     0
300
2:1
140
2.0
141
1.0
290
     0
  0
SCALE
  5
55
102
{ACAD_REACTORS
330
47
102
}
330
47
100
AcDbScale
 70
     0
300
4:1
140
4.0
141
1.0
290
     0
  0
SCALE
  5
56
102
{ACAD_REACTORS
330
47
102
}
330
47
100
AcDbScale
 70
     0
300
8:1
140
8.0
141
1.0
290
     0
  0
SCALE
  5
57
102
{ACAD_REACTORS
330
47
102
}
330
47
100
AcDbScale
 70
     0
300
10:1
140
10.0
141
1.0
290
     0
  0
SCALE
  5
58
102
{ACAD_REACTORS
330
47
102
}
330
47
100
AcDbScale
 70
     0
300
100:1
140
100.0
141
1.0
290
     0
  0
SCALE
  5
59
102
{ACAD_REACTORS
330
47
102
}
330
47
100
AcDbScale
 70
     0
300
1/128" = 1'-0"
140
0.0078125
141
12.0
290
     0
  0
SCALE
  5
5A
102
{ACAD_REACTORS
330
47
102
}
330
47
100
AcDbScale
 70
     0
300
1/64" = 1'-0"
140
0.015625
141
12.0
290
     0
  0
SCALE
  5
5B
102
{ACAD_REACTORS
330
47
102
}
330
47
100
AcDbScale
 70
     0
300
1/32" = 1'-0"
140
0.03125
141
12.0
290
     0
  0
SCALE
  5
5C
102
{ACAD_REACTORS
330
47
102
}
330
47
100
AcDbScale
 70
     0
300
1/16" = 1'-0"
140
0.0625
141
12.0
290
     0
  0
SCALE
  5
5D
102
{ACAD_REACTORS
330
47
102
}
330
47
100
AcDbScale
 70
     0
300
3/32" = 1'-0"
140
0.09375
141
12.0
290
     0
  0
SCALE
  5
5E
102
{ACAD_REACTORS
330
47
102
}
330
47
100
AcDbScale
 70
     0
300
1/8" = 1'-0"
140
0.125
141
12.0
290
     0
  0
SCALE
  5
5F
102
{ACAD_REACTORS
330
47
102
}
330
47
100
AcDbScale
 70
     0
300
3/16" = 1'-0"
140
0.1875
141
12.0
290
     0
  0
SCALE
  5
60
102
{ACAD_REACTORS
330
47
102
}
330
47
100
AcDbScale
 70
     0
300
1/4" = 1'-0"
140
0.25
141
12.0
290
     0
  0
SCALE
  5
61
102
{ACAD_REACTORS
330
47
102
}
330
47
100
AcDbScale
 70
     0
300
3/8" = 1'-0"
140
0.375
141
12.0
290
     0
  0
SCALE
  5
62
102
{ACAD_REACTORS
330
47
102
}
330
47
100
AcDbScale
 70
     0
300
1/2" = 1'-0"
140
0.5
141
12.0
290
     0
  0
SCALE
  5
63
102
{ACAD_REACTORS
330
47
102
}
330
47
100
AcDbScale
 70
     0
300
3/4" = 1'-0"
140
0.75
141
12.0
290
     0
  0
SCALE
  5
64
102
{ACAD_REACTORS
330
47
102
}
330
47
100
AcDbScale
 70
     0
300
1" = 1'-0"
140
1.0
141
12.0
290
     0
  0
SCALE
  5
65
102
{ACAD_REACTORS
330
47
102
}
330
47
100
AcDbScale
 70
     0
300
1-1/2" = 1'-0"
140
1.5
141
12.0
290
     0
  0
SCALE
  5
66
102
{ACAD_REACTORS
330
47
102
}
330
47
100
AcDbScale
 70
     0
300
3" = 1'-0"
140
3.0
141
12.0
290
     0
  0
SCALE
  5
67
102
{ACAD_REACTORS
330
47
102
}
330
47
100
AcDbScale
 70
     0
300
6" = 1'-0"
140
6.0
141
12.0
290
     0
  0
SCALE
  5
68
102
{ACAD_REACTORS
330
47
102
}
330
47
100
AcDbScale
 70
     0
300
1'-0" = 1'-0"
140
12.0
141
12.0
290
     0
  0
ACDBSECTIONVIEWSTYLE
  5
3F3
102
{ACAD_XDICTIONARY
360
5F4
102
}
102
{ACAD_REACTORS
330
3EE
102
}
330
3EE
100
AcDbModelDocViewStyle
 70
     0
  3
Imperial24
290
     0
100
AcDbSectionViewStyle
 70
     0
 71
     0
 90
       78
 71
     1
340
11
 62
   256
 40
0.24
340
0
340
0
 62
   256
 40
0.24
300
I, O, Q, S, X, Z
 40
0.48
 90
        3
 40
0.18
 90
        1
 71
     2
340
16
 90
       25
 62
   256
340
16
 90
       50
 62
   256
 40
0.24
 40
0.0
 40
0.24
 71
     3
340
11
 62
   256
 40
0.24
 90
        1
 40
0.75
 90
        1
300
%<\AcVar ViewType \f "%tc1">% %<\AcVar ViewSectionStartId>%-%<\AcVar ViewSectionEndId>%\PSCALE %<\AcVar ViewScale \f "%sn">%
 71
     4
 62
   256
 62
   257
300
ANSI31
 40
1.0
 90
        0
290
     0
290
     0
 90
        6
 40
0.0
 40
1.570796326794896
 40
0.2617993877991494
 40
1.308996938995747
 40
-0.2617993877991494
 40
1.832595714594046
  0
TABLESTYLE
  5
3F1
102
{ACAD_XDICTIONARY
360
734
102
}
102
{ACAD_REACTORS
330
3EB
102
}
330
3EB
100
AcDbTableStyle
280
     0
  3
Standard
 70
     0
 71
     0
 40
0.06
 41
0.06
280
     0
281
     0
  7
Standard
140
0.18
170
     2
 62
     0
 63
     7
283
     0
 90
      512
 91
        0
  1

274
    -2
284
     1
 64
     0
275
    -2
285
     1
 65
     0
276
    -2
286
     1
 66
     0
277
    -2
287
     1
 67
     0
278
    -2
288
     1
 68
     0
279
    -2
289
     1
 69
     0
  7
Standard
140
0.25
170
     5
 62
     0
 63
     7
283
     0
 90
      512
 91
        0
  1

274
    -2
284
     1
 64
     0
275
    -2
285
     1
 65
     0
276
    -2
286
     1
 66
     0
277
    -2
287
     1
 67
     0
278
    -2
288
     1
 68
     0
279
    -2
289
     1
 69
     0
  7
Standard
140
0.18
170
     5
 62
     0
 63
     7
283
     0
 90
      512
 91
        0
  1

274
    -2
284
     1
 64
     0
275
    -2
285
     1
 65
     0
276
    -2
286
     1
 66
     0
277
    -2
287
     1
 67
     0
278
    -2
288
     1
 68
     0
279
    -2
289
     1
 69
     0
  0
VISUALSTYLE
  5
2F
102
{ACAD_REACTORS
330
2A
102
}
330
2A
100
AcDbVisualStyle
  2
2dWireframe
 70
     4
177
     3
291
     0
 70
    58
 90
        0
176
     1
 90
        2
176
     1
 90
        0
176
     1
 90
        0
176
     1
 40
0.6
176
     1
 40
30.0
176
     1
 62
     7
420
 16777215
176
     1
 90
        1
176
     1
 90
        4
176
     1
 62
     7
176
     1
 62
   257
176
     1
 90
        1
176
     1
 90
        1
176
     1
 40
1.0
176
     1
 90
        0
176
     1
 62
   257
176
     1
 40
1.0
176
     1
 90
        1
176
     1
 90
        6
176
     1
 90
        2
176
     1
 62
     7
176
     1
 90
        5
176
     1
 90
        0
176
     1
 90
        0
176
     1
290
     0
176
     1
 90
        1
176
     1
 40
0.0
176
     1
 90
        0
176
     1
290
     1
176
     1
290
     1
176
     1
290
     0
176
     1
290
     0
176
     1
290
     0
176
     1
290
     0
176
     1
290
     0
176
     1
290
     0
176
     1
290
     0
176
     1
 90
       50
176
     1
 40
0.0
176
     1
 40
1.0
176
     1
 90
        0
176
     1
 62
    18
420
        0
176
     1
 90
       50
176
     1
 90
        3
176
     1
 62
     5
420
      255
176
     1
290
     0
176
     1
 90
       50
176
     1
 90
       50
176
     1
 90
       50
176
     1
290
     0
176
     1
 90
       50
176
     1
 62
   256
176
     0
 40
1.0
176
     0
 90
        2
176
     1
  1
strokes_ogs.tif
176
     1
290
     0
176
     1
 40
1.0
176
     1
 40
1.0
176
     1
  0
VISUALSTYLE
  5
32
102
{ACAD_REACTORS
330
2A
102
}
330
2A
100
AcDbVisualStyle
  2
Basic
 70
     7
177
     3
291
     1
 70
    58
 90
        1
176
     1
 90
        0
176
     1
 90
        1
176
     1
 90
        0
176
     1
 40
0.6
176
     1
 40
30.0
176
     1
 62
     7
420
 16777215
176
     1
 90
        0
176
     1
 90
        4
176
     1
 62
     7
176
     1
 62
   257
176
     1
 90
        1
176
     1
 90
        1
176
     1
 40
1.0
176
     1
 90
        8
176
     1
 62
     7
176
     1
 40
1.0
176
     1
 90
        1
176
     1
 90
        6
176
     1
 90
        2
176
     1
 62
     7
176
     1
 90
        5
176
     1
 90
        0
176
     1
 90
        0
176
     1
290
     0
176
     1
 90
        1
176
     1
 40
0.0
176
     1
 90
        0
176
     1
290
     0
176
     1
290
     1
176
     1
290
     1
176
     1
290
     0
176
     1
290
     0
176
     1
290
     0
176
     1
290
     0
176
     1
290
     0
176
     1
290
     0
176
     1
 90
       50
176
     1
 40
0.0
176
     1
 40
1.0
176
     1
 90
        0
176
     1
 62
    18
420
        0
176
     1
 90
       50
176
     1
 90
        3
176
     1
 62
     5
420
      255
176
     1
290
     0
176
     1
 90
       50
176
     1
 90
       50
176
     1
 90
       50
176
     1
290
     0
176
     1
 90
       50
176
     1
 62
   256
176
     0
 40
1.0
176
     0
 90
        2
176
     1
  1
strokes_ogs.tif
176
     1
290
     0
176
     1
 40
1.0
176
     1
 40
1.0
176
     1
  0
VISUALSTYLE
  5
36
102
{ACAD_REACTORS
330
2A
102
}
330
2A
100
AcDbVisualStyle
  2
Brighten
 70
    12
177
     3
291
     1
 70
    58
 90
        2
176
     1
 90
        2
176
     1
 90
        0
176
     1
 90
        0
176
     1
 40
0.6
176
     1
 40
30.0
176
     1
 62
     7
420
 16777215
176
     1
 90
        1
176
     1
 90
        4
176
     1
 62
     7
176
     1
 62
   257
176
     1
 90
        1
176
     1
 90
        1
176
     1
 40
1.0
176
     1
 90
        8
176
     1
 62
     7
176
     1
 40
1.0
176
     1
 90
        1
176
     1
 90
        6
176
     1
 90
        2
176
     1
 62
     7
176
     1
 90
        5
176
     1
 90
        0
176
     1
 90
        0
176
     1
290
     0
176
     1
 90
        1
176
     1
 40
50.0
176
     1
 90
        0
176
     1
290
     0
176
     1
290
     1
176
     1
290
     1
176
     1
290
     0
176
     1
290
     0
176
     1
290
     0
176
     1
290
     0
176
     1
290
     0
176
     1
290
     0
176
     1
 90
       50
176
     1
 40
0.0
176
     1
 40
1.0
176
     1
 90
        0
176
     1
 62
    18
420
        0
176
     1
 90
       50
176
     1
 90
        3
176
     1
 62
     5
420
      255
176
     1
290
     0
176
     1
 90
       50
176
     1
 90
       50
176
     1
 90
       50
176
     1
290
     0
176
     1
 90
       50
176
     1
 62
   256
176
     0
 40
1.0
176
     0
 90
        2
176
     1
  1
strokes_ogs.tif
176
     1
290
     0
176
     1
 40
1.0
176
     1
 40
1.0
176
     1
  0
VISUALSTYLE
  5
3A
102
{ACAD_REACTORS
330
2A
102
}
330
2A
100
AcDbVisualStyle
  2
ColorChange
 70
    16
177
     3
291
     1
 70
    58
 90
        2
176
     1
 90
        2
176
     1
 90
        3
176
     1
 90
        0
176
     1
 40
0.6
176
     1
 40
30.0
176
     1
 62
     8
420
  8421504
176
     1
 90
        1
176
     1
 90
        4
176
     1
 62
     7
176
     1
 62
   257
176
     1
 90
        1
176
     1
 90
        1
176
     1
 40
1.0
176
     1
 90
        8
176
     1
 62
     8
420
  8421504
176
     1
 40
1.0
176
     1
 90
        1
176
     1
 90
        6
176
     1
 90
        2
176
     1
 62
     7
176
     1
 90
        5
176
     1
 90
        0
176
     1
 90
        0
176
     1
290
     0
176
     1
 90
        1
176
     1
 40
0.0
176
     1
 90
        0
176
     1
290
     0
176
     1
290
     1
176
     1
290
     1
176
     1
290
     0
176
     1
290
     0
176
     1
290
     0
176
     1
290
     0
176
     1
290
     0
176
     1
290
     0
176
     1
 90
       50
176
     1
 40
0.0
176
     1
 40
1.0
176
     1
 90
        0
176
     1
 62
    18
420
        0
176
     1
 90
       50
176
     1
 90
        3
176
     1
 62
     5
420
      255
176
     1
290
     0
176
     1
 90
       50
176
     1
 90
       50
176
     1
 90
       50
176
     1
290
     0
176
     1
 90
       50
176
     1
 62
   256
176
     0
 40
1.0
176
     0
 90
        2
176
     1
  1
strokes_ogs.tif
176
     1
290
     0
176
     1
 40
1.0
176
     1
 40
1.0
176
     1
  0
VISUALSTYLE
  5
34
102
{ACAD_REACTORS
330
2A
102
}
330
2A
100
AcDbVisualStyle
  2
Conceptual
 70
     9
177
     3
291
     0
 70
    58
 90
        3
176
     1
 90
        2
176
     1
 90
        0
176
     1
 90
        0
176
     1
 40
0.6
176
     1
 40
30.0
176
     1
 62
     7
420
 16777215
176
     1
 90
        2
176
     1
 90
        2
176
     1
 62
     7
176
     1
 62
   257
176
     1
 90
        1
176
     1
 90
        1
176
     1
 40
179.0
176
     1
 90
        8
176
     1
 62
     7
176
     1
 40
1.0
176
     1
 90
        1
176
     1
 90
        6
176
     1
 90
        2
176
     1
 62
     7
176
     1
 90
        3
176
     1
 90
        0
176
     1
 90
        0
176
     1
290
     0
176
     1
 90
        1
176
     1
 40
0.0
176
     1
 90
        0
176
     1
290
     0
176
     1
290
     1
176
     1
290
     1
176
     1
290
     0
176
     1
290
     0
176
     1
290
     0
176
     1
290
     0
176
     1
290
     0
176
     1
290
     0
176
     1
 90
       50
176
     1
 40
0.0
176
     1
 40
1.0
176
     1
 90
        0
176
     1
 62
    18
420
        0
176
     1
 90
       50
176
     1
 90
        3
176
     1
 62
     5
420
      255
176
     1
290
     0
176
     1
 90
       50
176
     1
 90
       50
176
     1
 90
       50
176
     1
290
     0
176
     1
 90
       50
176
     1
 62
   256
176
     0
 40
1.0
176
     0
 90
        2
176
     1
  1
strokes_ogs.tif
176
     1
290
     0
176
     1
 40
1.0
176
     1
 40
1.0
176
     1
  0
VISUALSTYLE
  5
35
102
{ACAD_REACTORS
330
2A
102
}
330
2A
100
AcDbVisualStyle
  2
Dim
 70
    11
177
     3
291
     1
 70
    58
 90
        2
176
     1
 90
        2
176
     1
 90
        0
176
     1
 90
        0
176
     1
 40
0.6
176
     1
 40
30.0
176
     1
 62
     7
420
 16777215
176
     1
 90
        1
176
     1
 90
        4
176
     1
 62
     7
176
     1
 62
   257
176
     1
 90
        1
176
     1
 90
        1
176
     1
 40
1.0
176
     1
 90
        8
176
     1
 62
     7
176
     1
 40
1.0
176
     1
 90
        1
176
     1
 90
        6
176
     1
 90
        2
176
     1
 62
     7
176
     1
 90
        5
176
     1
 90
        0
176
     1
 90
        0
176
     1
290
     0
176
     1
 90
        1
176
     1
 40
-50.0
176
     1
 90
        0
176
     1
290
     0
176
     1
290
     1
176
     1
290
     1
176
     1
290
     0
176
     1
290
     0
176
     1
290
     0
176
     1
290
     0
176
     1
290
     0
176
     1
290
     0
176
     1
 90
       50
176
     1
 40
0.0
176
     1
 40
1.0
176
     1
 90
        0
176
     1
 62
    18
420
        0
176
     1
 90
       50
176
     1
 90
        3
176
     1
 62
     5
420
      255
176
     1
290
     0
176
     1
 90
       50
176
     1
 90
       50
176
     1
 90
       50
176
     1
290
     0
176
     1
 90
       50
176
     1
 62
   256
176
     0
 40
1.0
176
     0
 90
        2
176
     1
  1
strokes_ogs.tif
176
     1
290
     0
176
     1
 40
1.0
176
     1
 40
1.0
176
     1
  0
VISUALSTYLE
  5
3D
102
{ACAD_REACTORS
330
2A
102
}
330
2A
100
AcDbVisualStyle
  2
EdgeColorOff
 70
    22
177
     3
291
     1
 70
    58
 90
        2
176
     0
 90
        2
176
     0
 90
        0
176
     0
 90
        0
176
     0
 40
0.6
176
     0
 40
30.0
176
     0
 62
     7
420
 16777215
176
     0
 90
        1
176
     0
 90
        4
176
     0
 62
     7
176
     0
 62
   257
176
     0
 90
        1
176
     0
 90
        1
176
     0
 40
1.0
176
     0
 90
        8
176
     2
 62
     7
176
     0
 40
1.0
176
     0
 90
        1
176
     0
 90
        6
176
     0
 90
        2
176
     0
 62
     7
176
     0
 90
        5
176
     0
 90
        0
176
     0
 90
        0
176
     0
290
     0
176
     0
 90
        1
176
     0
 40
0.0
176
     0
 90
        0
176
     0
290
     0
176
     0
290
     1
176
     0
290
     1
176
     0
290
     0
176
     0
290
     0
176
     0
290
     0
176
     0
290
     0
176
     0
290
     0
176
     0
290
     0
176
     0
 90
       50
176
     0
 40
0.0
176
     0
 40
1.0
176
     0
 90
        0
176
     0
 62
    18
420
        0
176
     0
 90
       50
176
     0
 90
        3
176
     0
 62
     5
420
      255
176
     0
290
     0
176
     0
 90
       50
176
     0
 90
       50
176
     0
 90
       50
176
     0
290
     0
176
     0
 90
       50
176
     0
 62
   256
176
     0
 40
1.0
176
     0
 90
        2
176
     0
  1
strokes_ogs.tif
176
     0
290
     0
176
     0
 40
1.0
176
     0
 40
1.0
176
     0
  0
VISUALSTYLE
  5
39
102
{ACAD_REACTORS
330
2A
102
}
330
2A
100
AcDbVisualStyle
  2
Facepattern
 70
    15
177
     3
291
     1
 70
    58
 90
        2
176
     1
 90
        2
176
     1
 90
        0
176
     1
 90
        0
176
     1
 40
0.6
176
     1
 40
30.0
176
     1
 62
     7
420
 16777215
176
     1
 90
        1
176
     1
 90
        4
176
     1
 62
     7
176
     1
 62
   257
176
     1
 90
        1
176
     1
 90
        1
176
     1
 40
1.0
176
     1
 90
        8
176
     1
 62
     7
176
     1
 40
1.0
176
     1
 90
        1
176
     1
 90
        6
176
     1
 90
        2
176
     1
 62
     7
176
     1
 90
        5
176
     1
 90
        0
176
     1
 90
        0
176
     1
290
     0
176
     1
 90
        1
176
     1
 40
0.0
176
     1
 90
        0
176
     1
290
     0
176
     1
290
     1
176
     1
290
     1
176
     1
290
     0
176
     1
290
     0
176
     1
290
     0
176
     1
290
     0
176
     1
290
     0
176
     1
290
     0
176
     1
 90
       50
176
     1
 40
0.0
176
     1
 40
1.0
176
     1
 90
        0
176
     1
 62
    18
420
        0
176
     1
 90
       50
176
     1
 90
        3
176
     1
 62
     5
420
      255
176
     1
290
     0
176
     1
 90
       50
176
     1
 90
       50
176
     1
 90
       50
176
     1
290
     0
176
     1
 90
       50
176
     1
 62
   256
176
     0
 40
1.0
176
     0
 90
        2
176
     1
  1
strokes_ogs.tif
176
     1
290
     0
176
     1
 40
1.0
176
     1
 40
1.0
176
     1
  0
VISUALSTYLE
  5
2B
102
{ACAD_REACTORS
330
2A
102
}
330
2A
100
AcDbVisualStyle
  2
Flat
 70
     0
177
     3
291
     1
 70
    58
 90
        2
176
     1
 90
        1
176
     1
 90
        1
176
     1
 90
        2
176
     1
 40
0.6
176
     1
 40
30.0
176
     1
 62
     7
420
 16777215
176
     1
 90
        0
176
     1
 90
        0
176
     1
 62
     7
176
     1
 62
   257
176
     1
 90
        1
176
     1
 90
        1
176
     1
 40
1.0
176
     1
 90
        8
176
     1
 62
     7
176
     1
 40
1.0
176
     1
 90
        1
176
     1
 90
        6
176
     1
 90
        2
176
     1
 62
     7
176
     1
 90
        5
176
     1
 90
        0
176
     1
 90
        0
176
     1
290
     0
176
     1
 90
       13
176
     1
 40
0.0
176
     1
 90
        0
176
     1
290
     0
176
     1
290
     1
176
     1
290
     1
176
     1
290
     0
176
     1
290
     0
176
     1
290
     0
176
     1
290
     0
176
     1
290
     0
176
     1
290
     0
176
     1
 90
       50
176
     1
 40
0.0
176
     1
 40
1.0
176
     1
 90
        0
176
     1
 62
    18
420
        0
176
     1
 90
       50
176
     1
 90
        3
176
     1
 62
     5
420
      255
176
     1
290
     0
176
     1
 90
       50
176
     1
 90
       50
176
     1
 90
       50
176
     1
290
     0
176
     1
 90
       50
176
     1
 62
   256
176
     0
 40
1.0
176
     0
 90
        2
176
     1
  1
strokes_ogs.tif
176
     1
290
     0
176
     1
 40
1.0
176
     1
 40
1.0
176
     1
  0
VISUALSTYLE
  5
2C
102
{ACAD_REACTORS
330
2A
102
}
330
2A
100
AcDbVisualStyle
  2
FlatWithEdges
 70
     1
177
     3
291
     1
 70
    58
 90
        2
176
     1
 90
        1
176
     1
 90
        1
176
     1
 90
        2
176
     1
 40
0.6
176
     1
 40
30.0
176
     1
 62
     7
420
 16777215
176
     1
 90
        1
176
     1
 90
        0
176
     1
 62
     7
176
     1
 62
   257
176
     1
 90
        1
176
     1
 90
        1
176
     1
 40
1.0
176
     1
 90
        0
176
     1
 62
   257
176
     1
 40
1.0
176
     1
 90
        1
176
     1
 90
        6
176
     1
 90
        2
176
     1
 62
     7
176
     1
 90
        5
176
     1
 90
        0
176
     1
 90
        0
176
     1
290
     0
176
     1
 90
       13
176
     1
 40
0.0
176
     1
 90
        0
176
     1
290
     0
176
     1
290
     1
176
     1
290
     1
176
     1
290
     0
176
     1
290
     0
176
     1
290
     0
176
     1
290
     0
176
     1
290
     0
176
     1
290
     0
176
     1
 90
       50
176
     1
 40
0.0
176
     1
 40
1.0
176
     1
 90
        0
176
     1
 62
    18
420
        0
176
     1
 90
       50
176
     1
 90
        3
176
     1
 62
     5
420
      255
176
     1
290
     0
176
     1
 90
       50
176
     1
 90
       50
176
     1
 90
       50
176
     1
290
     0
176
     1
 90
       50
176
     1
 62
   256
176
     0
 40
1.0
176
     0
 90
        2
176
     1
  1
strokes_ogs.tif
176
     1
290
     0
176
     1
 40
1.0
176
     1
 40
1.0
176
     1
  0
VISUALSTYLE
  5
2D
102
{ACAD_REACTORS
330
2A
102
}
330
2A
100
AcDbVisualStyle
  2
Gouraud
 70
     2
177
     3
291
     1
 70
    58
 90
        2
176
     1
 90
        2
176
     1
 90
        1
176
     1
 90
        2
176
     1
 40
0.6
176
     1
 40
30.0
176
     1
 62
     7
420
 16777215
176
     1
 90
        0
176
     1
 90
        0
176
     1
 62
     7
176
     1
 62
   257
176
     1
 90
        1
176
     1
 90
        1
176
     1
 40
1.0
176
     1
 90
        0
176
     1
 62
     7
176
     1
 40
1.0
176
     1
 90
        1
176
     1
 90
        6
176
     1
 90
        2
176
     1
 62
     7
176
     1
 90
        5
176
     1
 90
        0
176
     1
 90
        0
176
     1
290
     0
176
     1
 90
       13
176
     1
 40
0.0
176
     1
 90
        0
176
     1
290
     0
176
     1
290
     1
176
     1
290
     1
176
     1
290
     0
176
     1
290
     0
176
     1
290
     0
176
     1
290
     0
176
     1
290
     0
176
     1
290
     0
176
     1
 90
       50
176
     1
 40
0.0
176
     1
 40
1.0
176
     1
 90
        0
176
     1
 62
    18
420
        0
176
     1
 90
       50
176
     1
 90
        3
176
     1
 62
     5
420
      255
176
     1
290
     0
176
     1
 90
       50
176
     1
 90
       50
176
     1
 90
       50
176
     1
290
     0
176
     1
 90
       50
176
     1
 62
   256
176
     0
 40
1.0
176
     0
 90
        2
176
     1
  1
strokes_ogs.tif
176
     1
290
     0
176
     1
 40
1.0
176
     1
 40
1.0
176
     1
  0
VISUALSTYLE
  5
2E
102
{ACAD_REACTORS
330
2A
102
}
330
2A
100
AcDbVisualStyle
  2
GouraudWithEdges
 70
     3
177
     3
291
     1
 70
    58
 90
        2
176
     1
 90
        2
176
     1
 90
        1
176
     1
 90
        2
176
     1
 40
0.6
176
     1
 40
30.0
176
     1
 62
     7
420
 16777215
176
     1
 90
        1
176
     1
 90
        0
176
     1
 62
     7
176
     1
 62
   257
176
     1
 90
        1
176
     1
 90
        1
176
     1
 40
1.0
176
     1
 90
        0
176
     1
 62
   257
176
     1
 40
1.0
176
     1
 90
        1
176
     1
 90
        6
176
     1
 90
        2
176
     1
 62
     7
176
     1
 90
        5
176
     1
 90
        0
176
     1
 90
        0
176
     1
290
     0
176
     1
 90
       13
176
     1
 40
0.0
176
     1
 90
        0
176
     1
290
     0
176
     1
290
     1
176
     1
290
     1
176
     1
290
     0
176
     1
290
     0
176
     1
290
     0
176
     1
290
     0
176
     1
290
     0
176
     1
290
     0
176
     1
 90
       50
176
     1
 40
0.0
176
     1
 40
1.0
176
     1
 90
        0
176
     1
 62
    18
420
        0
176
     1
 90
       50
176
     1
 90
        3
176
     1
 62
     5
420
      255
176
     1
290
     0
176
     1
 90
       50
176
     1
 90
       50
176
     1
 90
       50
176
     1
290
     0
176
     1
 90
       50
176
     1
 62
   256
176
     0
 40
1.0
176
     0
 90
        2
176
     1
  1
strokes_ogs.tif
176
     1
290
     0
176
     1
 40
1.0
176
     1
 40
1.0
176
     1
  0
VISUALSTYLE
  5
31
102
{ACAD_REACTORS
330
2A
102
}
330
2A
100
AcDbVisualStyle
  2
Hidden
 70
     6
177
     3
291
     0
 70
    58
 90
        1
176
     1
 90
        2
176
     1
 90
        2
176
     1
 90
        0
176
     1
 40
0.6
176
     1
 40
30.0
176
     1
 62
     7
420
 16777215
176
     1
 90
        2
176
     1
 90
        2
176
     1
 62
     7
176
     1
 62
   257
176
     1
 90
        2
176
     1
 90
        1
176
     1
 40
40.0
176
     1
 90
        0
176
     1
 62
   257
176
     1
 40
1.0
176
     1
 90
        1
176
     1
 90
        6
176
     1
 90
        2
176
     1
 62
     7
176
     1
 90
        3
176
     1
 90
        0
176
     1
 90
        0
176
     1
290
     0
176
     1
 90
        1
176
     1
 40
0.0
176
     1
 90
        0
176
     1
290
     0
176
     1
290
     1
176
     1
290
     1
176
     1
290
     0
176
     1
290
     0
176
     1
290
     0
176
     1
290
     0
176
     1
290
     0
176
     1
290
     0
176
     1
 90
       50
176
     1
 40
0.0
176
     1
 40
1.0
176
     1
 90
        0
176
     1
 62
    18
420
        0
176
     1
 90
       50
176
     1
 90
        3
176
     1
 62
     5
420
      255
176
     1
290
     0
176
     1
 90
       50
176
     1
 90
       50
176
     1
 90
       50
176
     1
290
     0
176
     1
 90
       50
176
     1
 62
   256
176
     0
 40
1.0
176
     0
 90
        2
176
     1
  1
strokes_ogs.tif
176
     1
290
     0
176
     1
 40
1.0
176
     1
 40
1.0
176
     1
  0
VISUALSTYLE
  5
3B
102
{ACAD_REACTORS
330
2A
102
}
330
2A
100
AcDbVisualStyle
  2
JitterOff
 70
    20
177
     3
291
     1
 70
    58
 90
        2
176
     0
 90
        2
176
     0
 90
        0
176
     0
 90
        0
176
     0
 40
0.6
176
     0
 40
30.0
176
     0
 62
     7
420
 16777215
176
     0
 90
        1
176
     0
 90
        4
176
     0
 62
     7
176
     0
 62
   257
176
     0
 90
        1
176
     0
 90
        1
176
     0
 40
1.0
176
     0
 90
       10
176
     2
 62
     7
176
     0
 40
1.0
176
     0
 90
        1
176
     0
 90
        6
176
     0
 90
        2
176
     0
 62
     7
176
     0
 90
        5
176
     0
 90
        0
176
     0
 90
        0
176
     0
290
     0
176
     0
 90
        1
176
     0
 40
0.0
176
     0
 90
        0
176
     0
290
     0
176
     0
290
     1
176
     0
290
     1
176
     0
290
     0
176
     0
290
     0
176
     0
290
     0
176
     0
290
     0
176
     0
290
     0
176
     0
290
     0
176
     0
 90
       50
176
     0
 40
0.0
176
     0
 40
1.0
176
     0
 90
        0
176
     0
 62
    18
420
        0
176
     0
 90
       50
176
     0
 90
        3
176
     0
 62
     5
420
      255
176
     0
290
     0
176
     0
 90
       50
176
     0
 90
       50
176
     0
 90
       50
176
     0
290
     0
176
     0
 90
       50
176
     0
 62
   256
176
     0
 40
1.0
176
     0
 90
        2
176
     0
  1
strokes_ogs.tif
176
     0
290
     0
176
     0
 40
1.0
176
     0
 40
1.0
176
     0
  0
VISUALSTYLE
  5
38
102
{ACAD_REACTORS
330
2A
102
}
330
2A
100
AcDbVisualStyle
  2
Linepattern
 70
    14
177
     3
291
     1
 70
    58
 90
        2
176
     1
 90
        2
176
     1
 90
        0
176
     1
 90
        0
176
     1
 40
0.6
176
     1
 40
30.0
176
     1
 62
     7
420
 16777215
176
     1
 90
        1
176
     1
 90
        4
176
     1
 62
     7
176
     1
 62
   257
176
     1
 90
        7
176
     1
 90
        7
176
     1
 40
1.0
176
     1
 90
        8
176
     1
 62
     7
176
     1
 40
1.0
176
     1
 90
        1
176
     1
 90
        6
176
     1
 90
        2
176
     1
 62
     7
176
     1
 90
        5
176
     1
 90
        0
176
     1
 90
        0
176
     1
290
     0
176
     1
 90
        1
176
     1
 40
0.0
176
     1
 90
        0
176
     1
290
     0
176
     1
290
     1
176
     1
290
     1
176
     1
290
     0
176
     1
290
     0
176
     1
290
     0
176
     1
290
     0
176
     1
290
     0
176
     1
290
     0
176
     1
 90
       50
176
     1
 40
0.0
176
     1
 40
1.0
176
     1
 90
        0
176
     1
 62
    18
420
        0
176
     1
 90
       50
176
     1
 90
        3
176
     1
 62
     5
420
      255
176
     1
290
     0
176
     1
 90
       50
176
     1
 90
       50
176
     1
 90
       50
176
     1
290
     0
176
     1
 90
       50
176
     1
 62
   256
176
     0
 40
1.0
176
     0
 90
        2
176
     1
  1
strokes_ogs.tif
176
     1
290
     0
176
     1
 40
1.0
176
     1
 40
1.0
176
     1
  0
VISUALSTYLE
  5
3C
102
{ACAD_REACTORS
330
2A
102
}
330
2A
100
AcDbVisualStyle
  2
OverhangOff
 70
    21
177
     3
291
     1
 70
    58
 90
        2
176
     0
 90
        2
176
     0
 90
        0
176
     0
 90
        0
176
     0
 40
0.6
176
     0
 40
30.0
176
     0
 62
     7
420
 16777215
176
     0
 90
        1
176
     0
 90
        4
176
     0
 62
     7
176
     0
 62
   257
176
     0
 90
        1
176
     0
 90
        1
176
     0
 40
1.0
176
     0
 90
        9
176
     2
 62
     7
176
     0
 40
1.0
176
     0
 90
        1
176
     0
 90
        6
176
     0
 90
        2
176
     0
 62
     7
176
     0
 90
        5
176
     0
 90
        0
176
     0
 90
        0
176
     0
290
     0
176
     0
 90
        1
176
     0
 40
0.0
176
     0
 90
        0
176
     0
290
     0
176
     0
290
     1
176
     0
290
     1
176
     0
290
     0
176
     0
290
     0
176
     0
290
     0
176
     0
290
     0
176
     0
290
     0
176
     0
290
     0
176
     0
 90
       50
176
     0
 40
0.0
176
     0
 40
1.0
176
     0
 90
        0
176
     0
 62
    18
420
        0
176
     0
 90
       50
176
     0
 90
        3
176
     0
 62
     5
420
      255
176
     0
290
     0
176
     0
 90
       50
176
     0
 90
       50
176
     0
 90
       50
176
     0
290
     0
176
     0
 90
       50
176
     0
 62
   256
176
     0
 40
1.0
176
     0
 90
        2
176
     0
  1
strokes_ogs.tif
176
     0
290
     0
176
     0
 40
1.0
176
     0
 40
1.0
176
     0
  0
VISUALSTYLE
  5
33
102
{ACAD_REACTORS
330
2A
102
}
330
2A
100
AcDbVisualStyle
  2
Realistic
 70
     8
177
     3
291
     0
 70
    58
 90
        2
176
     1
 90
        3
176
     1
 90
        0
176
     1
 90
        2
176
     1
 40
0.6
176
     1
 40
30.0
176
     1
 62
     7
420
 16777215
176
     1
 90
        0
176
     1
 90
        0
176
     1
 62
     7
176
     1
 62
   257
176
     1
 90
        1
176
     1
 90
        1
176
     1
 40
1.0
176
     1
 90
        8
176
     1
 62
   257
176
     1
 40
1.0
176
     1
 90
        1
176
     1
 90
        6
176
     1
 90
        2
176
     1
 62
     7
176
     1
 90
        3
176
     1
 90
        0
176
     1
 90
        0
176
     1
290
     0
176
     1
 90
       13
176
     1
 40
0.0
176
     1
 90
        0
176
     1
290
     0
176
     1
290
     1
176
     1
290
     1
176
     1
290
     0
176
     1
290
     0
176
     1
290
     0
176
     1
290
     0
176
     1
290
     0
176
     1
290
     0
176
     1
 90
       50
176
     1
 40
0.0
176
     1
 40
1.0
176
     1
 90
        0
176
     1
 62
    18
420
        0
176
     1
 90
       50
176
     1
 90
        3
176
     1
 62
     5
420
      255
176
     1
290
     0
176
     1
 90
       50
176
     1
 90
       50
176
     1
 90
       50
176
     1
290
     0
176
     1
 90
       50
176
     1
 62
   256
176
     0
 40
1.0
176
     0
 90
        2
176
     1
  1
strokes_ogs.tif
176
     1
290
     0
176
     1
 40
1.0
176
     1
 40
1.0
176
     1
  0
VISUALSTYLE
  5
42
102
{ACAD_REACTORS
330
2A
102
}
330
2A
100
AcDbVisualStyle
  2
Shaded
 70
    27
177
     3
291
     0
 70
    58
 90
        2
176
     1
 90
        2
176
     1
 90
        1
176
     1
 90
        2
176
     1
 40
0.6
176
     1
 40
30.0
176
     1
 62
     7
420
 16777215
176
     1
 90
        0
176
     1
 90
        4
176
     1
 62
     7
176
     1
 62
   257
176
     1
 90
        1
176
     1
 90
        1
176
     1
 40
1.0
176
     1
 90
        8
176
     1
 62
   257
176
     1
 40
1.0
176
     1
 90
        1
176
     1
 90
        6
176
     1
 90
        2
176
     1
 62
     8
420
  7895160
176
     1
 90
        3
176
     1
 90
        0
176
     1
 90
        0
176
     1
290
     0
176
     1
 90
        5
176
     1
 40
0.0
176
     1
 90
        0
176
     1
290
     0
176
     1
290
     1
176
     1
290
     1
176
     1
290
     0
176
     1
290
     0
176
     1
290
     0
176
     1
290
     0
176
     1
290
     0
176
     1
290
     0
176
     1
 90
       50
176
     1
 40
0.0
176
     1
 40
1.0
176
     1
 90
        0
176
     1
 62
    18
420
        0
176
     1
 90
       50
176
     1
 90
        3
176
     1
 62
     5
420
      255
176
     1
290
     0
176
     1
 90
       50
176
     1
 90
       50
176
     1
 90
       50
176
     1
290
     0
176
     1
 90
       50
176
     1
 62
   256
176
     0
 40
1.0
176
     0
 90
        2
176
     1
  1
strokes_ogs.tif
176
     1
290
     0
176
     1
 40
1.0
176
     1
 40
1.0
176
     1
  0
VISUALSTYLE
  5
41
102
{ACAD_REACTORS
330
2A
102
}
330
2A
100
AcDbVisualStyle
  2
Shaded with edges
 70
    26
177
     3
291
     0
 70
    58
 90
        2
176
     1
 90
        2
176
     1
 90
        1
176
     1
 90
        2
176
     1
 40
0.6
176
     1
 40
30.0
176
     1
 62
     7
420
 16777215
176
     1
 90
        1
176
     1
 90
       10
176
     1
 62
     7
176
     1
 62
   257
176
     1
 90
        2
176
     1
 90
        1
176
     1
 40
1.0
176
     1
 90
        8
176
     1
 62
   257
176
     1
 40
1.0
176
     1
 90
        1
176
     1
 90
        6
176
     1
 90
        2
176
     1
 62
     7
176
     1
 90
        3
176
     1
 90
        0
176
     1
 90
        0
176
     1
290
     0
176
     1
 90
        5
176
     1
 40
0.0
176
     1
 90
        0
176
     1
290
     0
176
     1
290
     1
176
     1
290
     1
176
     1
290
     0
176
     1
290
     0
176
     1
290
     0
176
     1
290
     0
176
     1
290
     0
176
     1
290
     0
176
     1
 90
       50
176
     1
 40
0.0
176
     1
 40
1.0
176
     1
 90
        0
176
     1
 62
    18
420
        0
176
     1
 90
       50
176
     1
 90
        3
176
     1
 62
     5
420
      255
176
     1
290
     0
176
     1
 90
       50
176
     1
 90
       50
176
     1
 90
       50
176
     1
290
     0
176
     1
 90
       50
176
     1
 62
   256
176
     0
 40
1.0
176
     0
 90
        2
176
     1
  1
strokes_ogs.tif
176
     1
290
     0
176
     1
 40
1.0
176
     1
 40
1.0
176
     1
  0
VISUALSTYLE
  5
3E
102
{ACAD_REACTORS
330
2A
102
}
330
2A
100
AcDbVisualStyle
  2
Shades of Gray
 70
    23
177
     3
291
     0
 70
    58
 90
        2
176
     1
 90
        2
176
     1
 90
        3
176
     1
 90
        0
176
     1
 40
0.6
176
     1
 40
30.0
176
     1
 62
     7
420
 16777215
176
     1
 90
        2
176
     1
 90
        2
176
     1
 62
     7
176
     1
 62
     7
176
     1
 90
        1
176
     1
 90
        1
176
     1
 40
40.0
176
     1
 90
        8
176
     1
 62
     7
176
     1
 40
1.0
176
     1
 90
        1
176
     1
 90
        6
176
     1
 90
        2
176
     1
 62
     7
176
     1
 90
        3
176
     1
 90
        0
176
     1
 90
        0
176
     1
290
     0
176
     1
 90
        1
176
     1
 40
0.0
176
     1
 90
        0
176
     1
290
     0
176
     1
290
     1
176
     1
290
     1
176
     1
290
     0
176
     1
290
     0
176
     1
290
     0
176
     1
290
     0
176
     1
290
     0
176
     1
290
     0
176
     1
 90
       50
176
     1
 40
0.0
176
     1
 40
1.0
176
     1
 90
        0
176
     1
 62
    18
420
        0
176
     1
 90
       50
176
     1
 90
        3
176
     1
 62
     5
420
      255
176
     1
290
     0
176
     1
 90
       50
176
     1
 90
       50
176
     1
 90
       50
176
     1
290
     0
176
     1
 90
       50
176
     1
 62
   256
176
     0
 40
1.0
176
     0
 90
        2
176
     1
  1
strokes_ogs.tif
176
     1
290
     0
176
     1
 40
1.0
176
     1
 40
1.0
176
     1
  0
VISUALSTYLE
  5
3F
102
{ACAD_REACTORS
330
2A
102
}
330
2A
100
AcDbVisualStyle
  2
Sketchy
 70
    24
177
     3
291
     0
 70
    58
 90
        1
176
     1
 90
        2
176
     1
 90
        2
176
     1
 90
        0
176
     1
 40
0.6
176
     1
 40
30.0
176
     1
 62
     7
420
 16777215
176
     1
 90
        2
176
     1
 90
        2
176
     1
 62
     7
176
     1
 62
     7
176
     1
 90
        1
176
     1
 90
        1
176
     1
 40
40.0
176
     1
 90
       11
176
     1
 62
     7
176
     1
 40
1.0
176
     1
 90
        1
176
     1
 90
        6
176
     1
 90
        2
176
     1
 62
     7
176
     1
 90
        6
176
     1
 90
        0
176
     1
 90
        0
176
     1
290
     0
176
     1
 90
        1
176
     1
 40
0.0
176
     1
 90
        0
176
     1
290
     0
176
     1
290
     1
176
     1
290
     1
176
     1
290
     0
176
     1
290
     0
176
     1
290
     0
176
     1
290
     0
176
     1
290
     0
176
     1
290
     0
176
     1
 90
       50
176
     1
 40
0.0
176
     1
 40
1.0
176
     1
 90
        0
176
     1
 62
    18
420
        0
176
     1
 90
       50
176
     1
 90
        3
176
     1
 62
     5
420
      255
176
     1
290
     0
176
     1
 90
       50
176
     1
 90
       50
176
     1
 90
       50
176
     1
290
     0
176
     1
 90
       50
176
     1
 62
   256
176
     0
 40
1.0
176
     0
 90
        2
176
     1
  1
strokes_ogs.tif
176
     1
290
     0
176
     1
 40
1.0
176
     1
 40
1.0
176
     1
  0
VISUALSTYLE
  5
37
102
{ACAD_REACTORS
330
2A
102
}
330
2A
100
AcDbVisualStyle
  2
Thicken
 70
    13
177
     3
291
     1
 70
    58
 90
        2
176
     1
 90
        2
176
     1
 90
        0
176
     1
 90
        0
176
     1
 40
0.6
176
     1
 40
30.0
176
     1
 62
     7
420
 16777215
176
     1
 90
        1
176
     1
 90
        4
176
     1
 62
     7
176
     1
 62
   257
176
     1
 90
        1
176
     1
 90
        1
176
     1
 40
1.0
176
     1
 90
       12
176
     1
 62
     7
176
     1
 40
1.0
176
     1
 90
        1
176
     1
 90
        6
176
     1
 90
        2
176
     1
 62
     7
176
     1
 90
        5
176
     1
 90
        0
176
     1
 90
        0
176
     1
290
     0
176
     1
 90
        1
176
     1
 40
0.0
176
     1
 90
        0
176
     1
290
     0
176
     1
290
     1
176
     1
290
     1
176
     1
290
     0
176
     1
290
     0
176
     1
290
     0
176
     1
290
     0
176
     1
290
     0
176
     1
290
     0
176
     1
 90
       50
176
     1
 40
0.0
176
     1
 40
1.0
176
     1
 90
        0
176
     1
 62
    18
420
        0
176
     1
 90
       50
176
     1
 90
        3
176
     1
 62
     5
420
      255
176
     1
290
     0
176
     1
 90
       50
176
     1
 90
       50
176
     1
 90
       50
176
     1
290
     0
176
     1
 90
       50
176
     1
 62
   256
176
     0
 40
1.0
176
     0
 90
        2
176
     1
  1
strokes_ogs.tif
176
     1
290
     0
176
     1
 40
1.0
176
     1
 40
1.0
176
     1
  0
VISUALSTYLE
  5
30
102
{ACAD_REACTORS
330
2A
102
}
330
2A
100
AcDbVisualStyle
  2
Wireframe
 70
     5
177
     3
291
     0
 70
    58
 90
        0
176
     1
 90
        2
176
     1
 90
        0
176
     1
 90
        0
176
     1
 40
0.6
176
     1
 40
30.0
176
     1
 62
     7
420
 16777215
176
     1
 90
        1
176
     1
 90
        4
176
     1
 62
     7
176
     1
 62
   257
176
     1
 90
        1
176
     1
 90
        1
176
     1
 40
1.0
176
     1
 90
        0
176
     1
 62
   257
176
     1
 40
1.0
176
     1
 90
        1
176
     1
 90
        6
176
     1
 90
        2
176
     1
 62
     7
176
     1
 90
        3
176
     1
 90
        0
176
     1
 90
        0
176
     1
290
     0
176
     1
 90
        1
176
     1
 40
0.0
176
     1
 90
        0
176
     1
290
     0
176
     1
290
     1
176
     1
290
     1
176
     1
290
     0
176
     1
290
     0
176
     1
290
     0
176
     1
290
     0
176
     1
290
     0
176
     1
290
     0
176
     1
 90
       50
176
     1
 40
0.0
176
     1
 40
1.0
176
     1
 90
        0
176
     1
 62
    18
420
        0
176
     1
 90
       50
176
     1
 90
        3
176
     1
 62
     5
420
      255
176
     1
290
     0
176
     1
 90
       50
176
     1
 90
       50
176
     1
 90
       50
176
     1
290
     0
176
     1
 90
       50
176
     1
 62
   256
176
     0
 40
1.0
176
     0
 90
        2
176
     1
  1
strokes_ogs.tif
176
     1
290
     0
176
     1
 40
1.0
176
     1
 40
1.0
176
     1
  0
VISUALSTYLE
  5
40
102
{ACAD_REACTORS
330
2A
102
}
330
2A
100
AcDbVisualStyle
  2
X-Ray
 70
    25
177
     3
291
     0
 70
    58
 90
        2
176
     1
 90
        2
176
     1
 90
        1
176
     1
 90
        1
176
     1
 40
0.5
176
     1
 40
30.0
176
     1
 62
     7
420
 16777215
176
     1
 90
        1
176
     1
 90
        0
176
     1
 62
     7
176
     1
 62
   257
176
     1
 90
        1
176
     1
 90
        1
176
     1
 40
1.0
176
     1
 90
        8
176
     1
 62
     7
176
     1
 40
1.0
176
     1
 90
        1
176
     1
 90
        6
176
     1
 90
        2
176
     1
 62
     7
176
     1
 90
        3
176
     1
 90
        0
176
     1
 90
        0
176
     1
290
     0
176
     1
 90
       13
176
     1
 40
0.0
176
     1
 90
        0
176
     1
290
     0
176
     1
290
     1
176
     1
290
     1
176
     1
290
     0
176
     1
290
     0
176
     1
290
     0
176
     1
290
     0
176
     1
290
     0
176
     1
290
     0
176
     1
 90
       50
176
     1
 40
0.0
176
     1
 40
1.0
176
     1
 90
        0
176
     1
 62
    18
420
        0
176
     1
 90
       50
176
     1
 90
        3
176
     1
 62
     5
420
      255
176
     1
290
     0
176
     1
 90
       50
176
     1
 90
       50
176
     1
 90
       50
176
     1
290
     0
176
     1
 90
       50
176
     1
 62
   256
176
     0
 40
1.0
176
     0
 90
        2
176
     1
  1
strokes_ogs.tif
176
     1
290
     0
176
     1
 40
1.0
176
     1
 40
1.0
176
     1
  0
DICTIONARYVAR
  5
3B3
102
{ACAD_REACTORS
330
3B2
102
}
330
3B2
100
DictionaryVariables
280
     0
  1
1:1
  0
DICTIONARYVAR
  5
5FA
102
{ACAD_REACTORS
330
3B2
102
}
330
3B2
100
DictionaryVariables
280
     0
  1
STANDARD
  0
DICTIONARYVAR
  5
5F9
102
{ACAD_REACTORS
330
3B2
102
}
330
3B2
100
DictionaryVariables
280
     0
  1
STANDARD
  0
DICTIONARYVAR
  5
5FB
102
{ACAD_REACTORS
330
3B2
102
}
330
3B2
100
DictionaryVariables
280
     0
  1
Imperial24
  0
DICTIONARYVAR
  5
5FC
102
{ACAD_REACTORS
330
3B2
102
}
330
3B2
100
DictionaryVariables
280
     0
  1
Imperial24
  0
DICTIONARYVAR
  5
5FE
102
{ACAD_REACTORS
330
3B2
102
}
330
3B2
100
DictionaryVariables
280
     0
  1
1
  0
DICTIONARYVAR
  5
5FF
102
{ACAD_REACTORS
330
3B2
102
}
330
3B2
100
DictionaryVariables
280
     0
  1
15
  0
DICTIONARYVAR
  5
5FD
102
{ACAD_REACTORS
330
3B2
102
}
330
3B2
100
DictionaryVariables
280
     0
  1
0
  0
DICTIONARYVAR
  5
3B4
102
{ACAD_REACTORS
330
3B2
102
}
330
3B2
100
DictionaryVariables
280
     0
  1
1
  0
DICTIONARY
  5
5F6
330
3F4
100
AcDbDictionary
280
     1
281
     1
  3
ACAD_XREC_ROUNDTRIP
360
737
  0
DICTIONARY
  5
5F4
330
3F3
100
AcDbDictionary
280
     1
281
     1
  3
ACAD_XREC_ROUNDTRIP
360
736
  0
DICTIONARY
  5
734
330
3F1
100
AcDbDictionary
280
     1
281
     1
  3
ACAD_ROUNDTRIP_2008_TABLESTYLE_CELLSTYLEMAP
360
735
  0
XRECORD
  5
737
102
{ACAD_REACTORS
330
5F6
102
}
330
5F6
100
AcDbXrecord
280
     1
102
DISPLAYNAME
  1
Imperial24
102
FLAGS
 90
        0
  0
XRECORD
  5
736
102
{ACAD_REACTORS
330
5F4
102
}
330
5F4
100
AcDbXrecord
280
     1
102
DISPLAYNAME
  1
Imperial24
102
FLAGS
 90
        0
  0
CELLSTYLEMAP
  5
735
102
{ACAD_REACTORS
330
734
102
}
330
734
100
AcDbCellStyleMap
 90
        3
300
CELLSTYLE
  1
TABLEFORMAT_BEGIN
 90
        5
170
     1
 91
        0
 92
    32768
 62
   257
 93
        1
300
CONTENTFORMAT
  1
CONTENTFORMAT_BEGIN
 90
        0
 91
        0
 92
      512
 93
        0
300

 40
0.0
140
1.0
 94
        5
 62
     0
340
11
144
0.25
309
CONTENTFORMAT_END
171
     0
 94
        0
309
TABLEFORMAT_END
  1
CELLSTYLE_BEGIN
 90
        1
 91
        1
300
_TITLE
309
CELLSTYLE_END
300
CELLSTYLE
  1
TABLEFORMAT_BEGIN
 90
        5
170
     1
 91
        0
 92
        0
 62
   257
 93
        1
300
CONTENTFORMAT
  1
CONTENTFORMAT_BEGIN
 90
        0
 91
        0
 92
      512
 93
        0
300

 40
0.0
140
1.0
 94
        5
 62
     0
340
11
144
0.18
309
CONTENTFORMAT_END
171
     0
 94
        0
309
TABLEFORMAT_END
  1
CELLSTYLE_BEGIN
 90
        2
 91
        1
300
_HEADER
309
CELLSTYLE_END
300
CELLSTYLE
  1
TABLEFORMAT_BEGIN
 90
        5
170
     1
 91
        0
 92
        0
 62
   257
 93
        1
300
CONTENTFORMAT
  1
CONTENTFORMAT_BEGIN
 90
        0
 91
        0
 92
      512
 93
        0
300

 40
0.0
140
1.0
 94
        2
 62
     0
340
11
144
0.18
309
CONTENTFORMAT_END
171
     0
 94
        0
309
TABLEFORMAT_END
  1
CELLSTYLE_BEGIN
 90
        3
 91
        2
300
_DATA
309
CELLSTYLE_END
  0
ENDSEC
  0
SECTION
  2
ACDSDATA
 70
     2
 71
     8
  0
ACDSSCHEMA
 90
        0
  1
AcDb3DSolid_ASM_Data
  2
AcDbDs::ID
280
    10
 91
        8
  2
ASM_Data
280
    15
 91
        0
101
ACDSRECORD
 95
        0
 90
        1
  2
AcDbDs::TreatedAsObjectData
280
     1
291
     1
101
ACDSRECORD
 95
        0
 90
        2
  2
AcDbDs::Legacy
280
     1
291
     1
101
ACDSRECORD
  1
AcDbDs::ID
 90
        3
  2
AcDs:Indexable
280
     1
291
     1
101
ACDSRECORD
  1
AcDbDs::ID
 90
        4
  2
AcDbDs::HandleAttribute
280
     7
282
     1
  0
ACDSSCHEMA
 90
        1
  1
AcDbDs::TreatedAsObjectDataSchema
  2
AcDbDs::TreatedAsObjectData
280
     1
 91
        0
  0
ACDSSCHEMA
 90
        2
  1
AcDbDs::LegacySchema
  2
AcDbDs::Legacy
280
     1
 91
        0
  0
ACDSSCHEMA
 90
        3
  1
AcDbDs::IndexedPropertySchema
  2
AcDs:Indexable
280
     1
 91
        0
  0
ACDSSCHEMA
 90
        4
  1
AcDbDs::HandleAttributeSchema
  2
AcDbDs::HandleAttribute
280
     7
 91
        1
284
     1
  0
ACDSSCHEMA
 90
        5
  1
AcDb_Thumbnail_Schema
  2
AcDbDs::ID
280
    10
 91
        8
  2
Thumbnail_Data
280
    15
 91
        0
101
ACDSRECORD
 95
        5
 90
        1
  2
AcDbDs::TreatedAsObjectData
280
     1
291
     1
101
ACDSRECORD
 95
        5
 90
        2
  2
AcDbDs::Legacy
280
     1
291
     1
101
ACDSRECORD
  1
AcDbDs::ID
 90
        3
  2
AcDs:Indexable
280
     1
291
     1
101
ACDSRECORD
  1
AcDbDs::ID
 90
        4
  2
AcDbDs::HandleAttribute
280
     7
282
     1
  0
ACDSRECORD
 90
        5
  2
AcDbDs::ID
280
    10
320
22
  2
Thumbnail_Data
280
    15
 94
     1420
310
89504E470D0A1A0A0000000D4948445200000100000000670803000000D82A6C0200000300504C5445000000000000C8C8C80000000000000000000000000000000000000000000000000000330000660000990000CC0000FF0033000033330033660033990033CC0033FF0066000066330066660066990066CC0066FF0099
310
000099330099660099990099CC0099FF00CC0000CC3300CC6600CC9900CCCC00CCFF00FF0000FF3300FF6600FF9900FFCC00FFFF3300003300333300663300993300CC3300FF3333003333333333663333993333CC3333FF3366003366333366663366993366CC3366FF3399003399333399663399993399CC3399FF33CC00
310
33CC3333CC6633CC9933CCCC33CCFF33FF0033FF3333FF6633FF9933FFCC33FFFF6600006600336600666600996600CC6600FF6633006633336633666633996633CC6633FF6666006666336666666666996666CC6666FF6699006699336699666699996699CC6699FF66CC0066CC3366CC6666CC9966CCCC66CCFF66FF0066
310
FF3366FF6666FF9966FFCC66FFFF9900009900339900669900999900CC9900FF9933009933339933669933999933CC9933FF9966009966339966669966999966CC9966FF9999009999339999669999999999CC9999FF99CC0099CC3399CC6699CC9999CCCC99CCFF99FF0099FF3399FF6699FF9999FFCC99FFFFCC0000CC00
310
33CC0066CC0099CC00CCCC00FFCC3300CC3333CC3366CC3399CC33CCCC33FFCC6600CC6633CC6666CC6699CC66CCCC66FFCC9900CC9933CC9966CC9999CC99CCCC99FFCCCC00CCCC33CCCC66CCCC99CCCCCCCCCCFFCCFF00CCFF33CCFF66CCFF99CCFFCCCCFFFFFF0000FF0033FF0066FF0099FF00CCFF00FFFF3300FF3333
310
FF3366FF3399FF33CCFF33FFFF6600FF6633FF6666FF6699FF66CCFF66FFFF9900FF9933FF9966FF9999FF99CCFF99FFFFCC00FFCC33FFCC66FFCC99FFCCCCFFCCFFFFFF00FFFF33FFFF66FFFF99FFFFCCFFFFFF0000000D0D0D1A1A1A2828283535354343435050505D5D5D6B6B6B787878868686939393A1A1A1AEAEAEBB
310
BBBBC9C9C9D6D6D6E4E4E4F1F1F1FFFFFF00000000000000000000000000000000000000000000000000000000000008F1915C000001754944415478DAED9BBB8EC3300C04F5FFFFBB7D70173F645962E2E270C0EE4CE31469B8A0482E6DB506000000000000000000F0E7E84D72F8E7235281E1992B80B2E34F4C81DF63AF
310
AD0AE6A5C056FBF6B87F7E25E6BEBA22989502F7E21FD60911602640620DD0B52AE6758133ECBC49E8DAFD6327C1C30C6187A337022D9BF4F8819351B8C5F0BA20F71C1F29BC42C219EF07634B01868855F4434B01C681AF12C0B006ACCFF93403BC2C8276EB7751A010E014CB625BAABEA97F29C0F170704AD7F32C7D1460
310
F88B8700F7E5D75280B14EF809A052002180BD00D947E049117411404FBB40EB93C4A00DEA9883DAD783509BBC3B3030020F46E14D33E3154769869ADDB65C4BCBBB90C4ED6D81E6E7BC5891986D04E75F04AC56628E24AC393F4F03BC040480BAFD531AF2A28FFE44E4588ED8599FA7D92F45CE09F70F25159A0099776784
310
00E102F40A28D32DDE6E8CC435C22E6E458E84E7A6987B83E14E30DD0B445F98E0C6000000000000000000C0BFF002AE83D12EB21A093D0000000049454E44AE426082E91F5384923BF70B42F3160086BAE8C3FFF70170391E1FA0331300389C8D7F18007F2633AF8F90E97501989B0E2F0900C2E81B3BBC8EF43ECE87E11B
310
61631F70585858E4896EAD881323F400C01E1BCB8F0D32EF5253E303A657A8CC4040ABE1322E3184E4655BA50B02A00EDABC400109004B44829C0DB1FD171B80445F02F6B88071AD9AC855A0BC50F18408E64EA9CB8D922421B9D8F8927D056A8676410043FF9295E889FD30DAFFB85B3CAED7C75FAF1F3900FE1B23050DF8
310
9AFD002B76DE2AEA22C2F10000000049454E44AE426082
  0
ENDSEC
  0
EOF
