  0
SECTION
  2
HEADER
  9
$ACADVER
  1
AC1027
  9
$ACADMAINTVER
 70
   105
  9
$DWGCODEPAGE
  3
ANSI_1252
  9
$LASTSAVEDBY
  1
Sandra
  9
$REQUIREDVERSIONS
160
                 0
  9
$INSBASE
 10
0.0
 20
0.0
 30
0.0
  9
$EXTMIN
 10
-1594.862465602037
 20
-1594.468874992589
 30
669.2913385826772
  9
$EXTMAX
 10
1594.862685957951
 20
1595.256276567399
 30
679.8884514435696
  9
$LIMMIN
 10
0.0
 20
0.0
  9
$LIMMAX
 10
12.0
 20
9.0
  9
$ORTHOMODE
 70
     1
  9
$REGENMODE
 70
     1
  9
$FILLMODE
 70
     1
  9
$QTEXTMODE
 70
     0
  9
$MIRRTEXT
 70
     1
  9
$LTSCALE
 40
1.0
  9
$ATTMODE
 70
     1
  9
$TEXTSIZE
 40
0.2
  9
$TRACEWID
 40
0.05
  9
$TEXTSTYLE
  7
Standard
  9
$CLAYER
  8
0
  9
$CELTYPE
  6
ByLayer
  9
$CECOLOR
 62
   256
  9
$CELTSCALE
 40
1.0
  9
$DISPSILH
 70
     0
  9
$DIMSCALE
 40
1.0
  9
$DIMASZ
 40
0.18
  9
$DIMEXO
 40
0.0625
  9
$DIMDLI
 40
0.38
  9
$DIMRND
 40
0.0
  9
$DIMDLE
 40
0.0
  9
$DIMEXE
 40
0.18
  9
$DIMTP
 40
0.0
  9
$DIMTM
 40
0.0
  9
$DIMTXT
 40
0.18
  9
$DIMCEN
 40
0.09
  9
$DIMTSZ
 40
0.0
  9
$DIMTOL
 70
     0
  9
$DIMLIM
 70
     0
  9
$DIMTIH
 70
     1
  9
$DIMTOH
 70
     1
  9
$DIMSE1
 70
     0
  9
$DIMSE2
 70
     0
  9
$DIMTAD
 70
     0
  9
$DIMZIN
 70
     0
  9
$DIMBLK
  1

  9
$DIMASO
 70
     1
  9
$DIMSHO
 70
     1
  9
$DIMPOST
  1

  9
$DIMAPOST
  1

  9
$DIMALT
 70
     0
  9
$DIMALTD
 70
     2
  9
$DIMALTF
 40
25.4
  9
$DIMLFAC
 40
1.0
  9
$DIMTOFL
 70
     0
  9
$DIMTVP
 40
0.0
  9
$DIMTIX
 70
     0
  9
$DIMSOXD
 70
     0
  9
$DIMSAH
 70
     0
  9
$DIMBLK1
  1

  9
$DIMBLK2
  1

  9
$DIMSTYLE
  2
Standard
  9
$DIMCLRD
 70
     0
  9
$DIMCLRE
 70
     0
  9
$DIMCLRT
 70
     0
  9
$DIMTFAC
 40
1.0
  9
$DIMGAP
 40
0.09
  9
$DIMJUST
 70
     0
  9
$DIMSD1
 70
     0
  9
$DIMSD2
 70
     0
  9
$DIMTOLJ
 70
     1
  9
$DIMTZIN
 70
     0
  9
$DIMALTZ
 70
     0
  9
$DIMALTTZ
 70
     0
  9
$DIMUPT
 70
     0
  9
$DIMDEC
 70
     4
  9
$DIMTDEC
 70
     4
  9
$DIMALTU
 70
     2
  9
$DIMALTTD
 70
     2
  9
$DIMTXSTY
  7
Standard
  9
$DIMAUNIT
 70
     0
  9
$DIMADEC
 70
     0
  9
$DIMALTRND
 40
0.0
  9
$DIMAZIN
 70
     0
  9
$DIMDSEP
 70
    46
  9
$DIMATFIT
 70
     3
  9
$DIMFRAC
 70
     0
  9
$DIMLDRBLK
  1

  9
$DIMLUNIT
 70
     2
  9
$DIMLWD
 70
    -2
  9
$DIMLWE
 70
    -2
  9
$DIMTMOVE
 70
     2
  9
$DIMFXL
 40
1.0
  9
$DIMFXLON
 70
     0
  9
$DIMJOGANG
 40
0.7853981633974483
  9
$DIMTFILL
 70
     0
  9
$DIMTFILLCLR
 70
     0
  9
$DIMARCSYM
 70
     0
  9
$DIMLTYPE
  6

  9
$DIMLTEX1
  6

  9
$DIMLTEX2
  6

  9
$DIMTXTDIRECTION
 70
     0
  9
$LUNITS
 70
     2
  9
$LUPREC
 70
     3
  9
$SKETCHINC
 40
0.1
  9
$FILLETRAD
 40
0.5
  9
$AUNITS
 70
     0
  9
$AUPREC
 70
     0
  9
$MENU
  1
.
  9
$ELEVATION
 40
0.0
  9
$PELEVATION
 40
0.0
  9
$THICKNESS
 40
0.0
  9
$LIMCHECK
 70
     0
  9
$CHAMFERA
 40
0.0
  9
$CHAMFERB
 40
0.0
  9
$CHAMFERC
 40
0.0
  9
$CHAMFERD
 40
0.0
  9
$SKPOLY
 70
     0
  9
$TDCREATE
 40
2456540.362888912
  9
$TDUCREATE
 40
2456540.529555579
  9
$TDUPDATE
 40
2457842.438549202
  9
$TDUUPDATE
 40
2457842.605215868
  9
$TDINDWG
 40
0.0080447569
  9
$TDUSRTIMER
 40
0.0080447569
  9
$USRTIMER
 70
     1
  9
$ANGBASE
 50
0.0
  9
$ANGDIR
 70
     0
  9
$PDMODE
 70
     0
  9
$PDSIZE
 40
0.0
  9
$PLINEWID
 40
0.0
  9
$SPLFRAME
 70
     0
  9
$SPLINETYPE
 70
     6
  9
$SPLINESEGS
 70
     8
  9
$HANDSEED
  5
54C
  9
$SURFTAB1
 70
     6
  9
$SURFTAB2
 70
     6
  9
$SURFTYPE
 70
     6
  9
$SURFU
 70
     6
  9
$SURFV
 70
     6
  9
$UCSBASE
  2

  9
$UCSNAME
  2

  9
$UCSORG
 10
0.0
 20
0.0
 30
0.0
  9
$UCSXDIR
 10
1.0
 20
0.0
 30
0.0
  9
$UCSYDIR
 10
0.0
 20
1.0
 30
0.0
  9
$UCSORTHOREF
  2

  9
$UCSORTHOVIEW
 70
     0
  9
$UCSORGTOP
 10
0.0
 20
0.0
 30
0.0
  9
$UCSORGBOTTOM
 10
0.0
 20
0.0
 30
0.0
  9
$UCSORGLEFT
 10
0.0
 20
0.0
 30
0.0
  9
$UCSORGRIGHT
 10
0.0
 20
0.0
 30
0.0
  9
$UCSORGFRONT
 10
0.0
 20
0.0
 30
0.0
  9
$UCSORGBACK
 10
0.0
 20
0.0
 30
0.0
  9
$PUCSBASE
  2

  9
$PUCSNAME
  2

  9
$PUCSORG
 10
0.0
 20
0.0
 30
0.0
  9
$PUCSXDIR
 10
1.0
 20
0.0
 30
0.0
  9
$PUCSYDIR
 10
0.0
 20
1.0
 30
0.0
  9
$PUCSORTHOREF
  2

  9
$PUCSORTHOVIEW
 70
     0
  9
$PUCSORGTOP
 10
0.0
 20
0.0
 30
0.0
  9
$PUCSORGBOTTOM
 10
0.0
 20
0.0
 30
0.0
  9
$PUCSORGLEFT
 10
0.0
 20
0.0
 30
0.0
  9
$PUCSORGRIGHT
 10
0.0
 20
0.0
 30
0.0
  9
$PUCSORGFRONT
 10
0.0
 20
0.0
 30
0.0
  9
$PUCSORGBACK
 10
0.0
 20
0.0
 30
0.0
  9
$USERI1
 70
     0
  9
$USERI2
 70
     0
  9
$USERI3
 70
     0
  9
$USERI4
 70
     0
  9
$USERI5
 70
     0
  9
$USERR1
 40
0.0
  9
$USERR2
 40
0.0
  9
$USERR3
 40
0.0
  9
$USERR4
 40
0.0
  9
$USERR5
 40
0.0
  9
$WORLDVIEW
 70
     1
  9
$SHADEDGE
 70
     3
  9
$SHADEDIF
 70
    70
  9
$TILEMODE
 70
     1
  9
$MAXACTVP
 70
    64
  9
$PINSBASE
 10
0.0
 20
0.0
 30
0.0
  9
$PLIMCHECK
 70
     0
  9
$PEXTMIN
 10
1.000000000000000E+20
 20
1.000000000000000E+20
 30
1.000000000000000E+20
  9
$PEXTMAX
 10
-1.000000000000000E+20
 20
-1.000000000000000E+20
 30
-1.000000000000000E+20
  9
$PLIMMIN
 10
0.0
 20
0.0
  9
$PLIMMAX
 10
12.0
 20
9.0
  9
$UNITMODE
 70
     0
  9
$VISRETAIN
 70
     1
  9
$PLINEGEN
 70
     0
  9
$PSLTSCALE
 70
     1
  9
$TREEDEPTH
 70
  3020
  9
$CMLSTYLE
  2
Standard
  9
$CMLJUST
 70
     0
  9
$CMLSCALE
 40
1.0
  9
$PROXYGRAPHICS
 70
     1
  9
$MEASUREMENT
 70
     0
  9
$CELWEIGHT
370
    -1
  9
$ENDCAPS
280
     0
  9
$JOINSTYLE
280
     0
  9
$LWDISPLAY
290
     0
  9
$INSUNITS
 70
     4
  9
$HYPERLINKBASE
  1

  9
$STYLESHEET
  1

  9
$XEDIT
290
     1
  9
$CEPSNTYPE
380
     0
  9
$PSTYLEMODE
290
     1
  9
$FINGERPRINTGUID
  2
{FC9A07A1-6D9F-414A-978C-C451EA889AA9}
  9
$VERSIONGUID
  2
{C6280344-B616-4CCE-A330-66975694B27E}
  9
$EXTNAMES
290
     1
  9
$PSVPSCALE
 40
0.0
  9
$OLESTARTUP
290
     0
  9
$SORTENTS
280
   127
  9
$INDEXCTL
280
     0
  9
$HIDETEXT
280
     1
  9
$XCLIPFRAME
280
     0
  9
$HALOGAP
280
     0
  9
$OBSCOLOR
 70
   257
  9
$OBSLTYPE
280
     0
  9
$INTERSECTIONDISPLAY
280
     0
  9
$INTERSECTIONCOLOR
 70
   257
  9
$DIMASSOC
280
     2
  9
$PROJECTNAME
  1

  9
$CAMERADISPLAY
290
     0
  9
$LENSLENGTH
 40
50.0
  9
$CAMERAHEIGHT
 40
0.0
  9
$STEPSPERSEC
 40
2.0
  9
$STEPSIZE
 40
6.0
  9
$3DDWFPREC
 40
2.0
  9
$PSOLWIDTH
 40
0.25
  9
$PSOLHEIGHT
 40
4.0
  9
$LOFTANG1
 40
1.570796326794896
  9
$LOFTANG2
 40
1.570796326794896
  9
$LOFTMAG1
 40
0.0
  9
$LOFTMAG2
 40
0.0
  9
$LOFTPARAM
 70
     7
  9
$LOFTNORMALS
280
     1
  9
$LATITUDE
 40
37.795
  9
$LONGITUDE
 40
-122.394
  9
$NORTHDIRECTION
 40
0.0
  9
$TIMEZONE
 70
 -8000
  9
$LIGHTGLYPHDISPLAY
280
     1
  9
$TILEMODELIGHTSYNCH
280
     1
  9
$CMATERIAL
347
44
  9
$SOLIDHIST
280
     0
  9
$SHOWHIST
280
     1
  9
$DWFFRAME
280
     2
  9
$DGNFRAME
280
     0
  9
$REALWORLDSCALE
290
     1
  9
$INTERFERECOLOR
 62
     1
  9
$INTERFEREOBJVS
345
33
  9
$INTERFEREVPVS
346
30
  9
$CSHADOW
280
     0
  9
$SHADOWPLANELOCATION
 40
0.0
  0
ENDSEC
  0
SECTION
  2
CLASSES
  0
CLASS
  1
ACDBDICTIONARYWDFLT
  2
AcDbDictionaryWithDefault
  3
ObjectDBX Classes
 90
        0
 91
        1
280
     0
281
     0
  0
CLASS
  1
VISUALSTYLE
  2
AcDbVisualStyle
  3
ObjectDBX Classes
 90
     4095
 91
       26
280
     0
281
     0
  0
CLASS
  1
MATERIAL
  2
AcDbMaterial
  3
ObjectDBX Classes
 90
     1153
 91
        3
280
     0
281
     0
  0
CLASS
  1
SCALE
  2
AcDbScale
  3
ObjectDBX Classes
 90
     1153
 91
       33
280
     0
281
     0
  0
CLASS
  1
SUN
  2
AcDbSun
  3
SCENEOE
 90
     1153
 91
        1
280
     0
281
     0
  0
CLASS
  1
DICTIONARYVAR
  2
AcDbDictionaryVar
  3
ObjectDBX Classes
 90
        0
 91
        9
280
     0
281
     0
  0
CLASS
  1
TABLESTYLE
  2
AcDbTableStyle
  3
ObjectDBX Classes
 90
     4095
 91
        1
280
     0
281
     0
  0
CLASS
  1
MLEADERSTYLE
  2
AcDbMLeaderStyle
  3
ACDB_MLEADERSTYLE_CLASS
 90
     4095
 91
        1
280
     0
281
     0
  0
CLASS
  1
ACDBSECTIONVIEWSTYLE
  2
AcDbSectionViewStyle
  3
ObjectDBX Classes
 90
     1025
 91
        1
280
     0
281
     0
  0
CLASS
  1
ACDBDETAILVIEWSTYLE
  2
AcDbDetailViewStyle
  3
ObjectDBX Classes
 90
     1025
 91
        1
280
     0
281
     0
  0
CLASS
  1
SORTENTSTABLE
  2
AcDbSortentsTable
  3
ObjectDBX Classes
 90
        0
 91
        1
280
     0
281
     0
  0
CLASS
  1
CELLSTYLEMAP
  2
AcDbCellStyleMap
  3
ObjectDBX Classes
 90
     1152
 91
        1
280
     0
281
     0
  0
ENDSEC
  0
SECTION
  2
TABLES
  0
TABLE
  2
VPORT
  5
8
102
{ACAD_XDICTIONARY
360
9A
102
}
330
0
100
AcDbSymbolTable
 70
     1
  0
VPORT
  5
29
330
8
100
AcDbSymbolTableRecord
100
AcDbViewportTableRecord
  2
*Active
 70
     0
 10
0.0
 20
0.0
 11
1.0
 21
1.0
 12
0.0001101779575947
 22
95.6645685421247
 13
0.0
 23
0.0
 14
0.5
 24
0.5
 15
0.5
 25
0.5
 16
0.0
 26
0.0
 36
1.0
 17
0.0
 27
0.0
 37
0.0
 40
3404.897969320856
 41
2.334549878345498
 42
50.0
 43
0.0
 44
0.0
 50
0.0
 51
0.0
 71
     0
 72
   100
 73
     1
 74
     3
 75
     0
 76
     0
 77
     0
 78
     0
281
     0
 65
     1
110
0.0
120
0.0
130
0.0
111
1.0
121
0.0
131
0.0
112
0.0
122
1.0
132
0.0
 79
     0
146
0.0
348
2F
 60
     3
 61
     5
292
     1
282
     1
141
0.0
142
0.0
 63
   250
421
  3355443
361
69
1001
ACAD_NAV_VCDISPLAY
1070
     3
  0
ENDTAB
  0
TABLE
  2
LTYPE
  5
5
330
0
100
AcDbSymbolTable
 70
     1
  0
LTYPE
  5
14
330
5
100
AcDbSymbolTableRecord
100
AcDbLinetypeTableRecord
  2
ByBlock
 70
     0
  3

 72
    65
 73
     0
 40
0.0
  0
LTYPE
  5
15
330
5
100
AcDbSymbolTableRecord
100
AcDbLinetypeTableRecord
  2
ByLayer
 70
     0
  3

 72
    65
 73
     0
 40
0.0
  0
LTYPE
  5
16
330
5
100
AcDbSymbolTableRecord
100
AcDbLinetypeTableRecord
  2
Continuous
 70
     0
  3
Solid line
 72
    65
 73
     0
 40
0.0
  0
ENDTAB
  0
TABLE
  2
LAYER
  5
2
102
{ACAD_XDICTIONARY
360
3AE
102
}
330
0
100
AcDbSymbolTable
 70
     2
  0
LAYER
  5
10
102
{ACAD_XDICTIONARY
360
E3
102
}
330
2
100
AcDbSymbolTableRecord
100
AcDbLayerTableRecord
  2
0
 70
     0
 62
     7
  6
Continuous
370
    -3
390
F
347
46
348
0
  0
LAYER
  5
FC
102
{ACAD_XDICTIONARY
360
FD
102
}
330
2
100
AcDbSymbolTableRecord
100
AcDbLayerTableRecord
  2
Default
 70
     0
 62
     7
  6
Continuous
370
    -3
390
F
347
46
348
0
  0
ENDTAB
  0
TABLE
  2
STYLE
  5
3
330
0
100
AcDbSymbolTable
 70
     1
  0
STYLE
  5
11
330
3
100
AcDbSymbolTableRecord
100
AcDbTextStyleTableRecord
  2
Standard
 70
     0
 40
0.0
 41
1.0
 50
0.0
 71
     0
 42
0.2
  3
txt
  4

  0
ENDTAB
  0
TABLE
  2
VIEW
  5
6
330
0
100
AcDbSymbolTable
 70
     0
  0
ENDTAB
  0
TABLE
  2
UCS
  5
7
330
0
100
AcDbSymbolTable
 70
     0
  0
ENDTAB
  0
TABLE
  2
APPID
  5
9
330
0
100
AcDbSymbolTable
 70
     4
  0
APPID
  5
12
330
9
100
AcDbSymbolTableRecord
100
AcDbRegAppTableRecord
  2
ACAD
 70
     0
  0
APPID
  5
97
330
9
100
AcDbSymbolTableRecord
100
AcDbRegAppTableRecord
  2
ACAD_OBJECT_CHANGE_GUID
 70
     0
  0
APPID
  5
E7
330
9
100
AcDbSymbolTableRecord
100
AcDbRegAppTableRecord
  2
ACAD_NAV_VCDISPLAY
 70
     0
  0
APPID
  5
2FF
330
9
100
AcDbSymbolTableRecord
100
AcDbRegAppTableRecord
  2
ACAD_EXEMPT_FROM_CAD_STANDARDS
 70
     0
  0
ENDTAB
  0
TABLE
  2
DIMSTYLE
  5
A
330
0
100
AcDbSymbolTable
 70
     1
100
AcDbDimStyleTable
 71
     1
340
27
  0
DIMSTYLE
105
27
330
A
100
AcDbSymbolTableRecord
100
AcDbDimStyleTableRecord
  2
Standard
 70
     0
340
11
  0
ENDTAB
  0
TABLE
  2
BLOCK_RECORD
  5
1
330
0
100
AcDbSymbolTable
 70
     1
  0
BLOCK_RECORD
  5
1F
102
{ACAD_XDICTIONARY
360
2FD
102
}
330
1
100
AcDbSymbolTableRecord
100
AcDbBlockTableRecord
  2
*Model_Space
340
22
 70
     0
280
     1
281
     0
  0
BLOCK_RECORD
  5
1B
330
1
100
AcDbSymbolTableRecord
100
AcDbBlockTableRecord
  2
*Paper_Space
340
1E
 70
     0
280
     1
281
     0
  0
BLOCK_RECORD
  5
23
330
1
100
AcDbSymbolTableRecord
100
AcDbBlockTableRecord
  2
*Paper_Space0
340
26
 70
     0
280
     1
281
     0
  0
ENDTAB
  0
ENDSEC
  0
SECTION
  2
BLOCKS
  0
BLOCK
  5
20
330
1F
100
AcDbEntity
  8
0
100
AcDbBlockBegin
  2
*Model_Space
 70
     0
 10
0.0
 20
0.0
 30
0.0
  3
*Model_Space
  1

  0
ENDBLK
  5
21
330
1F
100
AcDbEntity
  8
0
100
AcDbBlockEnd
  0
BLOCK
  5
1C
330
1B
100
AcDbEntity
 67
     1
  8
0
100
AcDbBlockBegin
  2
*Paper_Space
 70
     0
 10
0.0
 20
0.0
 30
0.0
  3
*Paper_Space
  1

  0
ENDBLK
  5
1D
330
1B
100
AcDbEntity
 67
     1
  8
0
100
AcDbBlockEnd
  0
BLOCK
  5
24
330
23
100
AcDbEntity
 67
     1
  8
0
100
AcDbBlockBegin
  2
*Paper_Space0
 70
     0
 10
0.0
 20
0.0
 30
0.0
  3
*Paper_Space0
  1

  0
ENDBLK
  5
25
330
23
100
AcDbEntity
 67
     1
  8
0
100
AcDbBlockEnd
  0
ENDSEC
  0
SECTION
  2
ENTITIES
  0
SPLINE
  5
202
330
1F
100
AcDbEntity
  8
Default
100
AcDbSpline
210
0.0
220
0.0
230
1.0
 70
    24
 71
     2
 72
     6
 73
     3
 74
     0
 42
0.000000001
 43
0.0000000001
 40
0.0
 40
0.0
 40
0.0
 40
45.0
 40
45.0
 40
45.0
 10
609.5000000000039
 20
571.8061843832053
 30
679.8884514435696
 10
609.5000000000039
 20
0.3999343832053734
 30
679.8884514435696
 10
609.5000000000039
 20
-571.0063156167945
 30
679.8884514435696
  0
SPLINE
  5
203
330
1F
100
AcDbEntity
  8
Default
100
AcDbSpline
210
0.0
220
0.0
230
1.0
 70
    24
 71
     2
 72
     6
 73
     3
 74
     0
 42
0.000000001
 43
0.0000000001
 40
0.0
 40
0.0
 40
0.0
 40
45.0
 40
45.0
 40
45.0
 10
571.4062500000054
 20
-609.1000656167968
 30
679.8884514435696
 10
0.0000000000054561
 20
-609.1000656167968
 30
679.8884514435696
 10
-571.4062500000017
 20
-609.1000656167968
 30
679.8884514435696
  0
SPLINE
  5
204
330
1F
100
AcDbEntity
  8
Default
100
AcDbSpline
210
0.0
220
0.0
230
1.0
 70
    24
 71
     2
 72
     6
 73
     3
 74
     0
 42
0.000000001
 43
0.0000000001
 40
0.0
 40
0.0
 40
0.0
 40
45.0
 40
45.0
 40
45.0
 10
-609.5000000000003
 20
-571.0063156167945
 30
679.8884514435696
 10
-609.5000000000003
 20
0.3999343832053734
 30
679.8884514435696
 10
-609.5000000000003
 20
571.8061843832053
 30
679.8884514435696
  0
SPLINE
  5
205
330
1F
100
AcDbEntity
  8
Default
100
AcDbSpline
210
0.0
220
0.0
230
1.0
 70
    24
 71
     2
 72
     6
 73
     3
 74
     0
 42
0.000000001
 43
0.0000000001
 40
0.0
 40
0.0
 40
0.0
 40
45.0
 40
45.0
 40
45.0
 10
-571.4062500000017
 20
609.8999343832039
 30
679.8884514435696
 10
0.0000000000054561
 20
609.8999343832039
 30
679.8884514435696
 10
571.4062500000054
 20
609.8999343832039
 30
679.8884514435696
  0
SPLINE
  5
206
330
1F
100
AcDbEntity
  8
Default
100
AcDbSpline
210
0.0
220
0.0
230
1.0
 70
    12
 71
     2
 72
     6
 73
     3
 74
     0
 42
0.000000001
 43
0.0000000001
 40
0.0
 40
0.0
 40
0.0
 40
2.35619449019235
 40
2.35619449019235
 40
2.35619449019235
 10
-609.5000000000003
 20
571.8061843832053
 30
679.8884514435696
 41
1.0
 10
-609.5000000000005
 20
609.8999343832039
 30
679.8884514435696
 41
0.7071067811865451
 10
-571.4062500000017
 20
609.8999343832039
 30
679.8884514435696
 41
1.0
  0
SPLINE
  5
207
330
1F
100
AcDbEntity
  8
Default
100
AcDbSpline
210
0.0
220
0.0
230
1.0
 70
    12
 71
     2
 72
     6
 73
     3
 74
     0
 42
0.000000001
 43
0.0000000001
 40
0.0
 40
0.0
 40
0.0
 40
2.35619449019235
 40
2.35619449019235
 40
2.35619449019235
 10
571.4062500000054
 20
609.8999343832039
 30
679.8884514435696
 41
1.0
 10
609.5000000000039
 20
609.8999343832075
 30
679.8884514435696
 41
0.7071067811865371
 10
609.5000000000039
 20
571.8061843832053
 30
679.8884514435696
 41
1.0
  0
SPLINE
  5
208
330
1F
100
AcDbEntity
  8
Default
100
AcDbSpline
210
0.0
220
0.0
230
1.0
 70
    12
 71
     2
 72
     6
 73
     3
 74
     0
 42
0.000000001
 43
0.0000000001
 40
0.0
 40
0.0
 40
0.0
 40
2.356194490192339
 40
2.356194490192339
 40
2.356194490192339
 10
609.5000000000039
 20
-571.0063156167945
 30
679.8884514435696
 41
1.0
 10
609.5000000000039
 20
-609.1000656167931
 30
679.8884514435696
 41
0.707106781186551
 10
571.4062500000054
 20
-609.1000656167968
 30
679.8884514435696
 41
1.0
  0
SPLINE
  5
209
330
1F
100
AcDbEntity
  8
Default
100
AcDbSpline
210
0.0
220
0.0
230
1.0
 70
    12
 71
     2
 72
     6
 73
     3
 74
     0
 42
0.000000001
 43
0.0000000001
 40
0.0
 40
0.0
 40
0.0
 40
2.35619449019235
 40
2.35619449019235
 40
2.35619449019235
 10
-571.4062500000017
 20
-609.1000656167968
 30
679.8884514435696
 41
1.0
 10
-609.5000000000005
 20
-609.1000656167968
 30
679.8884514435696
 41
0.707106781186546
 10
-609.5000000000003
 20
-571.0063156167945
 30
679.8884514435696
 41
1.0
  0
SPLINE
  5
443
330
1F
100
AcDbEntity
  8
Default
100
AcDbSpline
210
0.0
220
0.0
230
1.0
 70
     8
 71
     3
 72
    29
 73
    25
 74
     0
 42
0.000000001
 43
0.0000000001
 40
0.0
 40
0.0
 40
0.0
 40
0.0
 40
1.0
 40
2.0
 40
3.0
 40
4.0
 40
5.0
 40
6.0
 40
7.0
 40
8.0
 40
9.0
 40
10.0
 40
11.0
 40
12.0
 40
13.0
 40
14.0
 40
15.0
 40
16.0
 40
17.0
 40
18.0
 40
19.0
 40
20.0
 40
21.0
 40
22.0
 40
22.0
 40
22.0
 40
22.0
 10
-209.2863261508265
 20
1453.269181843608
 30
669.2913385826773
 10
-213.4296380762845
 20
1444.90863959165
 30
669.2913385826773
 10
-224.6995198130845
 20
1429.990636479566
 30
669.2913385826773
 10
-241.7586469914005
 20
1407.882910966052
 30
669.2913385826773
 10
-259.460809927814
 20
1386.242776217079
 30
669.2913385826773
 10
-276.3702275942252
 20
1363.980413855695
 30
669.2913385826773
 10
-291.2918103497779
 20
1340.313530161661
 30
669.2913385826773
 10
-304.5796226099357
 20
1315.711881448109
 30
669.2913385826773
 10
-316.238615924891
 20
1290.295720050553
 30
669.2913385826773
 10
-326.5342733262752
 20
1264.304801318301
 30
669.2913385826773
 10
-335.7316647267091
 20
1237.90585996202
 30
669.2913385826773
 10
-343.810027185331
 20
1211.14480695914
 30
669.2913385826773
 10
-350.8622701436162
 20
1184.092401040956
 30
669.2913385826773
 10
-355.5739714192479
 20
1156.48230610191
 30
669.2913385826773
 10
-354.4028570536922
 20
1128.274644531675
 30
669.2913385826773
 10
-344.6718030488284
 20
1101.762022812594
 30
669.2913385826773
 10
-328.706570404289
 20
1078.693398820725
 30
669.2913385826773
 10
-313.4644320040262
 20
1055.288089912622
 30
669.2913385826773
 10
-296.0340694010976
 20
1033.391397982582
 30
669.2913385826773
 10
-277.5336927400223
 20
1012.447150233923
 30
669.2913385826773
 10
-258.8583413526486
 20
991.6518085355978
 30
669.2913385826773
 10
-240.0166736933626
 20
971.0082059787687
 30
669.2913385826773
 10
-220.4620142369404
 20
951.0255259314886
 30
669.2913385826773
 10
-206.5046457514891
 20
938.6567972769713
 30
669.2913385826773
 10
-199.2126933029304
 20
932.8565273004292
 30
669.2913385826773
  0
SPLINE
  5
444
330
1F
100
AcDbEntity
  8
Default
100
AcDbSpline
210
0.0
220
0.0
230
1.0
 70
     8
 71
     3
 72
    29
 73
    25
 74
     0
 42
0.000000001
 43
0.0000000001
 40
0.0
 40
0.0
 40
0.0
 40
0.0
 40
1.0
 40
2.0
 40
3.0
 40
4.0
 40
5.0
 40
6.0
 40
7.0
 40
8.0
 40
9.0
 40
10.0
 40
11.0
 40
12.0
 40
13.0
 40
14.0
 40
15.0
 40
16.0
 40
17.0
 40
18.0
 40
19.0
 40
20.0
 40
21.0
 40
22.0
 40
22.0
 40
22.0
 40
22.0
 10
209.2864937763024
 20
1453.269181843608
 30
669.2913385826773
 10
213.429805701753
 20
1444.90863959165
 30
669.2913385826773
 10
224.699687438564
 20
1429.990636479566
 30
669.2913385826773
 10
241.7588146168727
 20
1407.882910966052
 30
669.2913385826773
 10
259.4609775532898
 20
1386.242776217079
 30
669.2913385826773
 10
276.3703952196973
 20
1363.980413855695
 30
669.2913385826773
 10
291.29197797525
 20
1340.313530161661
 30
669.2913385826773
 10
304.5797902354042
 20
1315.711881448109
 30
669.2913385826773
 10
316.2387835503704
 20
1290.295720050553
 30
669.2913385826773
 10
326.5344409517473
 20
1264.304801318301
 30
669.2913385826773
 10
335.7318323521885
 20
1237.90585996202
 30
669.2913385826773
 10
343.8101948107995
 20
1211.14480695914
 30
669.2913385826773
 10
350.862437769092
 20
1184.092401040956
 30
669.2913385826773
 10
355.5741390447237
 20
1156.48230610191
 30
669.2913385826773
 10
354.4030246791716
 20
1128.274644531675
 30
669.2913385826773
 10
344.6719706743041
 20
1101.762022812594
 30
669.2913385826773
 10
328.7067380297612
 20
1078.693398820725
 30
669.2913385826773
 10
313.4645996294984
 20
1055.288089912622
 30
669.2913385826773
 10
296.034237026577
 20
1033.391397982582
 30
669.2913385826773
 10
277.5338603654981
 20
1012.447150233923
 30
669.2913385826773
 10
258.8585089781208
 20
991.6518085355978
 30
669.2913385826773
 10
240.0168413188421
 20
971.0082059787687
 30
669.2913385826773
 10
220.4621818624163
 20
951.0255259314886
 30
669.2913385826773
 10
206.504813376965
 20
938.6567972769713
 30
669.2913385826773
 10
199.212860928399
 20
932.8565273004292
 30
669.2913385826773
  0
SPLINE
  5
445
330
1F
100
AcDbEntity
  8
Default
100
AcDbSpline
210
0.0
220
0.0
230
1.0
 70
    12
 71
     3
 72
    12
 73
     8
 74
     0
 42
0.000000001
 43
0.0000000001
 40
-1.0
 40
-1.0
 40
-1.0
 40
-1.0
 40
-0.75
 40
-0.5
 40
-0.25
 40
-0.125
 40
0.0
 40
0.0
 40
0.0
 40
0.0
 10
219.9727058559819
 20
1540.847443939057
 30
669.2913385826773
 41
1.0
 10
219.9782180213169
 20
1542.259486806937
 30
669.2913385826773
 41
1.0
 10
217.9025332660439
 20
1545.611054089446
 30
669.2913385826773
 41
1.0
 10
208.0311253545423
 20
1551.526147162739
 30
669.2913385826773
 41
1.0
 10
195.4752801145168
 20
1556.330030466878
 30
669.2913385826773
 41
1.0
 10
183.9144095693354
 20
1559.693923158692
 30
669.2913385826773
 41
1.0
 10
177.8530696116812
 20
1561.156720102297
 30
669.2913385826773
 41
1.0
 10
174.8097717293912
 20
1561.836557244683
 30
669.2913385826773
 41
1.0
  0
SPLINE
  5
446
330
1F
100
AcDbEntity
  8
Default
100
AcDbSpline
210
0.0
220
0.0
230
1.0
 70
    12
 71
     2
 72
     6
 73
     3
 74
     0
 42
0.000000001
 43
0.0000000001
 40
-1.73861529974842
 40
-1.73861529974842
 40
-1.73861529974842
 40
0.0
 40
0.0
 40
0.0
 10
174.8097717293912
 20
1561.836557244683
 30
669.2913385826773
 41
1.0
 10
153.2453923165757
 20
1566.594183148857
 30
669.2913385826773
 41
0.9998265244242315
 10
131.519024630952
 20
1570.546702954606
 30
669.2913385826773
 41
0.9999999999903403
  0
SPLINE
  5
447
330
1F
100
AcDbEntity
  8
Default
100
AcDbSpline
210
0.0
220
0.0
230
1.0
 70
     8
 71
     3
 72
    11
 73
     7
 74
     0
 42
0.000000001
 43
0.0000000001
 40
0.0
 40
0.0
 40
0.0
 40
0.0
 40
0.8055658146296341
 40
1.505207287485616
 40
2.898665587188705
 40
5.215701186741097
 40
5.215701186741097
 40
5.215701186741097
 40
5.215701186741097
 10
131.519024630952
 20
1570.546702954606
 30
669.2913385826773
 10
124.809378306354
 20
1571.779843152149
 30
669.2913385826773
 10
112.2539711420049
 20
1573.943052159987
 30
669.2913385826773
 10
88.00372057929227
 20
1577.761746653841
 30
669.2913385826773
 10
50.97393404396453
 20
1582.515067709095
 30
669.2913385826773
 10
19.62615681576963
 20
1585.058373859896
 30
669.2913385826773
 10
0.0000838127397449
 20
1585.135018761951
 30
669.2913385826773
  0
SPLINE
  5
448
330
1F
100
AcDbEntity
  8
Default
100
AcDbSpline
210
0.0
220
0.0
230
1.0
 70
     8
 71
     3
 72
    11
 73
     7
 74
     0
 42
0.000000001
 43
0.0000000001
 40
-5.215701186741097
 40
-5.215701186741097
 40
-5.215701186741097
 40
-5.215701186741097
 40
-2.898665587188705
 40
-1.505207287485616
 40
-0.8055658146296341
 40
0.0
 40
0.0
 40
0.0
 40
0.0
 10
0.0000838127397449
 20
1585.135018761951
 30
669.2913385826773
 10
-19.62598919029378
 20
1585.058373859896
 30
669.2913385826773
 10
-50.97376641849232
 20
1582.515067709095
 30
669.2913385826773
 10
-88.00355295382004
 20
1577.761746653841
 30
669.2913385826773
 10
-112.2538035165326
 20
1573.943052159987
 30
669.2913385826773
 10
-124.8092106808854
 20
1571.779843152149
 30
669.2913385826773
 10
-131.5188570054834
 20
1570.546702954606
 30
669.2913385826773
  0
SPLINE
  5
449
330
1F
100
AcDbEntity
  8
Default
100
AcDbSpline
210
0.0
220
0.0
230
1.0
 70
    12
 71
     2
 72
     6
 73
     3
 74
     0
 42
0.000000001
 43
0.0000000001
 40
0.0
 40
0.0
 40
0.0
 40
1.73861529974842
 40
1.73861529974842
 40
1.73861529974842
 10
-131.5188570054834
 20
1570.546702954606
 30
669.2913385826773
 41
0.9999999999903403
 10
-153.2452246911035
 20
1566.594183148857
 30
669.2913385826773
 41
0.9998265244242315
 10
-174.809604103919
 20
1561.836557244683
 30
669.2913385826773
 41
1.0
  0
SPLINE
  5
44A
330
1F
100
AcDbEntity
  8
Default
100
AcDbSpline
210
0.0
220
0.0
230
1.0
 70
    12
 71
     3
 72
    12
 73
     8
 74
     0
 42
0.000000001
 43
0.0000000001
 40
0.0
 40
0.0
 40
0.0
 40
0.0
 40
0.125
 40
0.25
 40
0.5
 40
0.75
 40
1.0
 40
1.0
 40
1.0
 40
1.0
 10
-174.809604103919
 20
1561.836557244683
 30
669.2913385826773
 41
1.0
 10
-177.852901986209
 20
1561.156720102297
 30
669.2913385826773
 41
1.0
 10
-183.9142419438595
 20
1559.693923158692
 30
669.2913385826773
 41
1.0
 10
-195.4751124890445
 20
1556.330030466878
 30
669.2913385826773
 41
1.0
 10
-208.0309577290664
 20
1551.526147162739
 30
669.2913385826773
 41
1.0
 10
-217.902365640568
 20
1545.611054089446
 30
669.2913385826773
 41
1.0
 10
-219.978050395841
 20
1542.259486806937
 30
669.2913385826773
 41
1.0
 10
-219.9725382305097
 20
1540.847443939057
 30
669.2913385826773
 41
1.0
  0
SPLINE
  5
44B
330
1F
100
AcDbEntity
  8
Default
100
AcDbSpline
210
0.0
220
0.0
230
1.0
 70
     8
 71
     3
 72
    11
 73
     7
 74
     0
 42
0.000000001
 43
0.0000000001
 40
-3.576711082448426
 40
-3.576711082448426
 40
-3.576711082448426
 40
-3.576711082448426
 40
-2.825677162948846
 40
-1.983666277812515
 40
-1.056257442711362
 40
0.0
 40
0.0
 40
0.0
 40
0.0
 10
-219.9725382305097
 20
1540.847443939057
 30
669.2913385826773
 10
-219.60396685645
 20
1534.499941027903
 30
669.2913385826773
 10
-218.524922247847
 20
1521.052706631531
 30
669.2913385826773
 10
-216.1217266881195
 20
1499.846422684089
 30
669.2913385826773
 10
-212.7769754220118
 20
1476.155659329093
 30
669.2913385826773
 10
-210.09227506117
 20
1459.575765338116
 30
669.2913385826773
 10
-208.5938089428947
 20
1450.757781564703
 30
669.2913385826773
  0
SPLINE
  5
44C
330
1F
100
AcDbEntity
  8
Default
100
AcDbSpline
210
0.0
220
0.0
230
1.0
 70
     8
 71
     3
 72
    19
 73
    15
 74
     0
 42
0.000000001
 43
0.0000000001
 40
-12.0
 40
-12.0
 40
-12.0
 40
-12.0
 40
-11.0
 40
-10.0
 40
-9.0
 40
-8.0
 40
-7.0
 40
-6.0
 40
-5.0
 40
-4.0
 40
-3.0
 40
-2.0
 40
-1.0
 40
0.0
 40
0.0
 40
0.0
 40
0.0
 10
-208.5938089428947
 20
1450.757781564703
 30
669.2913385826773
 10
-209.5871168830691
 20
1442.391048925184
 30
669.2913385826773
 10
-220.344594390228
 20
1428.951739303168
 30
669.2913385826773
 10
-235.1288121408671
 20
1408.97641764187
 30
669.2913385826773
 10
-250.9280855264279
 20
1389.460329749448
 30
669.2913385826773
 10
-266.6281856545958
 20
1369.945976447112
 30
669.2913385826773
 10
-280.6762719344753
 20
1349.171001190714
 30
669.2913385826773
 10
-293.3930803519599
 20
1327.575990891565
 30
669.2913385826773
 10
-304.7772345060604
 20
1305.245717253024
 30
669.2913385826773
 10
-314.9180626264407
 20
1282.328057683071
 30
669.2913385826773
 10
-323.9514810888342
 20
1258.954336289751
 30
669.2913385826773
 10
-332.1111560015544
 20
1235.263609090199
 30
669.2913385826773
 10
-339.4506247466326
 20
1211.30492460117
 30
669.2913385826773
 10
-343.6364587342488
 20
1195.131448062789
 30
669.2913385826773
 10
-345.5609274175387
 20
1187.005356267478
 30
669.2913385826773
  0
SPLINE
  5
44D
330
1F
100
AcDbEntity
  8
Default
100
AcDbSpline
210
0.0
220
0.0
230
1.0
 70
    12
 71
     3
 72
    11
 73
     7
 74
     0
 42
0.000000001
 43
0.0000000001
 40
0.0
 40
0.0
 40
0.0
 40
0.0
 40
0.2499998804336
 40
0.4999997608673
 40
0.7499996413009001
 40
1.0
 40
1.0
 40
1.0
 40
1.0
 10
-345.5609274175387
 20
1187.005356267478
 30
669.2913385826773
 41
1.0
 10
-347.6345889667192
 20
1178.004351002849
 30
669.2913385826773
 41
1.0
 10
-351.1516012131707
 20
1159.902675291652
 30
669.2913385826773
 41
1.0
 10
-351.6111879253532
 20
1133.656023290912
 30
669.2913385826773
 41
1.0
 10
-346.1566763437823
 20
1110.401698917246
 30
669.2913385826773
 41
1.0
 10
-339.632782654162
 20
1098.213057837334
 30
669.2913385826773
 41
1.0
 10
-336.2760227612144
 20
1092.895291254435
 30
669.2913385826773
 41
1.0
  0
SPLINE
  5
44E
330
1F
100
AcDbEntity
  8
Default
100
AcDbSpline
210
0.0
220
0.0
230
1.0
 70
     8
 71
     3
 72
    19
 73
    15
 74
     0
 42
0.000000001
 43
0.0000000001
 40
-12.0
 40
-12.0
 40
-12.0
 40
-12.0
 40
-11.0
 40
-10.0
 40
-9.0
 40
-8.0
 40
-7.0
 40
-6.0
 40
-5.0
 40
-4.0
 40
-3.0
 40
-2.0
 40
-1.0
 40
0.0
 40
0.0
 40
0.0
 40
0.0
 10
-336.2760227612144
 20
1092.895291254435
 30
669.2913385826773
 10
-332.8743943481332
 20
1087.60038569028
 30
669.2913385826773
 10
-326.1309964622179
 20
1076.974246470033
 30
669.2913385826773
 10
-315.833778579634
 20
1061.145798146002
 30
669.2913385826773
 10
-304.6331758905927
 20
1045.939445755951
 30
669.2913385826773
 10
-292.8446903383684
 20
1031.188013863627
 30
669.2913385826773
 10
-280.4191648374455
 20
1016.971157057583
 30
669.2913385826773
 10
-267.9286887535619
 20
1002.815497776607
 30
669.2913385826773
 10
-255.3656792688726
 20
988.7228314910803
 30
669.2913385826773
 10
-242.7139687187974
 20
974.70949414087
 30
669.2913385826773
 10
-229.7406600903724
 20
960.9912985534952
 30
669.2913385826773
 10
-216.2966706184908
 20
947.7307237957479
 30
669.2913385826773
 10
-202.1732619122686
 20
935.1886930575979
 30
669.2913385826773
 10
-192.1778719013765
 20
927.5244192281329
 30
669.2913385826773
 10
-187.0411497162223
 20
923.8354935053989
 30
669.2913385826773
  0
SPLINE
  5
44F
330
1F
100
AcDbEntity
  8
Default
100
AcDbSpline
210
0.0
220
0.0
230
1.0
 70
     8
 71
     3
 72
    12
 73
     8
 74
     0
 42
0.000000001
 43
0.0000000001
 40
-15.78913311264457
 40
-15.78913311264457
 40
-15.78913311264457
 40
-15.78913311264457
 40
-11.7692665204822
 40
-7.888736159237259
 40
-4.023995779131863
 40
-2.036640528636299
 40
0.0
 40
0.0
 40
0.0
 40
0.0
 10
-187.0411497162223
 20
923.8354935053989
 30
669.2913385826773
 10
-159.4179166836712
 20
903.9559355915384
 30
669.2913385826773
 10
-99.57430189767009
 20
872.2846991462297
 30
669.2913385826773
 10
0.0143908509798214
 20
855.6676858275254
 30
669.2913385826773
 10
82.39510726924519
 20
869.42504861517
 30
669.2913385826773
 10
143.9538721510706
 20
895.8013527339367
 30
669.2913385826773
 10
173.0577136331975
 20
913.6916850193861
 30
669.2913385826773
 10
187.0411989075636
 20
923.835470871783
 30
669.2913385826773
  0
SPLINE
  5
450
330
1F
100
AcDbEntity
  8
Default
100
AcDbSpline
210
0.0
220
0.0
230
1.0
 70
     8
 71
     3
 72
    19
 73
    15
 74
     0
 42
0.000000001
 43
0.0000000001
 40
0.0
 40
0.0
 40
0.0
 40
0.0
 40
1.0
 40
2.0
 40
3.0
 40
4.0
 40
5.0
 40
6.0
 40
7.0
 40
8.0
 40
9.0
 40
10.0
 40
11.0
 40
12.0
 40
12.0
 40
12.0
 40
12.0
 10
187.0411989075636
 20
923.835470871783
 30
669.2913385826773
 10
192.1780395268451
 20
927.5244192281329
 30
669.2913385826773
 10
202.1734295377409
 20
935.1886930575979
 30
669.2913385826773
 10
216.296838243963
 20
947.7307237957479
 30
669.2913385826773
 10
229.740827715841
 20
960.9912985534952
 30
669.2913385826773
 10
242.714136344266
 20
974.70949414087
 30
669.2913385826773
 10
255.3658468943485
 20
988.7228314910803
 30
669.2913385826773
 10
267.9288563790341
 20
1002.815497776607
 30
669.2913385826773
 10
280.419332462914
 20
1016.971157057583
 30
669.2913385826773
 10
292.8448579638406
 20
1031.188013863627
 30
669.2913385826773
 10
304.6333435160722
 20
1045.939445755951
 30
669.2913385826773
 10
315.8339462051098
 20
1061.145798146002
 30
669.2913385826773
 10
326.1311640876937
 20
1076.974246470033
 30
669.2913385826773
 10
332.8745619736018
 20
1087.60038569028
 30
669.2913385826773
 10
336.276190386683
 20
1092.895291254435
 30
669.2913385826773
  0
SPLINE
  5
451
330
1F
100
AcDbEntity
  8
Default
100
AcDbSpline
210
0.0
220
0.0
230
1.0
 70
    12
 71
     3
 72
    11
 73
     7
 74
     0
 42
0.000000001
 43
0.0000000001
 40
-1.0
 40
-1.0
 40
-1.0
 40
-1.0
 40
-0.7499996413009001
 40
-0.4999997608673
 40
-0.2499998804336
 40
0.0
 40
0.0
 40
0.0
 40
0.0
 10
336.276190386683
 20
1092.895291254435
 30
669.2913385826773
 41
1.0
 10
339.6329502796378
 20
1098.213057837334
 30
669.2913385826773
 41
1.0
 10
346.1568439692509
 20
1110.401698917246
 30
669.2913385826773
 41
1.0
 10
351.6113555508253
 20
1133.656023290912
 30
669.2913385826773
 41
1.0
 10
351.1517688386429
 20
1159.902675291652
 30
669.2913385826773
 41
1.0
 10
347.634756592195
 20
1178.004351002849
 30
669.2913385826773
 41
1.0
 10
345.5610950430108
 20
1187.005356267478
 30
669.2913385826773
 41
1.0
  0
SPLINE
  5
452
330
1F
100
AcDbEntity
  8
Default
100
AcDbSpline
210
0.0
220
0.0
230
1.0
 70
     8
 71
     3
 72
    19
 73
    15
 74
     0
 42
0.000000001
 43
0.0000000001
 40
0.0
 40
0.0
 40
0.0
 40
0.0
 40
1.0
 40
2.0
 40
3.0
 40
4.0
 40
5.0
 40
6.0
 40
7.0
 40
8.0
 40
9.0
 40
10.0
 40
11.0
 40
12.0
 40
12.0
 40
12.0
 40
12.0
 10
345.5610950430108
 20
1187.005356267478
 30
669.2913385826773
 10
343.6366263597246
 20
1195.131448062789
 30
669.2913385826773
 10
339.4507923721084
 20
1211.30492460117
 30
669.2913385826773
 10
332.1113236270266
 20
1235.263609090199
 30
669.2913385826773
 10
323.9516487143027
 20
1258.954336289751
 30
669.2913385826773
 10
314.9182302519165
 20
1282.328057683071
 30
669.2913385826773
 10
304.7774021315362
 20
1305.245717253024
 30
669.2913385826773
 10
293.3932479774356
 20
1327.575990891565
 30
669.2913385826773
 10
280.6764395599511
 20
1349.171001190714
 30
669.2913385826773
 10
266.6283532800643
 20
1369.945976447112
 30
669.2913385826773
 10
250.9282531519001
 20
1389.460329749448
 30
669.2913385826773
 10
235.1289797663429
 20
1408.97641764187
 30
669.2913385826773
 10
220.3447620157039
 20
1428.951739303168
 30
669.2913385826773
 10
209.5872845085413
 20
1442.391048925184
 30
669.2913385826773
 10
208.5939765683633
 20
1450.757781564703
 30
669.2913385826773
  0
SPLINE
  5
453
330
1F
100
AcDbEntity
  8
Default
100
AcDbSpline
210
0.0
220
0.0
230
1.0
 70
     8
 71
     3
 72
    11
 73
     7
 74
     0
 42
0.000000001
 43
0.0000000001
 40
0.0
 40
0.0
 40
0.0
 40
0.0
 40
1.056257442711362
 40
1.983666277812515
 40
2.825677162948846
 40
3.576711082448426
 40
3.576711082448426
 40
3.576711082448426
 40
3.576711082448426
 10
208.5939765683633
 20
1450.757781564703
 30
669.2913385826773
 10
210.0924426866458
 20
1459.575765338116
 30
669.2913385826773
 10
212.7771430474876
 20
1476.155659329093
 30
669.2913385826773
 10
216.1218943135954
 20
1499.846422684089
 30
669.2913385826773
 10
218.5250898733156
 20
1521.052706631531
 30
669.2913385826773
 10
219.6041344819186
 20
1534.499941027903
 30
669.2913385826773
 10
219.9727058559819
 20
1540.847443939057
 30
669.2913385826773
  0
SPLINE
  5
454
330
1F
100
AcDbEntity
  8
Default
100
AcDbSpline
210
0.0
220
0.0
230
1.0
 70
     8
 71
     3
 72
    12
 73
     8
 74
     0
 42
0.000000001
 43
0.0000000001
 40
0.0
 40
0.0
 40
0.0
 40
0.0
 40
1.0
 40
2.0
 40
3.0
 40
4.0
 40
5.0
 40
5.0
 40
5.0
 40
5.0
 10
-240.0608578594566
 20
1368.657324521043
 30
669.2913385826773
 10
-248.8524899772329
 20
1358.000344332498
 30
669.2913385826773
 10
-265.1776961808483
 20
1335.647478337619
 30
669.2913385826773
 10
-285.549502041513
 20
1299.474225975916
 30
669.2913385826773
 10
-302.0268777852235
 20
1261.402198343637
 30
669.2913385826773
 10
-315.798704067429
 20
1222.292101066503
 30
669.2913385826773
 10
-323.5278274390713
 20
1195.751135856955
 30
669.2913385826773
 10
-326.7970915467687
 20
1182.326035532727
 30
669.2913385826773
  0
SPLINE
  5
455
330
1F
100
AcDbEntity
  8
Default
100
AcDbSpline
210
0.0
220
0.0
230
1.0
 70
     8
 71
     3
 72
    10
 73
     6
 74
     0
 42
0.000000001
 43
0.0000000001
 40
0.0
 40
0.0
 40
0.0
 40
0.0
 40
1.0
 40
2.0
 40
3.0
 40
3.0
 40
3.0
 40
3.0
 10
-326.7970915467687
 20
1182.326035532727
 30
669.2913385826773
 10
-328.9248911026099
 20
1173.40346281248
 30
669.2913385826773
 10
-331.2910007194315
 20
1155.12534401603
 30
669.2913385826773
 10
-329.651916826033
 20
1127.549149630774
 30
669.2913385826773
 10
-324.2270299665271
 20
1109.767609483847
 30
669.2913385826773
 10
-319.2781802934352
 20
1101.98702793726
 30
669.2913385826773
  0
SPLINE
  5
456
330
1F
100
AcDbEntity
  8
Default
100
AcDbSpline
210
0.0
220
0.0
230
1.0
 70
     8
 71
     3
 72
    10
 73
     6
 74
     0
 42
0.000000001
 43
0.0000000001
 40
8.0
 40
8.0
 40
8.0
 40
8.0
 40
9.0
 40
10.0
 40
11.0
 40
11.0
 40
11.0
 40
11.0
 10
-319.2781802934352
 20
1101.98702793726
 30
669.2913385826773
 10
-312.2697598570359
 20
1091.482760668937
 30
669.2913385826773
 10
-298.6866115435788
 20
1070.144819897102
 30
669.2913385826773
 10
-274.839763871738
 20
1040.629649507804
 30
669.2913385826773
 10
-257.618730023538
 20
1022.138505705695
 30
669.2913385826773
 10
-249.1261344657233
 20
1012.788176950938
 30
669.2913385826773
  0
ARC
  5
457
330
1F
100
AcDbEntity
  8
Default
100
AcDbCircle
 10
53.83291015251771
 20
1287.955896076798
 30
669.2913385826773
 40
409.2694178226944
100
AcDbArc
 50
222.2478340188754
 51
235.9468258270186
  0
SPLINE
  5
458
330
1F
100
AcDbEntity
  8
Default
100
AcDbSpline
210
0.0
220
0.0
230
1.0
 70
     8
 71
     3
 72
    12
 73
     8
 74
     0
 42
0.000000001
 43
0.0000000001
 40
0.0
 40
0.0
 40
0.0
 40
0.0
 40
1.832654236483515
 40
3.669578742657731
 40
7.371880427553494
 40
11.11625269817008
 40
14.89017125660395
 40
14.89017125660395
 40
14.89017125660395
 40
14.89017125660395
 10
-244.474522611241
 20
1114.12159806227
 30
669.2913385826773
 10
-244.4756197037333
 20
1098.549581918335
 30
669.2913385826773
 10
-241.2859392452393
 20
1067.499399093028
 30
669.2913385826773
 10
-222.602299070275
 20
1007.590559005724
 30
669.2913385826773
 10
-176.9663586356092
 20
941.6787900845607
 30
669.2913385826773
 10
-95.60635581120559
 20
889.2181118637976
 30
669.2913385826773
 10
-31.95255201877271
 20
877.0054093744851
 30
669.2913385826773
 10
-0.0000201499916281
 20
876.9998156096821
 30
669.2913385826773
  0
SPLINE
  5
459
330
1F
100
AcDbEntity
  8
Default
100
AcDbSpline
210
0.0
220
0.0
230
1.0
 70
     8
 71
     3
 72
    12
 73
     8
 74
     0
 42
0.000000001
 43
0.0000000001
 40
0.0
 40
0.0
 40
0.0
 40
0.0
 40
1.889355098582429
 40
3.774519559296818
 40
7.516682166840943
 40
11.21816918271821
 40
14.89017237659324
 40
14.89017237659324
 40
14.89017237659324
 40
14.89017237659324
 10
-0.0000201499916281
 20
876.9998156096821
 30
669.2913385826773
 10
15.99520490650857
 20
877.0015369166953
 30
669.2913385826773
 10
47.95470964590086
 20
880.0752779067565
 30
669.2913385826773
 10
109.2974079782451
 20
898.05086647505
 30
669.2913385826773
 10
176.9403622907029
 20
941.6594652507424
 30
669.2913385826773
 10
231.601311290511
 20
1020.572760047749
 30
669.2913385826773
 10
244.482997366651
 20
1082.98552430912
 30
669.2913385826773
 10
244.4746646174662
 20
1114.079348173652
 30
669.2913385826773
  0
SPLINE
  5
45A
330
1F
100
AcDbEntity
  8
Default
100
AcDbSpline
210
0.0
220
0.0
230
1.0
 70
     8
 71
     3
 72
    12
 73
     8
 74
     0
 42
0.000000001
 43
0.0000000001
 40
-15.35241646788361
 40
-15.35241646788361
 40
-15.35241646788361
 40
-15.35241646788361
 40
-11.42846722997082
 40
-7.624448880970328
 40
-3.868777336844832
 40
-1.918304869189328
 40
0.0
 40
0.0
 40
0.0
 40
0.0
 10
244.4746646174662
 20
1114.079348173652
 30
669.2913385826773
 10
244.475200393519
 20
1147.286876984207
 30
669.2913385826773
 10
232.6523492062424
 20
1212.864750250233
 30
669.2913385826773
 10
179.1985637281595
 20
1296.423006221773
 30
669.2913385826773
 10
111.1289054803582
 20
1342.516547381057
 30
669.2913385826773
 10
49.00232326246433
 20
1361.162306149553
 30
669.2913385826773
 10
16.24007876396527
 20
1364.332487435933
 30
669.2913385826773
 10
0.0000000000053708
 20
1364.319008729102
 30
669.2913385826773
  0
SPLINE
  5
45B
330
1F
100
AcDbEntity
  8
Default
100
AcDbSpline
210
0.0
220
0.0
230
1.0
 70
     8
 71
     3
 72
    12
 73
     8
 74
     0
 42
0.000000001
 43
0.0000000001
 40
-15.34910747496398
 40
-15.34910747496398
 40
-15.34910747496398
 40
-15.34910747496398
 40
-11.5840058662532
 40
-7.773657509622693
 40
-3.936637318219009
 40
-1.971105179282631
 40
0.0
 40
0.0
 40
0.0
 40
0.0
 10
0.0000000000053708
 20
1364.319008729102
 30
669.2913385826773
 10
-31.86228087414392
 20
1364.311295243585
 30
669.2913385826773
 10
-96.09867447660334
 20
1352.244270810688
 30
669.2913385826773
 10
-178.2893788051461
 20
1297.582897540656
 30
669.2913385826773
 10
-223.293496069955
 20
1227.75917100769
 30
669.2913385826773
 10
-241.4317607781069
 20
1164.201737499288
 30
669.2913385826773
 10
-244.4807164374816
 20
1130.856254058044
 30
669.2913385826773
 10
-244.474522611241
 20
1114.12159806227
 30
669.2913385826773
  0
SPLINE
  5
45C
330
1F
100
AcDbEntity
  8
Default
100
AcDbSpline
210
0.0
220
0.0
230
1.0
 70
     8
 71
     3
 72
    12
 73
     8
 74
     0
 42
0.000000001
 43
0.0000000001
 40
0.0
 40
0.0
 40
0.0
 40
0.0
 40
1.0
 40
2.0
 40
3.0
 40
4.0
 40
5.0
 40
5.0
 40
5.0
 40
5.0
 10
240.0610254849325
 20
1368.657324521043
 30
669.2913385826773
 10
248.8526576027088
 20
1358.000344332498
 30
669.2913385826773
 10
265.1778638063241
 20
1335.647478337619
 30
669.2913385826773
 10
285.5496696669888
 20
1299.474225975916
 30
669.2913385826773
 10
302.0270454106957
 20
1261.402198343637
 30
669.2913385826773
 10
315.7988716929011
 20
1222.292101066503
 30
669.2913385826773
 10
323.5279950645471
 20
1195.751135856955
 30
669.2913385826773
 10
326.7972591722372
 20
1182.326035532727
 30
669.2913385826773
  0
SPLINE
  5
45D
330
1F
100
AcDbEntity
  8
Default
100
AcDbSpline
210
0.0
220
0.0
230
1.0
 70
     8
 71
     3
 72
    10
 73
     6
 74
     0
 42
0.000000001
 43
0.0000000001
 40
0.0
 40
0.0
 40
0.0
 40
0.0
 40
1.0
 40
2.0
 40
3.0
 40
3.0
 40
3.0
 40
3.0
 10
326.7972591722372
 20
1182.326035532727
 30
669.2913385826773
 10
328.925058728082
 20
1173.40346281248
 30
669.2913385826773
 10
331.2911683449
 20
1155.12534401603
 30
669.2913385826773
 10
329.6520844515088
 20
1127.549149630774
 30
669.2913385826773
 10
324.2271975919956
 20
1109.767609483847
 30
669.2913385826773
 10
319.2783479189074
 20
1101.98702793726
 30
669.2913385826773
  0
SPLINE
  5
45E
330
1F
100
AcDbEntity
  8
Default
100
AcDbSpline
210
0.0
220
0.0
230
1.0
 70
     8
 71
     3
 72
    10
 73
     6
 74
     0
 42
0.000000001
 43
0.0000000001
 40
8.0
 40
8.0
 40
8.0
 40
8.0
 40
9.0
 40
10.0
 40
11.0
 40
11.0
 40
11.0
 40
11.0
 10
319.2783479189074
 20
1101.98702793726
 30
669.2913385826773
 10
312.2699274825117
 20
1091.482760668937
 30
669.2913385826773
 10
298.686779169051
 20
1070.144819897102
 30
669.2913385826773
 10
274.8399314972175
 20
1040.629649507804
 30
669.2913385826773
 10
257.6188976490065
 20
1022.138505705695
 30
669.2913385826773
 10
249.1263020911992
 20
1012.788176950938
 30
669.2913385826773
  0
ARC
  5
45F
330
1F
100
AcDbEntity
  8
Default
100
AcDbCircle
 10
-53.83274252704186
 20
1287.955896076798
 30
669.2913385826773
 40
409.2694178226944
100
AcDbArc
 50
304.0531741729813
 51
317.7521659811245
  0
SPLINE
  5
460
330
1F
100
AcDbEntity
  8
Default
100
AcDbSpline
210
0.0
220
0.0
230
1.0
 70
     8
 71
     3
 72
    23
 73
    19
 74
     0
 42
0.000000001
 43
0.0000000001
 40
-16.0
 40
-16.0
 40
-16.0
 40
-16.0
 40
-14.99999934916018
 40
-13.99999869832036
 40
-12.99999804748054
 40
-11.99999739664072
 40
-10.99999674580089
 40
-9.999996094961071
 40
-8.999995444121251
 40
-7.99999479328143
 40
-6.999994142441609
 40
-5.999993491601789
 40
-4.999992840761966
 40
-3.999992189922146
 40
-2.999991539082325
 40
-1.999990888242504
 40
-0.9999902374026826
 40
0.0
 40
0.0
 40
0.0
 40
0.0
 10
209.1124407521256
 20
1452.786711421418
 30
669.2913385826773
 10
210.25075792811
 20
1459.488583900563
 30
669.2913385826773
 10
212.4627799892932
 20
1472.917696804355
 30
669.2913385826773
 10
215.4510659207061
 20
1493.06015931437
 30
669.2913385826773
 10
218.0155189282576
 20
1513.431512983517
 30
669.2913385826773
 10
219.9648609323648
 20
1533.246816911587
 30
669.2913385826773
 10
221.4032731843053
 20
1555.432324349168
 30
669.2913385826773
 10
200.7432934984517
 20
1565.380975732195
 30
669.2913385826773
 10
181.8612673451297
 20
1571.257754249252
 30
669.2913385826773
 10
161.6830013250054
 20
1575.342436695473
 30
669.2913385826773
 10
141.7309285999307
 20
1579.339953013057
 30
669.2913385826773
 10
121.6396149912197
 20
1582.952617503362
 30
669.2913385826773
 10
101.5074988157884
 20
1586.222485760235
 30
669.2913385826773
 10
81.30983746799566
 20
1589.095875749315
 30
669.2913385826773
 10
61.05682924750536
 20
1591.537835322351
 30
669.2913385826773
 10
40.75368996100761
 20
1593.529461096311
 30
669.2913385826773
 10
20.39788909435984
 20
1594.902830367203
 30
669.2913385826773
 10
6.799755973644919
 20
1595.255511042176
 30
669.2913385826773
 10
0.0000838127397449
 20
1595.256276567399
 30
669.2913385826773
  0
SPLINE
  5
461
330
1F
100
AcDbEntity
  8
Default
100
AcDbSpline
210
0.0
220
0.0
230
1.0
 70
     8
 71
     3
 72
    23
 73
    19
 74
     0
 42
0.000000001
 43
0.0000000001
 40
0.0
 40
0.0
 40
0.0
 40
0.0
 40
0.9999902374026826
 40
1.999990888242504
 40
2.999991539082325
 40
3.999992189922146
 40
4.999992840761966
 40
5.999993491601789
 40
6.999994142441609
 40
7.99999479328143
 40
8.999995444121251
 40
9.999996094961071
 40
10.99999674580089
 40
11.99999739664072
 40
12.99999804748054
 40
13.99999869832036
 40
14.99999934916018
 40
16.0
 40
16.0
 40
16.0
 40
16.0
 10
0.0000838127397449
 20
1595.256276567399
 30
669.2913385826773
 10
-6.799588348172705
 20
1595.255511042176
 30
669.2913385826773
 10
-20.39772146889126
 20
1594.902830367203
 30
669.2913385826773
 10
-40.75352233553175
 20
1593.529461096311
 30
669.2913385826773
 10
-61.0566616220295
 20
1591.537835322351
 30
669.2913385826773
 10
-81.30966984251982
 20
1589.095875749315
 30
669.2913385826773
 10
-101.5073311903089
 20
1586.222485760235
 30
669.2913385826773
 10
-121.6394473657511
 20
1582.952617503362
 30
669.2913385826773
 10
-141.7307609744549
 20
1579.339953013057
 30
669.2913385826773
 10
-161.6828336995296
 20
1575.342436695473
 30
669.2913385826773
 10
-181.8610997196611
 20
1571.257754249252
 30
669.2913385826773
 10
-200.7431258729722
 20
1565.380975732195
 30
669.2913385826773
 10
-221.4031055588331
 20
1555.432324349168
 30
669.2913385826773
 10
-219.964693306889
 20
1533.246816911587
 30
669.2913385826773
 10
-218.0153513027818
 20
1513.431512983517
 30
669.2913385826773
 10
-215.4508982952303
 20
1493.06015931437
 30
669.2913385826773
 10
-212.4626123638173
 20
1472.917696804355
 30
669.2913385826773
 10
-210.2505903026377
 20
1459.488583900563
 30
669.2913385826773
 10
-209.1122731266497
 20
1452.786711421418
 30
669.2913385826773
  0
POLYLINE
  5
462
330
1F
100
AcDbEntity
  8
Default
100
AcDb2dPolyline
 66
     1
 10
0.0
 20
0.0
 30
669.2913385826773
  0
VERTEX
  5
463
330
462
100
AcDbEntity
  8
Default
100
AcDbVertex
100
AcDb2dVertex
 10
-231.6298004225083
 20
962.5181881163712
 30
669.2913385826773
  0
VERTEX
  5
464
330
462
100
AcDbEntity
  8
Default
100
AcDbVertex
100
AcDb2dVertex
 10
-232.8484744072431
 20
960.4492902218893
 30
669.2913385826773
  0
SEQEND
  5
465
330
462
100
AcDbEntity
  8
Default
  0
SPLINE
  5
466
330
1F
100
AcDbEntity
  8
Default
100
AcDbSpline
210
0.0
220
0.0
230
1.0
 70
    12
 71
     2
 72
     8
 73
     5
 74
     0
 42
0.000000001
 43
0.0000000001
 40
0.0
 40
0.0
 40
0.0
 40
0.0657021758075414
 40
0.0657021758075414
 40
0.5513779496561005
 40
0.5513779496561005
 40
0.5513779496561005
 10
-232.8484744072431
 20
960.4492902218893
 30
669.2913385826773
 41
1.0
 10
-233.2737967660015
 20
959.7269841495048
 30
669.2913385826773
 41
0.9938146782922427
 10
-233.5290887614484
 20
958.9289444434339
 30
669.2913385826773
 41
1.0
 10
-235.7906552595288
 20
951.4597313115205
 30
669.2913385826773
 41
0.7132736251541142
 10
-228.3622076795746
 20
949.0676622516707
 30
669.2913385826773
 41
1.0
  0
SPLINE
  5
467
330
1F
100
AcDbEntity
  8
Default
100
AcDbSpline
210
-0.000000000000008
220
-0.000000000000023
230
1.0
 70
    12
 71
     2
 72
     6
 73
     3
 74
     0
 42
0.000000001
 43
0.0000000001
 40
0.0
 40
0.0
 40
0.0
 40
0.3517776804954474
 40
0.3517776804954474
 40
0.3517776804954474
 10
-228.3622076795746
 20
949.0676622516707
 30
669.2913385826773
 41
1.0
 10
-223.5538724107811
 20
947.4012642940774
 30
669.2913385826773
 41
0.8116604165752045
 10
-220.1063143743978
 20
951.1444332487567
 30
669.2913385826774
 41
0.9416357303282252
  0
POLYLINE
  5
468
330
1F
100
AcDbEntity
  8
Default
100
AcDb2dPolyline
 66
     1
 10
0.0
 20
0.0
 30
669.2913385826773
  0
VERTEX
  5
469
330
468
100
AcDbEntity
  8
Default
100
AcDbVertex
100
AcDb2dVertex
 10
231.6299680479841
 20
962.5181881163712
 30
669.2913385826773
  0
VERTEX
  5
46A
330
468
100
AcDbEntity
  8
Default
100
AcDbVertex
100
AcDb2dVertex
 10
232.8486420327226
 20
960.4492902218893
 30
669.2913385826773
  0
SEQEND
  5
46B
330
468
100
AcDbEntity
  8
Default
  0
SPLINE
  5
46C
330
1F
100
AcDbEntity
  8
Default
100
AcDbSpline
210
0.0
220
0.0
230
1.0
 70
    12
 71
     2
 72
     8
 73
     5
 74
     0
 42
0.000000001
 43
0.0000000001
 40
0.0
 40
0.0
 40
0.0
 40
0.0657021758075414
 40
0.0657021758075414
 40
0.5513779496561005
 40
0.5513779496561005
 40
0.5513779496561005
 10
232.8486420327226
 20
960.4492902218893
 30
669.2913385826773
 41
1.0
 10
233.2739643914774
 20
959.7269841495048
 30
669.2913385826773
 41
0.9938146782922427
 10
233.5292563869242
 20
958.9289444434339
 30
669.2913385826773
 41
1.0
 10
235.7908228849973
 20
951.4597313115205
 30
669.2913385826773
 41
0.7132736251541142
 10
228.3623753050432
 20
949.0676622516707
 30
669.2913385826773
 41
1.0
  0
SPLINE
  5
46D
330
1F
100
AcDbEntity
  8
Default
100
AcDbSpline
210
0.000000000000008
220
-0.000000000000023
230
1.0
 70
    12
 71
     2
 72
     6
 73
     3
 74
     0
 42
0.000000001
 43
0.0000000001
 40
0.0
 40
0.0
 40
0.0
 40
0.3517776804954474
 40
0.3517776804954474
 40
0.3517776804954474
 10
228.3623753050432
 20
949.0676622516707
 30
669.2913385826773
 41
1.0
 10
223.5540400362533
 20
947.4012642940774
 30
669.2913385826773
 41
0.8116604165752045
 10
220.1064819998809
 20
951.1444332487567
 30
669.2913385826774
 41
0.9416357303282252
  0
SPLINE
  5
46E
330
1F
100
AcDbEntity
  8
Default
100
AcDbSpline
210
0.0
220
0.0
230
1.0
 70
    24
 71
     2
 72
     6
 73
     3
 74
     0
 42
0.000000001
 43
0.0000000001
 40
4.403114343305641
 40
4.403114343305641
 40
4.403114343305641
 40
4.523710136401241
 40
4.523710136401241
 40
4.523710136401241
 10
-211.4045563893834
 20
1466.608705937023
 30
669.2913385826773
 10
-212.1703396755384
 20
1467.935081496236
 30
669.2913385826773
 10
-212.9361229617007
 20
1469.261457055448
 30
669.2913385826773
  0
SPLINE
  5
46F
330
1F
100
AcDbEntity
  8
Default
100
AcDbSpline
210
0.0
220
0.0
230
1.0
 70
    12
 71
     2
 72
     8
 73
     5
 74
     0
 42
0.000000001
 43
0.0000000001
 40
0.0
 40
0.0
 40
0.0
 40
0.4730574302815958
 40
0.4730574302815958
 40
0.9455180233888372
 40
0.9455180233888372
 40
0.9455180233888372
 10
-212.9361229617007
 20
1469.261457055448
 30
669.2913385826773
 41
1.0
 10
-217.1093281528793
 20
1475.652743984459
 30
669.2913385826773
 41
0.7091869777201399
 10
-223.5250940678835
 20
1471.517270867572
 30
669.2913385826773
 41
1.0
 10
-230.2357443612474
 20
1467.866296083871
 30
669.2913385826773
 41
0.7071352214376397
 10
-226.5856136742569
 20
1461.155176452187
 30
669.2913385826773
 41
1.0
  0
SPLINE
  5
470
330
1F
100
AcDbEntity
  8
Default
100
AcDbSpline
210
0.0
220
0.0
230
1.0
 70
    24
 71
     2
 72
     6
 73
     3
 74
     0
 42
0.000000001
 43
0.0000000001
 40
-4.466989253625452
 40
-4.466989253625452
 40
-4.466989253625452
 40
-3.611823149802035
 40
-3.611823149802035
 40
-3.611823149802035
 10
-226.5856136742569
 20
1461.155176452187
 30
669.2913385826773
 10
-221.1553380390779
 20
1451.749595893726
 30
669.2913385826773
 10
-215.7250624039062
 20
1442.344015335269
 30
669.2913385826773
  0
SPLINE
  5
471
330
1F
100
AcDbEntity
  8
Default
100
AcDbSpline
210
0.0
220
0.0
230
1.0
 70
    24
 71
     2
 72
     6
 73
     3
 74
     0
 42
0.000000001
 43
0.0000000001
 40
4.403114343305639
 40
4.403114343305639
 40
4.403114343305639
 40
4.523710136401241
 40
4.523710136401241
 40
4.523710136401241
 10
211.4047240148556
 20
1466.608705937023
 30
669.2913385826773
 10
212.1705073010106
 20
1467.935081496236
 30
669.2913385826773
 10
212.9362905871694
 20
1469.261457055448
 30
669.2913385826773
  0
SPLINE
  5
472
330
1F
100
AcDbEntity
  8
Default
100
AcDbSpline
210
0.0
220
0.0
230
1.0
 70
    12
 71
     2
 72
     8
 73
     5
 74
     0
 42
0.000000001
 43
0.0000000001
 40
0.0
 40
0.0
 40
0.0
 40
0.4730574302815958
 40
0.4730574302815958
 40
0.9455180233888372
 40
0.9455180233888372
 40
0.9455180233888372
 10
212.9362905871694
 20
1469.261457055448
 30
669.2913385826773
 41
1.0
 10
217.1094957783516
 20
1475.652743984459
 30
669.2913385826773
 41
0.7091869777201399
 10
223.525261693363
 20
1471.517270867572
 30
669.2913385826773
 41
1.0
 10
230.2359119867196
 20
1467.866296083871
 30
669.2913385826773
 41
0.7071352214376397
 10
226.5857812997328
 20
1461.155176452187
 30
669.2913385826773
 41
1.0
  0
SPLINE
  5
473
330
1F
100
AcDbEntity
  8
Default
100
AcDbSpline
210
0.0
220
0.0
230
1.0
 70
    24
 71
     2
 72
     6
 73
     3
 74
     0
 42
0.000000001
 43
0.0000000001
 40
-4.466989253625452
 40
-4.466989253625452
 40
-4.466989253625452
 40
-3.611823149802035
 40
-3.611823149802035
 40
-3.611823149802035
 10
226.5857812997328
 20
1461.155176452187
 30
669.2913385826773
 10
221.1555056645538
 20
1451.749595893726
 30
669.2913385826773
 10
215.7252300293748
 20
1442.344015335269
 30
669.2913385826773
  0
SPLINE
  5
474
330
1F
100
AcDbEntity
  8
Default
100
AcDbSpline
210
0.0
220
0.0
230
1.0
 70
     8
 71
     3
 72
    29
 73
    25
 74
     0
 42
0.000000001
 43
0.0000000001
 40
0.0
 40
0.0
 40
0.0
 40
0.0
 40
1.0
 40
2.0
 40
3.0
 40
4.0
 40
5.0
 40
6.0
 40
7.0
 40
8.0
 40
9.0
 40
10.0
 40
11.0
 40
12.0
 40
13.0
 40
14.0
 40
15.0
 40
16.0
 40
17.0
 40
18.0
 40
19.0
 40
20.0
 40
21.0
 40
22.0
 40
22.0
 40
22.0
 40
22.0
 10
-209.2863261508265
 20
-1452.481780268799
 30
669.2913385826773
 10
-213.4296380762845
 20
-1444.121238016841
 30
669.2913385826773
 10
-224.6995198130845
 20
-1429.203234904756
 30
669.2913385826773
 10
-241.7586469914005
 20
-1407.095509391243
 30
669.2913385826773
 10
-259.460809927814
 20
-1385.455374642269
 30
669.2913385826773
 10
-276.3702275942252
 20
-1363.193012280885
 30
669.2913385826773
 10
-291.2918103497779
 20
-1339.526128586852
 30
669.2913385826773
 10
-304.5796226099357
 20
-1314.924479873299
 30
669.2913385826773
 10
-316.238615924891
 20
-1289.508318475743
 30
669.2913385826773
 10
-326.5342733262752
 20
-1263.517399743491
 30
669.2913385826773
 10
-335.7316647267091
 20
-1237.11845838721
 30
669.2913385826773
 10
-343.810027185331
 20
-1210.35740538433
 30
669.2913385826773
 10
-350.8622701436162
 20
-1183.304999466146
 30
669.2913385826773
 10
-355.5739714192479
 20
-1155.6949045271
 30
669.2913385826773
 10
-354.4028570536922
 20
-1127.487242956865
 30
669.2913385826773
 10
-344.6718030488284
 20
-1100.974621237784
 30
669.2913385826773
 10
-328.706570404289
 20
-1077.905997245915
 30
669.2913385826773
 10
-313.4644320040262
 20
-1054.500688337813
 30
669.2913385826773
 10
-296.0340694010976
 20
-1032.603996407773
 30
669.2913385826773
 10
-277.5336927400223
 20
-1011.659748659114
 30
669.2913385826773
 10
-258.8583413526486
 20
-990.8644069607882
 30
669.2913385826773
 10
-240.0166736933626
 20
-970.2208044039592
 30
669.2913385826773
 10
-220.4620142369404
 20
-950.2381243566789
 30
669.2913385826773
 10
-206.5046457514891
 20
-937.8693957021617
 30
669.2913385826773
 10
-199.2126933029304
 20
-932.0691257256196
 30
669.2913385826773
  0
SPLINE
  5
475
330
1F
100
AcDbEntity
  8
Default
100
AcDbSpline
210
0.0
220
0.0
230
1.0
 70
     8
 71
     3
 72
    29
 73
    25
 74
     0
 42
0.000000001
 43
0.0000000001
 40
0.0
 40
0.0
 40
0.0
 40
0.0
 40
1.0
 40
2.0
 40
3.0
 40
4.0
 40
5.0
 40
6.0
 40
7.0
 40
8.0
 40
9.0
 40
10.0
 40
11.0
 40
12.0
 40
13.0
 40
14.0
 40
15.0
 40
16.0
 40
17.0
 40
18.0
 40
19.0
 40
20.0
 40
21.0
 40
22.0
 40
22.0
 40
22.0
 40
22.0
 10
209.2864937763024
 20
-1452.481780268799
 30
669.2913385826773
 10
213.429805701753
 20
-1444.121238016841
 30
669.2913385826773
 10
224.699687438564
 20
-1429.203234904756
 30
669.2913385826773
 10
241.7588146168727
 20
-1407.095509391243
 30
669.2913385826773
 10
259.4609775532898
 20
-1385.455374642269
 30
669.2913385826773
 10
276.3703952196973
 20
-1363.193012280885
 30
669.2913385826773
 10
291.29197797525
 20
-1339.526128586852
 30
669.2913385826773
 10
304.5797902354042
 20
-1314.924479873299
 30
669.2913385826773
 10
316.2387835503704
 20
-1289.508318475743
 30
669.2913385826773
 10
326.5344409517473
 20
-1263.517399743491
 30
669.2913385826773
 10
335.7318323521885
 20
-1237.11845838721
 30
669.2913385826773
 10
343.8101948107995
 20
-1210.35740538433
 30
669.2913385826773
 10
350.862437769092
 20
-1183.304999466146
 30
669.2913385826773
 10
355.5741390447237
 20
-1155.6949045271
 30
669.2913385826773
 10
354.4030246791716
 20
-1127.487242956865
 30
669.2913385826773
 10
344.6719706743041
 20
-1100.974621237784
 30
669.2913385826773
 10
328.7067380297612
 20
-1077.905997245915
 30
669.2913385826773
 10
313.4645996294984
 20
-1054.500688337813
 30
669.2913385826773
 10
296.034237026577
 20
-1032.603996407773
 30
669.2913385826773
 10
277.5338603654981
 20
-1011.659748659114
 30
669.2913385826773
 10
258.8585089781208
 20
-990.8644069607882
 30
669.2913385826773
 10
240.0168413188421
 20
-970.2208044039592
 30
669.2913385826773
 10
220.4621818624163
 20
-950.2381243566789
 30
669.2913385826773
 10
206.504813376965
 20
-937.8693957021617
 30
669.2913385826773
 10
199.212860928399
 20
-932.0691257256196
 30
669.2913385826773
  0
SPLINE
  5
476
330
1F
100
AcDbEntity
  8
Default
100
AcDbSpline
210
0.0
220
0.0
230
1.0
 70
    12
 71
     3
 72
    12
 73
     8
 74
     0
 42
0.000000001
 43
0.0000000001
 40
-1.0
 40
-1.0
 40
-1.0
 40
-1.0
 40
-0.75
 40
-0.5
 40
-0.25
 40
-0.125
 40
0.0
 40
0.0
 40
0.0
 40
0.0
 10
219.9727058559819
 20
-1540.060042364247
 30
669.2913385826773
 41
1.0
 10
219.9782180213169
 20
-1541.472085232127
 30
669.2913385826773
 41
1.0
 10
217.9025332660439
 20
-1544.823652514636
 30
669.2913385826773
 41
1.0
 10
208.0311253545423
 20
-1550.73874558793
 30
669.2913385826773
 41
1.0
 10
195.4752801145168
 20
-1555.542628892069
 30
669.2913385826773
 41
1.0
 10
183.9144095693354
 20
-1558.906521583883
 30
669.2913385826773
 41
1.0
 10
177.8530696116812
 20
-1560.369318527487
 30
669.2913385826773
 41
1.0
 10
174.8097717293912
 20
-1561.049155669874
 30
669.2913385826773
 41
1.0
  0
SPLINE
  5
477
330
1F
100
AcDbEntity
  8
Default
100
AcDbSpline
210
0.0
220
0.0
230
1.0
 70
    12
 71
     2
 72
     6
 73
     3
 74
     0
 42
0.000000001
 43
0.0000000001
 40
-1.73861529974842
 40
-1.73861529974842
 40
-1.73861529974842
 40
0.0
 40
0.0
 40
0.0
 10
174.8097717293912
 20
-1561.049155669874
 30
669.2913385826773
 41
1.0
 10
153.2453923165757
 20
-1565.806781574048
 30
669.2913385826773
 41
0.9998265244242315
 10
131.519024630952
 20
-1569.759301379797
 30
669.2913385826773
 41
0.9999999999903403
  0
SPLINE
  5
478
330
1F
100
AcDbEntity
  8
Default
100
AcDbSpline
210
0.0
220
0.0
230
1.0
 70
     8
 71
     3
 72
    11
 73
     7
 74
     0
 42
0.000000001
 43
0.0000000001
 40
0.0
 40
0.0
 40
0.0
 40
0.0
 40
0.8055658146296341
 40
1.505207287485616
 40
2.898665587188705
 40
5.215701186741097
 40
5.215701186741097
 40
5.215701186741097
 40
5.215701186741097
 10
131.519024630952
 20
-1569.759301379797
 30
669.2913385826773
 10
124.809378306354
 20
-1570.992441577339
 30
669.2913385826773
 10
112.2539711420049
 20
-1573.155650585178
 30
669.2913385826773
 10
88.00372057929227
 20
-1576.974345079031
 30
669.2913385826773
 10
50.97393404396453
 20
-1581.727666134285
 30
669.2913385826773
 10
19.62615681576963
 20
-1584.270972285086
 30
669.2913385826773
 10
0.0000838127397449
 20
-1584.347617187142
 30
669.2913385826773
  0
SPLINE
  5
479
330
1F
100
AcDbEntity
  8
Default
100
AcDbSpline
210
0.0
220
0.0
230
1.0
 70
     8
 71
     3
 72
    11
 73
     7
 74
     0
 42
0.000000001
 43
0.0000000001
 40
-5.215701186741097
 40
-5.215701186741097
 40
-5.215701186741097
 40
-5.215701186741097
 40
-2.898665587188705
 40
-1.505207287485616
 40
-0.8055658146296341
 40
0.0
 40
0.0
 40
0.0
 40
0.0
 10
0.0000838127397449
 20
-1584.347617187142
 30
669.2913385826773
 10
-19.62598919029378
 20
-1584.270972285086
 30
669.2913385826773
 10
-50.97376641849232
 20
-1581.727666134285
 30
669.2913385826773
 10
-88.00355295382004
 20
-1576.974345079031
 30
669.2913385826773
 10
-112.2538035165326
 20
-1573.155650585178
 30
669.2913385826773
 10
-124.8092106808854
 20
-1570.992441577339
 30
669.2913385826773
 10
-131.5188570054834
 20
-1569.759301379797
 30
669.2913385826773
  0
SPLINE
  5
47A
330
1F
100
AcDbEntity
  8
Default
100
AcDbSpline
210
0.0
220
0.0
230
1.0
 70
    12
 71
     2
 72
     6
 73
     3
 74
     0
 42
0.000000001
 43
0.0000000001
 40
0.0
 40
0.0
 40
0.0
 40
1.73861529974842
 40
1.73861529974842
 40
1.73861529974842
 10
-131.5188570054834
 20
-1569.759301379797
 30
669.2913385826773
 41
0.9999999999903403
 10
-153.2452246911035
 20
-1565.806781574048
 30
669.2913385826773
 41
0.9998265244242315
 10
-174.809604103919
 20
-1561.049155669874
 30
669.2913385826773
 41
1.0
  0
SPLINE
  5
47B
330
1F
100
AcDbEntity
  8
Default
100
AcDbSpline
210
0.0
220
0.0
230
1.0
 70
    12
 71
     3
 72
    12
 73
     8
 74
     0
 42
0.000000001
 43
0.0000000001
 40
0.0
 40
0.0
 40
0.0
 40
0.0
 40
0.125
 40
0.25
 40
0.5
 40
0.75
 40
1.0
 40
1.0
 40
1.0
 40
1.0
 10
-174.809604103919
 20
-1561.049155669874
 30
669.2913385826773
 41
1.0
 10
-177.852901986209
 20
-1560.369318527487
 30
669.2913385826773
 41
1.0
 10
-183.9142419438595
 20
-1558.906521583883
 30
669.2913385826773
 41
1.0
 10
-195.4751124890445
 20
-1555.542628892069
 30
669.2913385826773
 41
1.0
 10
-208.0309577290664
 20
-1550.73874558793
 30
669.2913385826773
 41
1.0
 10
-217.902365640568
 20
-1544.823652514636
 30
669.2913385826773
 41
1.0
 10
-219.978050395841
 20
-1541.472085232127
 30
669.2913385826773
 41
1.0
 10
-219.9725382305097
 20
-1540.060042364247
 30
669.2913385826773
 41
1.0
  0
SPLINE
  5
47C
330
1F
100
AcDbEntity
  8
Default
100
AcDbSpline
210
0.0
220
0.0
230
1.0
 70
     8
 71
     3
 72
    11
 73
     7
 74
     0
 42
0.000000001
 43
0.0000000001
 40
-3.576711082448426
 40
-3.576711082448426
 40
-3.576711082448426
 40
-3.576711082448426
 40
-2.825677162948846
 40
-1.983666277812515
 40
-1.056257442711362
 40
0.0
 40
0.0
 40
0.0
 40
0.0
 10
-219.9725382305097
 20
-1540.060042364247
 30
669.2913385826773
 10
-219.60396685645
 20
-1533.712539453093
 30
669.2913385826773
 10
-218.524922247847
 20
-1520.265305056722
 30
669.2913385826773
 10
-216.1217266881195
 20
-1499.05902110928
 30
669.2913385826773
 10
-212.7769754220118
 20
-1475.368257754283
 30
669.2913385826773
 10
-210.09227506117
 20
-1458.788363763307
 30
669.2913385826773
 10
-208.5938089428947
 20
-1449.970379989894
 30
669.2913385826773
  0
SPLINE
  5
47D
330
1F
100
AcDbEntity
  8
Default
100
AcDbSpline
210
0.0
220
0.0
230
1.0
 70
     8
 71
     3
 72
    19
 73
    15
 74
     0
 42
0.000000001
 43
0.0000000001
 40
-12.0
 40
-12.0
 40
-12.0
 40
-12.0
 40
-11.0
 40
-10.0
 40
-9.0
 40
-8.0
 40
-7.0
 40
-6.0
 40
-5.0
 40
-4.0
 40
-3.0
 40
-2.0
 40
-1.0
 40
0.0
 40
0.0
 40
0.0
 40
0.0
 10
-208.5938089428947
 20
-1449.970379989894
 30
669.2913385826773
 10
-209.5871168830691
 20
-1441.603647350375
 30
669.2913385826773
 10
-220.344594390228
 20
-1428.164337728359
 30
669.2913385826773
 10
-235.1288121408671
 20
-1408.18901606706
 30
669.2913385826773
 10
-250.9280855264279
 20
-1388.672928174639
 30
669.2913385826773
 10
-266.6281856545958
 20
-1369.158574872302
 30
669.2913385826773
 10
-280.6762719344753
 20
-1348.383599615904
 30
669.2913385826773
 10
-293.3930803519599
 20
-1326.788589316756
 30
669.2913385826773
 10
-304.7772345060604
 20
-1304.458315678215
 30
669.2913385826773
 10
-314.9180626264407
 20
-1281.540656108261
 30
669.2913385826773
 10
-323.9514810888342
 20
-1258.166934714941
 30
669.2913385826773
 10
-332.1111560015544
 20
-1234.476207515389
 30
669.2913385826773
 10
-339.4506247466326
 20
-1210.51752302636
 30
669.2913385826773
 10
-343.6364587342488
 20
-1194.344046487979
 30
669.2913385826773
 10
-345.5609274175387
 20
-1186.217954692668
 30
669.2913385826773
  0
SPLINE
  5
47E
330
1F
100
AcDbEntity
  8
Default
100
AcDbSpline
210
0.0
220
0.0
230
1.0
 70
    12
 71
     3
 72
    11
 73
     7
 74
     0
 42
0.000000001
 43
0.0000000001
 40
0.0
 40
0.0
 40
0.0
 40
0.0
 40
0.2499998804336
 40
0.4999997608673
 40
0.7499996413009001
 40
1.0
 40
1.0
 40
1.0
 40
1.0
 10
-345.5609274175387
 20
-1186.217954692668
 30
669.2913385826773
 41
1.0
 10
-347.6345889667192
 20
-1177.21694942804
 30
669.2913385826773
 41
1.0
 10
-351.1516012131707
 20
-1159.115273716842
 30
669.2913385826773
 41
1.0
 10
-351.6111879253532
 20
-1132.868621716102
 30
669.2913385826773
 41
1.0
 10
-346.1566763437823
 20
-1109.614297342437
 30
669.2913385826773
 41
1.0
 10
-339.632782654162
 20
-1097.425656262524
 30
669.2913385826773
 41
1.0
 10
-336.2760227612144
 20
-1092.107889679625
 30
669.2913385826773
 41
1.0
  0
SPLINE
  5
47F
330
1F
100
AcDbEntity
  8
Default
100
AcDbSpline
210
0.0
220
0.0
230
1.0
 70
     8
 71
     3
 72
    19
 73
    15
 74
     0
 42
0.000000001
 43
0.0000000001
 40
-12.0
 40
-12.0
 40
-12.0
 40
-12.0
 40
-11.0
 40
-10.0
 40
-9.0
 40
-8.0
 40
-7.0
 40
-6.0
 40
-5.0
 40
-4.0
 40
-3.0
 40
-2.0
 40
-1.0
 40
0.0
 40
0.0
 40
0.0
 40
0.0
 10
-336.2760227612144
 20
-1092.107889679625
 30
669.2913385826773
 10
-332.8743943481332
 20
-1086.812984115471
 30
669.2913385826773
 10
-326.1309964622179
 20
-1076.186844895224
 30
669.2913385826773
 10
-315.833778579634
 20
-1060.358396571192
 30
669.2913385826773
 10
-304.6331758905927
 20
-1045.152044181142
 30
669.2913385826773
 10
-292.8446903383684
 20
-1030.400612288818
 30
669.2913385826773
 10
-280.4191648374455
 20
-1016.183755482773
 30
669.2913385826773
 10
-267.9286887535619
 20
-1002.028096201798
 30
669.2913385826773
 10
-255.3656792688726
 20
-987.9354299162708
 30
669.2913385826773
 10
-242.7139687187974
 20
-973.9220925660603
 30
669.2913385826773
 10
-229.7406600903724
 20
-960.2038969786857
 30
669.2913385826773
 10
-216.2966706184908
 20
-946.9433222209383
 30
669.2913385826773
 10
-202.1732619122686
 20
-934.4012914827883
 30
669.2913385826773
 10
-192.1778719013765
 20
-926.7370176533233
 30
669.2913385826773
 10
-187.0411497162223
 20
-923.0480919305893
 30
669.2913385826773
  0
SPLINE
  5
480
330
1F
100
AcDbEntity
  8
Default
100
AcDbSpline
210
0.0
220
0.0
230
1.0
 70
     8
 71
     3
 72
    12
 73
     8
 74
     0
 42
0.000000001
 43
0.0000000001
 40
-15.78913311264457
 40
-15.78913311264457
 40
-15.78913311264457
 40
-15.78913311264457
 40
-11.7692665204822
 40
-7.888736159237259
 40
-4.023995779131863
 40
-2.036640528636299
 40
0.0
 40
0.0
 40
0.0
 40
0.0
 10
-187.0411497162223
 20
-923.0480919305893
 30
669.2913385826773
 10
-159.4179166836712
 20
-903.1685340167289
 30
669.2913385826773
 10
-99.57430189767009
 20
-871.4972975714202
 30
669.2913385826773
 10
0.0143908509798214
 20
-854.8802842527159
 30
669.2913385826773
 10
82.39510726924519
 20
-868.6376470403605
 30
669.2913385826773
 10
143.9538721510706
 20
-895.0139511591272
 30
669.2913385826773
 10
173.0577136331975
 20
-912.9042834445765
 30
669.2913385826773
 10
187.0411989075636
 20
-923.0480692969733
 30
669.2913385826773
  0
SPLINE
  5
481
330
1F
100
AcDbEntity
  8
Default
100
AcDbSpline
210
0.0
220
0.0
230
1.0
 70
     8
 71
     3
 72
    19
 73
    15
 74
     0
 42
0.000000001
 43
0.0000000001
 40
0.0
 40
0.0
 40
0.0
 40
0.0
 40
1.0
 40
2.0
 40
3.0
 40
4.0
 40
5.0
 40
6.0
 40
7.0
 40
8.0
 40
9.0
 40
10.0
 40
11.0
 40
12.0
 40
12.0
 40
12.0
 40
12.0
 10
187.0411989075636
 20
-923.0480692969733
 30
669.2913385826773
 10
192.1780395268451
 20
-926.7370176533233
 30
669.2913385826773
 10
202.1734295377409
 20
-934.4012914827883
 30
669.2913385826773
 10
216.296838243963
 20
-946.9433222209383
 30
669.2913385826773
 10
229.740827715841
 20
-960.2038969786857
 30
669.2913385826773
 10
242.714136344266
 20
-973.9220925660603
 30
669.2913385826773
 10
255.3658468943485
 20
-987.9354299162708
 30
669.2913385826773
 10
267.9288563790341
 20
-1002.028096201798
 30
669.2913385826773
 10
280.419332462914
 20
-1016.183755482773
 30
669.2913385826773
 10
292.8448579638406
 20
-1030.400612288818
 30
669.2913385826773
 10
304.6333435160722
 20
-1045.152044181142
 30
669.2913385826773
 10
315.8339462051098
 20
-1060.358396571192
 30
669.2913385826773
 10
326.1311640876937
 20
-1076.186844895224
 30
669.2913385826773
 10
332.8745619736018
 20
-1086.812984115471
 30
669.2913385826773
 10
336.276190386683
 20
-1092.107889679625
 30
669.2913385826773
  0
SPLINE
  5
482
330
1F
100
AcDbEntity
  8
Default
100
AcDbSpline
210
0.0
220
0.0
230
1.0
 70
    12
 71
     3
 72
    11
 73
     7
 74
     0
 42
0.000000001
 43
0.0000000001
 40
-1.0
 40
-1.0
 40
-1.0
 40
-1.0
 40
-0.7499996413009001
 40
-0.4999997608673
 40
-0.2499998804336
 40
0.0
 40
0.0
 40
0.0
 40
0.0
 10
336.276190386683
 20
-1092.107889679625
 30
669.2913385826773
 41
1.0
 10
339.6329502796378
 20
-1097.425656262524
 30
669.2913385826773
 41
1.0
 10
346.1568439692509
 20
-1109.614297342437
 30
669.2913385826773
 41
1.0
 10
351.6113555508253
 20
-1132.868621716102
 30
669.2913385826773
 41
1.0
 10
351.1517688386429
 20
-1159.115273716842
 30
669.2913385826773
 41
1.0
 10
347.634756592195
 20
-1177.21694942804
 30
669.2913385826773
 41
1.0
 10
345.5610950430108
 20
-1186.217954692668
 30
669.2913385826773
 41
1.0
  0
SPLINE
  5
483
330
1F
100
AcDbEntity
  8
Default
100
AcDbSpline
210
0.0
220
0.0
230
1.0
 70
     8
 71
     3
 72
    19
 73
    15
 74
     0
 42
0.000000001
 43
0.0000000001
 40
0.0
 40
0.0
 40
0.0
 40
0.0
 40
1.0
 40
2.0
 40
3.0
 40
4.0
 40
5.0
 40
6.0
 40
7.0
 40
8.0
 40
9.0
 40
10.0
 40
11.0
 40
12.0
 40
12.0
 40
12.0
 40
12.0
 10
345.5610950430108
 20
-1186.217954692668
 30
669.2913385826773
 10
343.6366263597246
 20
-1194.344046487979
 30
669.2913385826773
 10
339.4507923721084
 20
-1210.51752302636
 30
669.2913385826773
 10
332.1113236270266
 20
-1234.476207515389
 30
669.2913385826773
 10
323.9516487143027
 20
-1258.166934714941
 30
669.2913385826773
 10
314.9182302519165
 20
-1281.540656108261
 30
669.2913385826773
 10
304.7774021315362
 20
-1304.458315678215
 30
669.2913385826773
 10
293.3932479774356
 20
-1326.788589316756
 30
669.2913385826773
 10
280.6764395599511
 20
-1348.383599615904
 30
669.2913385826773
 10
266.6283532800643
 20
-1369.158574872302
 30
669.2913385826773
 10
250.9282531519001
 20
-1388.672928174639
 30
669.2913385826773
 10
235.1289797663429
 20
-1408.18901606706
 30
669.2913385826773
 10
220.3447620157039
 20
-1428.164337728359
 30
669.2913385826773
 10
209.5872845085413
 20
-1441.603647350375
 30
669.2913385826773
 10
208.5939765683633
 20
-1449.970379989894
 30
669.2913385826773
  0
SPLINE
  5
484
330
1F
100
AcDbEntity
  8
Default
100
AcDbSpline
210
0.0
220
0.0
230
1.0
 70
     8
 71
     3
 72
    11
 73
     7
 74
     0
 42
0.000000001
 43
0.0000000001
 40
0.0
 40
0.0
 40
0.0
 40
0.0
 40
1.056257442711362
 40
1.983666277812515
 40
2.825677162948846
 40
3.576711082448426
 40
3.576711082448426
 40
3.576711082448426
 40
3.576711082448426
 10
208.5939765683633
 20
-1449.970379989894
 30
669.2913385826773
 10
210.0924426866458
 20
-1458.788363763307
 30
669.2913385826773
 10
212.7771430474876
 20
-1475.368257754283
 30
669.2913385826773
 10
216.1218943135954
 20
-1499.05902110928
 30
669.2913385826773
 10
218.5250898733156
 20
-1520.265305056722
 30
669.2913385826773
 10
219.6041344819186
 20
-1533.712539453093
 30
669.2913385826773
 10
219.9727058559819
 20
-1540.060042364247
 30
669.2913385826773
  0
SPLINE
  5
485
330
1F
100
AcDbEntity
  8
Default
100
AcDbSpline
210
0.0
220
0.0
230
1.0
 70
     8
 71
     3
 72
    12
 73
     8
 74
     0
 42
0.000000001
 43
0.0000000001
 40
0.0
 40
0.0
 40
0.0
 40
0.0
 40
1.0
 40
2.0
 40
3.0
 40
4.0
 40
5.0
 40
5.0
 40
5.0
 40
5.0
 10
-240.0608578594566
 20
-1367.869922946234
 30
669.2913385826773
 10
-248.8524899772329
 20
-1357.212942757688
 30
669.2913385826773
 10
-265.1776961808483
 20
-1334.86007676281
 30
669.2913385826773
 10
-285.549502041513
 20
-1298.686824401107
 30
669.2913385826773
 10
-302.0268777852235
 20
-1260.614796768828
 30
669.2913385826773
 10
-315.798704067429
 20
-1221.504699491693
 30
669.2913385826773
 10
-323.5278274390713
 20
-1194.963734282145
 30
669.2913385826773
 10
-326.7970915467687
 20
-1181.538633957917
 30
669.2913385826773
  0
SPLINE
  5
486
330
1F
100
AcDbEntity
  8
Default
100
AcDbSpline
210
0.0
220
0.0
230
1.0
 70
     8
 71
     3
 72
    10
 73
     6
 74
     0
 42
0.000000001
 43
0.0000000001
 40
0.0
 40
0.0
 40
0.0
 40
0.0
 40
1.0
 40
2.0
 40
3.0
 40
3.0
 40
3.0
 40
3.0
 10
-326.7970915467687
 20
-1181.538633957917
 30
669.2913385826773
 10
-328.9248911026099
 20
-1172.616061237671
 30
669.2913385826773
 10
-331.2910007194315
 20
-1154.337942441221
 30
669.2913385826773
 10
-329.651916826033
 20
-1126.761748055965
 30
669.2913385826773
 10
-324.2270299665271
 20
-1108.980207909038
 30
669.2913385826773
 10
-319.2781802934352
 20
-1101.199626362451
 30
669.2913385826773
  0
SPLINE
  5
487
330
1F
100
AcDbEntity
  8
Default
100
AcDbSpline
210
0.0
220
0.0
230
1.0
 70
     8
 71
     3
 72
    10
 73
     6
 74
     0
 42
0.000000001
 43
0.0000000001
 40
8.0
 40
8.0
 40
8.0
 40
8.0
 40
9.0
 40
10.0
 40
11.0
 40
11.0
 40
11.0
 40
11.0
 10
-319.2781802934352
 20
-1101.199626362451
 30
669.2913385826773
 10
-312.2697598570359
 20
-1090.695359094127
 30
669.2913385826773
 10
-298.6866115435788
 20
-1069.357418322293
 30
669.2913385826773
 10
-274.839763871738
 20
-1039.842247932994
 30
669.2913385826773
 10
-257.618730023538
 20
-1021.351104130886
 30
669.2913385826773
 10
-249.1261344657233
 20
-1012.000775376128
 30
669.2913385826773
  0
ARC
  5
488
330
1F
100
AcDbEntity
  8
Default
100
AcDbCircle
 10
53.83291015251771
 20
-1287.168494501989
 30
669.2913385826773
 40
409.2694178226944
100
AcDbArc
 50
124.0531741729814
 51
137.7521659811245
  0
SPLINE
  5
489
330
1F
100
AcDbEntity
  8
Default
100
AcDbSpline
210
0.0
220
0.0
230
1.0
 70
     8
 71
     3
 72
    12
 73
     8
 74
     0
 42
0.000000001
 43
0.0000000001
 40
0.0
 40
0.0
 40
0.0
 40
0.0
 40
1.832654236483515
 40
3.669578742657731
 40
7.371880427553494
 40
11.11625269817008
 40
14.89017125660395
 40
14.89017125660395
 40
14.89017125660395
 40
14.89017125660395
 10
-244.474522611241
 20
-1113.334196487461
 30
669.2913385826773
 10
-244.4756197037333
 20
-1097.762180343526
 30
669.2913385826773
 10
-241.2859392452393
 20
-1066.711997518219
 30
669.2913385826773
 10
-222.602299070275
 20
-1006.803157430914
 30
669.2913385826773
 10
-176.9663586356092
 20
-940.8913885097511
 30
669.2913385826773
 10
-95.60635581120559
 20
-888.4307102889881
 30
669.2913385826773
 10
-31.95255201877271
 20
-876.2180077996756
 30
669.2913385826773
 10
-0.0000201499916281
 20
-876.2124140348726
 30
669.2913385826773
  0
SPLINE
  5
48A
330
1F
100
AcDbEntity
  8
Default
100
AcDbSpline
210
0.0
220
0.0
230
1.0
 70
     8
 71
     3
 72
    12
 73
     8
 74
     0
 42
0.000000001
 43
0.0000000001
 40
0.0
 40
0.0
 40
0.0
 40
0.0
 40
1.889355098582429
 40
3.774519559296818
 40
7.516682166840943
 40
11.21816918271821
 40
14.89017237659324
 40
14.89017237659324
 40
14.89017237659324
 40
14.89017237659324
 10
-0.0000201499916281
 20
-876.2124140348726
 30
669.2913385826773
 10
15.99520490650857
 20
-876.2141353418858
 30
669.2913385826773
 10
47.95470964590086
 20
-879.2878763319469
 30
669.2913385826773
 10
109.2974079782451
 20
-897.2634649002404
 30
669.2913385826773
 10
176.9403622907029
 20
-940.8720636759328
 30
669.2913385826773
 10
231.601311290511
 20
-1019.785358472939
 30
669.2913385826773
 10
244.482997366651
 20
-1082.19812273431
 30
669.2913385826773
 10
244.4746646174662
 20
-1113.291946598843
 30
669.2913385826773
  0
SPLINE
  5
48B
330
1F
100
AcDbEntity
  8
Default
100
AcDbSpline
210
0.0
220
0.0
230
1.0
 70
     8
 71
     3
 72
    12
 73
     8
 74
     0
 42
0.000000001
 43
0.0000000001
 40
-15.35241646788361
 40
-15.35241646788361
 40
-15.35241646788361
 40
-15.35241646788361
 40
-11.42846722997082
 40
-7.624448880970328
 40
-3.868777336844832
 40
-1.918304869189328
 40
0.0
 40
0.0
 40
0.0
 40
0.0
 10
244.4746646174662
 20
-1113.291946598843
 30
669.2913385826773
 10
244.475200393519
 20
-1146.499475409398
 30
669.2913385826773
 10
232.6523492062424
 20
-1212.077348675423
 30
669.2913385826773
 10
179.1985637281595
 20
-1295.635604646964
 30
669.2913385826773
 10
111.1289054803582
 20
-1341.729145806247
 30
669.2913385826773
 10
49.00232326246433
 20
-1360.374904574744
 30
669.2913385826773
 10
16.24007876396527
 20
-1363.545085861123
 30
669.2913385826773
 10
0.0000000000053708
 20
-1363.531607154292
 30
669.2913385826773
  0
SPLINE
  5
48C
330
1F
100
AcDbEntity
  8
Default
100
AcDbSpline
210
0.0
220
0.0
230
1.0
 70
     8
 71
     3
 72
    12
 73
     8
 74
     0
 42
0.000000001
 43
0.0000000001
 40
-15.34910747496398
 40
-15.34910747496398
 40
-15.34910747496398
 40
-15.34910747496398
 40
-11.5840058662532
 40
-7.773657509622693
 40
-3.936637318219009
 40
-1.971105179282631
 40
0.0
 40
0.0
 40
0.0
 40
0.0
 10
0.0000000000053708
 20
-1363.531607154292
 30
669.2913385826773
 10
-31.86228087414392
 20
-1363.523893668776
 30
669.2913385826773
 10
-96.09867447660334
 20
-1351.456869235878
 30
669.2913385826773
 10
-178.2893788051461
 20
-1296.795495965846
 30
669.2913385826773
 10
-223.293496069955
 20
-1226.97176943288
 30
669.2913385826773
 10
-241.4317607781069
 20
-1163.414335924478
 30
669.2913385826773
 10
-244.4807164374816
 20
-1130.068852483234
 30
669.2913385826773
 10
-244.474522611241
 20
-1113.334196487461
 30
669.2913385826773
  0
SPLINE
  5
48D
330
1F
100
AcDbEntity
  8
Default
100
AcDbSpline
210
0.0
220
0.0
230
1.0
 70
     8
 71
     3
 72
    12
 73
     8
 74
     0
 42
0.000000001
 43
0.0000000001
 40
0.0
 40
0.0
 40
0.0
 40
0.0
 40
1.0
 40
2.0
 40
3.0
 40
4.0
 40
5.0
 40
5.0
 40
5.0
 40
5.0
 10
240.0610254849325
 20
-1367.869922946234
 30
669.2913385826773
 10
248.8526576027088
 20
-1357.212942757688
 30
669.2913385826773
 10
265.1778638063241
 20
-1334.86007676281
 30
669.2913385826773
 10
285.5496696669888
 20
-1298.686824401107
 30
669.2913385826773
 10
302.0270454106957
 20
-1260.614796768828
 30
669.2913385826773
 10
315.7988716929011
 20
-1221.504699491693
 30
669.2913385826773
 10
323.5279950645471
 20
-1194.963734282145
 30
669.2913385826773
 10
326.7972591722372
 20
-1181.538633957917
 30
669.2913385826773
  0
SPLINE
  5
48E
330
1F
100
AcDbEntity
  8
Default
100
AcDbSpline
210
0.0
220
0.0
230
1.0
 70
     8
 71
     3
 72
    10
 73
     6
 74
     0
 42
0.000000001
 43
0.0000000001
 40
0.0
 40
0.0
 40
0.0
 40
0.0
 40
1.0
 40
2.0
 40
3.0
 40
3.0
 40
3.0
 40
3.0
 10
326.7972591722372
 20
-1181.538633957917
 30
669.2913385826773
 10
328.925058728082
 20
-1172.616061237671
 30
669.2913385826773
 10
331.2911683449
 20
-1154.337942441221
 30
669.2913385826773
 10
329.6520844515088
 20
-1126.761748055965
 30
669.2913385826773
 10
324.2271975919956
 20
-1108.980207909038
 30
669.2913385826773
 10
319.2783479189074
 20
-1101.199626362451
 30
669.2913385826773
  0
SPLINE
  5
48F
330
1F
100
AcDbEntity
  8
Default
100
AcDbSpline
210
0.0
220
0.0
230
1.0
 70
     8
 71
     3
 72
    10
 73
     6
 74
     0
 42
0.000000001
 43
0.0000000001
 40
8.0
 40
8.0
 40
8.0
 40
8.0
 40
9.0
 40
10.0
 40
11.0
 40
11.0
 40
11.0
 40
11.0
 10
319.2783479189074
 20
-1101.199626362451
 30
669.2913385826773
 10
312.2699274825117
 20
-1090.695359094127
 30
669.2913385826773
 10
298.686779169051
 20
-1069.357418322293
 30
669.2913385826773
 10
274.8399314972175
 20
-1039.842247932994
 30
669.2913385826773
 10
257.6188976490065
 20
-1021.351104130886
 30
669.2913385826773
 10
249.1263020911992
 20
-1012.000775376128
 30
669.2913385826773
  0
ARC
  5
490
330
1F
100
AcDbEntity
  8
Default
100
AcDbCircle
 10
-53.83274252704186
 20
-1287.168494501989
 30
669.2913385826773
 40
409.2694178226944
100
AcDbArc
 50
42.24783401887551
 51
55.94682582701871
  0
SPLINE
  5
491
330
1F
100
AcDbEntity
  8
Default
100
AcDbSpline
210
0.0
220
0.0
230
1.0
 70
     8
 71
     3
 72
    23
 73
    19
 74
     0
 42
0.000000001
 43
0.0000000001
 40
-16.0
 40
-16.0
 40
-16.0
 40
-16.0
 40
-14.99999934916018
 40
-13.99999869832036
 40
-12.99999804748054
 40
-11.99999739664072
 40
-10.99999674580089
 40
-9.999996094961071
 40
-8.999995444121251
 40
-7.99999479328143
 40
-6.999994142441609
 40
-5.999993491601789
 40
-4.999992840761966
 40
-3.999992189922146
 40
-2.999991539082325
 40
-1.999990888242504
 40
-0.9999902374026826
 40
0.0
 40
0.0
 40
0.0
 40
0.0
 10
209.1124407521256
 20
-1451.999309846608
 30
669.2913385826773
 10
210.25075792811
 20
-1458.701182325754
 30
669.2913385826773
 10
212.4627799892932
 20
-1472.130295229546
 30
669.2913385826773
 10
215.4510659207061
 20
-1492.272757739561
 30
669.2913385826773
 10
218.0155189282576
 20
-1512.644111408708
 30
669.2913385826773
 10
219.9648609323648
 20
-1532.459415336777
 30
669.2913385826773
 10
221.4032731843053
 20
-1554.644922774359
 30
669.2913385826773
 10
200.7432934984517
 20
-1564.593574157386
 30
669.2913385826773
 10
181.8612673451297
 20
-1570.470352674442
 30
669.2913385826773
 10
161.6830013250054
 20
-1574.555035120663
 30
669.2913385826773
 10
141.7309285999307
 20
-1578.552551438247
 30
669.2913385826773
 10
121.6396149912197
 20
-1582.165215928552
 30
669.2913385826773
 10
101.5074988157884
 20
-1585.435084185426
 30
669.2913385826773
 10
81.30983746799566
 20
-1588.308474174505
 30
669.2913385826773
 10
61.05682924750536
 20
-1590.750433747541
 30
669.2913385826773
 10
40.75368996100761
 20
-1592.742059521502
 30
669.2913385826773
 10
20.39788909435984
 20
-1594.115428792394
 30
669.2913385826773
 10
6.799755973644919
 20
-1594.468109467366
 30
669.2913385826773
 10
0.0000838127397449
 20
-1594.468874992589
 30
669.2913385826773
  0
SPLINE
  5
492
330
1F
100
AcDbEntity
  8
Default
100
AcDbSpline
210
0.0
220
0.0
230
1.0
 70
     8
 71
     3
 72
    23
 73
    19
 74
     0
 42
0.000000001
 43
0.0000000001
 40
0.0
 40
0.0
 40
0.0
 40
0.0
 40
0.9999902374026826
 40
1.999990888242504
 40
2.999991539082325
 40
3.999992189922146
 40
4.999992840761966
 40
5.999993491601789
 40
6.999994142441609
 40
7.99999479328143
 40
8.999995444121251
 40
9.999996094961071
 40
10.99999674580089
 40
11.99999739664072
 40
12.99999804748054
 40
13.99999869832036
 40
14.99999934916018
 40
16.0
 40
16.0
 40
16.0
 40
16.0
 10
0.0000838127397449
 20
-1594.468874992589
 30
669.2913385826773
 10
-6.799588348172705
 20
-1594.468109467366
 30
669.2913385826773
 10
-20.39772146889126
 20
-1594.115428792394
 30
669.2913385826773
 10
-40.75352233553175
 20
-1592.742059521502
 30
669.2913385826773
 10
-61.0566616220295
 20
-1590.750433747541
 30
669.2913385826773
 10
-81.30966984251982
 20
-1588.308474174505
 30
669.2913385826773
 10
-101.5073311903089
 20
-1585.435084185426
 30
669.2913385826773
 10
-121.6394473657511
 20
-1582.165215928552
 30
669.2913385826773
 10
-141.7307609744549
 20
-1578.552551438247
 30
669.2913385826773
 10
-161.6828336995296
 20
-1574.555035120663
 30
669.2913385826773
 10
-181.8610997196611
 20
-1570.470352674442
 30
669.2913385826773
 10
-200.7431258729722
 20
-1564.593574157386
 30
669.2913385826773
 10
-221.4031055588331
 20
-1554.644922774359
 30
669.2913385826773
 10
-219.964693306889
 20
-1532.459415336777
 30
669.2913385826773
 10
-218.0153513027818
 20
-1512.644111408708
 30
669.2913385826773
 10
-215.4508982952303
 20
-1492.272757739561
 30
669.2913385826773
 10
-212.4626123638173
 20
-1472.130295229546
 30
669.2913385826773
 10
-210.2505903026377
 20
-1458.701182325754
 30
669.2913385826773
 10
-209.1122731266497
 20
-1451.999309846608
 30
669.2913385826773
  0
POLYLINE
  5
493
330
1F
100
AcDbEntity
  8
Default
100
AcDb2dPolyline
 66
     1
 10
0.0
 20
0.0
 30
669.2913385826773
  0
VERTEX
  5
494
330
493
100
AcDbEntity
  8
Default
100
AcDbVertex
100
AcDb2dVertex
 10
-231.6298004225083
 20
-961.7307865415616
 30
669.2913385826773
  0
VERTEX
  5
495
330
493
100
AcDbEntity
  8
Default
100
AcDbVertex
100
AcDb2dVertex
 10
-232.8484744072431
 20
-959.6618886470798
 30
669.2913385826773
  0
SEQEND
  5
496
330
493
100
AcDbEntity
  8
Default
  0
SPLINE
  5
497
330
1F
100
AcDbEntity
  8
Default
100
AcDbSpline
210
0.0
220
0.0
230
1.0
 70
    12
 71
     2
 72
     8
 73
     5
 74
     0
 42
0.000000001
 43
0.0000000001
 40
0.0
 40
0.0
 40
0.0
 40
0.0657021758075414
 40
0.0657021758075414
 40
0.5513779496561005
 40
0.5513779496561005
 40
0.5513779496561005
 10
-232.8484744072431
 20
-959.6618886470798
 30
669.2913385826773
 41
1.0
 10
-233.2737967660015
 20
-958.9395825746953
 30
669.2913385826773
 41
0.9938146782922427
 10
-233.5290887614484
 20
-958.1415428686243
 30
669.2913385826773
 41
1.0
 10
-235.7906552595288
 20
-950.6723297367109
 30
669.2913385826773
 41
0.7132736251541142
 10
-228.3622076795746
 20
-948.2802606768611
 30
669.2913385826773
 41
1.0
  0
SPLINE
  5
498
330
1F
100
AcDbEntity
  8
Default
100
AcDbSpline
210
-0.000000000000008
220
0.000000000000023
230
1.0
 70
    12
 71
     2
 72
     6
 73
     3
 74
     0
 42
0.000000001
 43
0.0000000001
 40
0.0
 40
0.0
 40
0.0
 40
0.3517776804954474
 40
0.3517776804954474
 40
0.3517776804954474
 10
-228.3622076795746
 20
-948.2802606768611
 30
669.2913385826773
 41
1.0
 10
-223.5538724107811
 20
-946.6138627192679
 30
669.2913385826773
 41
0.8116604165752045
 10
-220.1063143743978
 20
-950.3570316739471
 30
669.2913385826774
 41
0.9416357303282252
  0
POLYLINE
  5
499
330
1F
100
AcDbEntity
  8
Default
100
AcDb2dPolyline
 66
     1
 10
0.0
 20
0.0
 30
669.2913385826773
  0
VERTEX
  5
49A
330
499
100
AcDbEntity
  8
Default
100
AcDbVertex
100
AcDb2dVertex
 10
231.6299680479841
 20
-961.7307865415616
 30
669.2913385826773
  0
VERTEX
  5
49B
330
499
100
AcDbEntity
  8
Default
100
AcDbVertex
100
AcDb2dVertex
 10
232.8486420327226
 20
-959.6618886470798
 30
669.2913385826773
  0
SEQEND
  5
49C
330
499
100
AcDbEntity
  8
Default
  0
SPLINE
  5
49D
330
1F
100
AcDbEntity
  8
Default
100
AcDbSpline
210
0.0
220
0.0
230
1.0
 70
    12
 71
     2
 72
     8
 73
     5
 74
     0
 42
0.000000001
 43
0.0000000001
 40
0.0
 40
0.0
 40
0.0
 40
0.0657021758075414
 40
0.0657021758075414
 40
0.5513779496561005
 40
0.5513779496561005
 40
0.5513779496561005
 10
232.8486420327226
 20
-959.6618886470798
 30
669.2913385826773
 41
1.0
 10
233.2739643914774
 20
-958.9395825746953
 30
669.2913385826773
 41
0.9938146782922427
 10
233.5292563869242
 20
-958.1415428686243
 30
669.2913385826773
 41
1.0
 10
235.7908228849973
 20
-950.6723297367109
 30
669.2913385826773
 41
0.7132736251541142
 10
228.3623753050432
 20
-948.2802606768611
 30
669.2913385826773
 41
1.0
  0
SPLINE
  5
49E
330
1F
100
AcDbEntity
  8
Default
100
AcDbSpline
210
0.000000000000008
220
0.000000000000023
230
1.0
 70
    12
 71
     2
 72
     6
 73
     3
 74
     0
 42
0.000000001
 43
0.0000000001
 40
0.0
 40
0.0
 40
0.0
 40
0.3517776804954474
 40
0.3517776804954474
 40
0.3517776804954474
 10
228.3623753050432
 20
-948.2802606768611
 30
669.2913385826773
 41
1.0
 10
223.5540400362533
 20
-946.6138627192679
 30
669.2913385826773
 41
0.8116604165752045
 10
220.1064819998809
 20
-950.3570316739471
 30
669.2913385826774
 41
0.9416357303282252
  0
SPLINE
  5
49F
330
1F
100
AcDbEntity
  8
Default
100
AcDbSpline
210
0.0
220
0.0
230
1.0
 70
    24
 71
     2
 72
     6
 73
     3
 74
     0
 42
0.000000001
 43
0.0000000001
 40
4.403114343305641
 40
4.403114343305641
 40
4.403114343305641
 40
4.523710136401241
 40
4.523710136401241
 40
4.523710136401241
 10
-211.4045563893834
 20
-1465.821304362214
 30
669.2913385826773
 10
-212.1703396755384
 20
-1467.147679921426
 30
669.2913385826773
 10
-212.9361229617007
 20
-1468.474055480639
 30
669.2913385826773
  0
SPLINE
  5
4A0
330
1F
100
AcDbEntity
  8
Default
100
AcDbSpline
210
0.0
220
0.0
230
1.0
 70
    12
 71
     2
 72
     8
 73
     5
 74
     0
 42
0.000000001
 43
0.0000000001
 40
0.0
 40
0.0
 40
0.0
 40
0.4730574302815958
 40
0.4730574302815958
 40
0.9455180233888372
 40
0.9455180233888372
 40
0.9455180233888372
 10
-212.9361229617007
 20
-1468.474055480639
 30
669.2913385826773
 41
1.0
 10
-217.1093281528793
 20
-1474.865342409649
 30
669.2913385826773
 41
0.7091869777201399
 10
-223.5250940678835
 20
-1470.729869292763
 30
669.2913385826773
 41
1.0
 10
-230.2357443612474
 20
-1467.078894509061
 30
669.2913385826773
 41
0.7071352214376397
 10
-226.5856136742569
 20
-1460.367774877378
 30
669.2913385826773
 41
1.0
  0
SPLINE
  5
4A1
330
1F
100
AcDbEntity
  8
Default
100
AcDbSpline
210
0.0
220
0.0
230
1.0
 70
    24
 71
     2
 72
     6
 73
     3
 74
     0
 42
0.000000001
 43
0.0000000001
 40
-4.466989253625452
 40
-4.466989253625452
 40
-4.466989253625452
 40
-3.611823149802035
 40
-3.611823149802035
 40
-3.611823149802035
 10
-226.5856136742569
 20
-1460.367774877378
 30
669.2913385826773
 10
-221.1553380390779
 20
-1450.962194318917
 30
669.2913385826773
 10
-215.7250624039062
 20
-1441.556613760459
 30
669.2913385826773
  0
SPLINE
  5
4A2
330
1F
100
AcDbEntity
  8
Default
100
AcDbSpline
210
0.0
220
0.0
230
1.0
 70
    24
 71
     2
 72
     6
 73
     3
 74
     0
 42
0.000000001
 43
0.0000000001
 40
4.403114343305639
 40
4.403114343305639
 40
4.403114343305639
 40
4.523710136401241
 40
4.523710136401241
 40
4.523710136401241
 10
211.4047240148556
 20
-1465.821304362214
 30
669.2913385826773
 10
212.1705073010106
 20
-1467.147679921426
 30
669.2913385826773
 10
212.9362905871694
 20
-1468.474055480639
 30
669.2913385826773
  0
SPLINE
  5
4A3
330
1F
100
AcDbEntity
  8
Default
100
AcDbSpline
210
0.0
220
0.0
230
1.0
 70
    12
 71
     2
 72
     8
 73
     5
 74
     0
 42
0.000000001
 43
0.0000000001
 40
0.0
 40
0.0
 40
0.0
 40
0.4730574302815958
 40
0.4730574302815958
 40
0.9455180233888372
 40
0.9455180233888372
 40
0.9455180233888372
 10
212.9362905871694
 20
-1468.474055480639
 30
669.2913385826773
 41
1.0
 10
217.1094957783516
 20
-1474.865342409649
 30
669.2913385826773
 41
0.7091869777201399
 10
223.525261693363
 20
-1470.729869292763
 30
669.2913385826773
 41
1.0
 10
230.2359119867196
 20
-1467.078894509061
 30
669.2913385826773
 41
0.7071352214376397
 10
226.5857812997328
 20
-1460.367774877378
 30
669.2913385826773
 41
1.0
  0
SPLINE
  5
4A4
330
1F
100
AcDbEntity
  8
Default
100
AcDbSpline
210
0.0
220
0.0
230
1.0
 70
    24
 71
     2
 72
     6
 73
     3
 74
     0
 42
0.000000001
 43
0.0000000001
 40
-4.466989253625452
 40
-4.466989253625452
 40
-4.466989253625452
 40
-3.611823149802035
 40
-3.611823149802035
 40
-3.611823149802035
 10
226.5857812997328
 20
-1460.367774877378
 30
669.2913385826773
 10
221.1555056645538
 20
-1450.962194318917
 30
669.2913385826773
 10
215.7252300293748
 20
-1441.556613760459
 30
669.2913385826773
  0
SPLINE
  5
4A5
330
1F
100
AcDbEntity
  8
Default
100
AcDbSpline
210
0.0
220
0.0
230
1.0
 70
     8
 71
     3
 72
    29
 73
    25
 74
     0
 42
0.000000001
 43
0.0000000001
 40
0.0
 40
0.0
 40
0.0
 40
0.0
 40
1.0
 40
2.0
 40
3.0
 40
4.0
 40
5.0
 40
6.0
 40
7.0
 40
8.0
 40
9.0
 40
10.0
 40
11.0
 40
12.0
 40
13.0
 40
14.0
 40
15.0
 40
16.0
 40
17.0
 40
18.0
 40
19.0
 40
20.0
 40
21.0
 40
22.0
 40
22.0
 40
22.0
 40
22.0
 10
1452.87559123416
 20
-208.8927355413788
 30
669.2913385826773
 10
1444.515048982203
 20
-213.0360474668367
 30
669.2913385826773
 10
1429.597045870118
 20
-224.3059292036367
 30
669.2913385826773
 10
1407.489320356605
 20
-241.3650563819527
 30
669.2913385826773
 10
1385.849185607631
 20
-259.0672193183662
 30
669.2913385826773
 10
1363.586823246247
 20
-275.9766369847774
 30
669.2913385826773
 10
1339.919939552214
 20
-290.8982197403301
 30
669.2913385826773
 10
1315.318290838661
 20
-304.1860320004879
 30
669.2913385826773
 10
1289.902129441105
 20
-315.8450253154432
 30
669.2913385826773
 10
1263.911210708853
 20
-326.1406827168274
 30
669.2913385826773
 10
1237.512269352572
 20
-335.3380741172613
 30
669.2913385826773
 10
1210.751216349692
 20
-343.4164365758832
 30
669.2913385826773
 10
1183.698810431508
 20
-350.4686795341685
 30
669.2913385826773
 10
1156.088715492462
 20
-355.1803808098001
 30
669.2913385826773
 10
1127.881053922227
 20
-354.0092664442444
 30
669.2913385826773
 10
1101.368432203146
 20
-344.2782124393806
 30
669.2913385826773
 10
1078.299808211277
 20
-328.3129797948412
 30
669.2913385826773
 10
1054.894499303175
 20
-313.0708413945785
 30
669.2913385826773
 10
1032.997807373134
 20
-295.6404787916498
 30
669.2913385826773
 10
1012.053559624475
 20
-277.1401021305745
 30
669.2913385826773
 10
991.2582179261502
 20
-258.4647507432009
 30
669.2913385826773
 10
970.6146153693209
 20
-239.6230830839148
 30
669.2913385826773
 10
950.6319353220408
 20
-220.0684236274927
 30
669.2913385826773
 10
938.2632066675235
 20
-206.1110551420414
 30
669.2913385826773
 10
932.4629366909814
 20
-198.8191026934827
 30
669.2913385826773
  0
SPLINE
  5
4A6
330
1F
100
AcDbEntity
  8
Default
100
AcDbSpline
210
0.0
220
0.0
230
1.0
 70
     8
 71
     3
 72
    29
 73
    25
 74
     0
 42
0.000000001
 43
0.0000000001
 40
0.0
 40
0.0
 40
0.0
 40
0.0
 40
1.0
 40
2.0
 40
3.0
 40
4.0
 40
5.0
 40
6.0
 40
7.0
 40
8.0
 40
9.0
 40
10.0
 40
11.0
 40
12.0
 40
13.0
 40
14.0
 40
15.0
 40
16.0
 40
17.0
 40
18.0
 40
19.0
 40
20.0
 40
21.0
 40
22.0
 40
22.0
 40
22.0
 40
22.0
 10
1452.87559123416
 20
209.6800843857501
 30
669.2913385826773
 10
1444.515048982203
 20
213.8233963112008
 30
669.2913385826773
 10
1429.597045870118
 20
225.0932780480118
 30
669.2913385826773
 10
1407.489320356605
 20
242.1524052263205
 30
669.2913385826773
 10
1385.849185607631
 20
259.8545681627375
 30
669.2913385826773
 10
1363.586823246247
 20
276.7639858291451
 30
669.2913385826773
 10
1339.919939552214
 20
291.6855685846978
 30
669.2913385826773
 10
1315.318290838661
 20
304.9733808448519
 30
669.2913385826773
 10
1289.902129441105
 20
316.6323741598181
 30
669.2913385826773
 10
1263.911210708853
 20
326.9280315611951
 30
669.2913385826773
 10
1237.512269352572
 20
336.1254229616362
 30
669.2913385826773
 10
1210.751216349692
 20
344.2037854202473
 30
669.2913385826773
 10
1183.698810431508
 20
351.2560283785398
 30
669.2913385826773
 10
1156.088715492462
 20
355.9677296541714
 30
669.2913385826773
 10
1127.881053922227
 20
354.7966152886194
 30
669.2913385826773
 10
1101.368432203146
 20
345.0655612837519
 30
669.2913385826773
 10
1078.299808211277
 20
329.1003286392089
 30
669.2913385826773
 10
1054.894499303175
 20
313.8581902389461
 30
669.2913385826773
 10
1032.997807373134
 20
296.4278276360247
 30
669.2913385826773
 10
1012.053559624475
 20
277.9274509749458
 30
669.2913385826773
 10
991.2582179261502
 20
259.2520995875685
 30
669.2913385826773
 10
970.6146153693209
 20
240.4104319282898
 30
669.2913385826773
 10
950.6319353220408
 20
220.8557724718641
 30
669.2913385826773
 10
938.2632066675235
 20
206.8984039864128
 30
669.2913385826773
 10
932.4629366909814
 20
199.6064515378467
 30
669.2913385826773
  0
SPLINE
  5
4A7
330
1F
100
AcDbEntity
  8
Default
100
AcDbSpline
210
0.0
220
0.0
230
1.0
 70
    12
 71
     3
 72
    12
 73
     8
 74
     0
 42
0.000000001
 43
0.0000000001
 40
-1.0
 40
-1.0
 40
-1.0
 40
-1.0
 40
-0.75
 40
-0.5
 40
-0.25
 40
-0.125
 40
0.0
 40
0.0
 40
0.0
 40
0.0
 10
1540.453853329609
 20
220.3662964654296
 30
669.2913385826773
 41
1.0
 10
1541.865896197489
 20
220.3718086307646
 30
669.2913385826773
 41
1.0
 10
1545.217463479998
 20
218.2961238754916
 30
669.2913385826773
 41
1.0
 10
1551.132556553292
 20
208.42471596399
 30
669.2913385826773
 41
1.0
 10
1555.936439857431
 20
195.8688707239645
 30
669.2913385826773
 41
1.0
 10
1559.300332549245
 20
184.3080001787831
 30
669.2913385826773
 41
1.0
 10
1560.763129492849
 20
178.246660221129
 30
669.2913385826773
 41
1.0
 10
1561.442966635235
 20
175.2033623388389
 30
669.2913385826773
 41
1.0
  0
SPLINE
  5
4A8
330
1F
100
AcDbEntity
  8
Default
100
AcDbSpline
210
0.0
220
0.0
230
1.0
 70
    12
 71
     2
 72
     6
 73
     3
 74
     0
 42
0.000000001
 43
0.0000000001
 40
-1.73861529974842
 40
-1.73861529974842
 40
-1.73861529974842
 40
0.0
 40
0.0
 40
0.0
 10
1561.442966635235
 20
175.2033623388389
 30
669.2913385826773
 41
1.0
 10
1566.20059253941
 20
153.6389829260235
 30
669.2913385826773
 41
0.9998265244242315
 10
1570.153112345159
 20
131.9126152403998
 30
669.2913385826773
 41
0.9999999999903403
  0
SPLINE
  5
4A9
330
1F
100
AcDbEntity
  8
Default
100
AcDbSpline
210
0.0
220
0.0
230
1.0
 70
     8
 71
     3
 72
    11
 73
     7
 74
     0
 42
0.000000001
 43
0.0000000001
 40
0.0
 40
0.0
 40
0.0
 40
0.0
 40
0.8055658146296341
 40
1.505207287485616
 40
2.898665587188705
 40
5.215701186741097
 40
5.215701186741097
 40
5.215701186741097
 40
5.215701186741097
 10
1570.153112345159
 20
131.9126152403998
 30
669.2913385826773
 10
1571.386252542701
 20
125.2029689158018
 30
669.2913385826773
 10
1573.54946155054
 20
112.6475617514526
 30
669.2913385826773
 10
1577.368156044393
 20
88.39731118874002
 30
669.2913385826773
 10
1582.121477099647
 20
51.36752465341229
 30
669.2913385826773
 10
1584.664783250448
 20
20.01974742521739
 30
669.2913385826773
 10
1584.741428152504
 20
0.3936744221875008
 30
669.2913385826773
  0
SPLINE
  5
4AA
330
1F
100
AcDbEntity
  8
Default
100
AcDbSpline
210
0.0
220
0.0
230
1.0
 70
     8
 71
     3
 72
    11
 73
     7
 74
     0
 42
0.000000001
 43
0.0000000001
 40
-5.215701186741097
 40
-5.215701186741097
 40
-5.215701186741097
 40
-5.215701186741097
 40
-2.898665587188705
 40
-1.505207287485616
 40
-0.8055658146296341
 40
0.0
 40
0.0
 40
0.0
 40
0.0
 10
1584.741428152504
 20
0.3936744221875008
 30
669.2913385826773
 10
1584.664783250448
 20
-19.23239858084602
 30
669.2913385826773
 10
1582.121477099647
 20
-50.58017580904456
 30
669.2913385826773
 10
1577.368156044393
 20
-87.60996234437229
 30
669.2913385826773
 10
1573.54946155054
 20
-111.8602129070849
 30
669.2913385826773
 10
1571.386252542701
 20
-124.4156200714377
 30
669.2913385826773
 10
1570.153112345159
 20
-131.1252663960357
 30
669.2913385826773
  0
SPLINE
  5
4AB
330
1F
100
AcDbEntity
  8
Default
100
AcDbSpline
210
0.0
220
0.0
230
1.0
 70
    12
 71
     2
 72
     6
 73
     3
 74
     0
 42
0.000000001
 43
0.0000000001
 40
0.0
 40
0.0
 40
0.0
 40
1.73861529974842
 40
1.73861529974842
 40
1.73861529974842
 10
1570.153112345159
 20
-131.1252663960357
 30
669.2913385826773
 41
0.9999999999903403
 10
1566.20059253941
 20
-152.8516340816557
 30
669.2913385826773
 41
0.9998265244242315
 10
1561.442966635235
 20
-174.4160134944712
 30
669.2913385826773
 41
1.0
  0
SPLINE
  5
4AC
330
1F
100
AcDbEntity
  8
Default
100
AcDbSpline
210
0.0
220
0.0
230
1.0
 70
    12
 71
     3
 72
    12
 73
     8
 74
     0
 42
0.000000001
 43
0.0000000001
 40
0.0
 40
0.0
 40
0.0
 40
0.0
 40
0.125
 40
0.25
 40
0.5
 40
0.75
 40
1.0
 40
1.0
 40
1.0
 40
1.0
 10
1561.442966635235
 20
-174.4160134944712
 30
669.2913385826773
 41
1.0
 10
1560.763129492849
 20
-177.4593113767613
 30
669.2913385826773
 41
1.0
 10
1559.300332549245
 20
-183.5206513344117
 30
669.2913385826773
 41
1.0
 10
1555.936439857431
 20
-195.0815218795968
 30
669.2913385826773
 41
1.0
 10
1551.132556553292
 20
-207.6373671196187
 30
669.2913385826773
 41
1.0
 10
1545.217463479998
 20
-217.5087750311203
 30
669.2913385826773
 41
1.0
 10
1541.865896197489
 20
-219.5844597863932
 30
669.2913385826773
 41
1.0
 10
1540.453853329609
 20
-219.5789476210619
 30
669.2913385826773
 41
1.0
  0
SPLINE
  5
4AD
330
1F
100
AcDbEntity
  8
Default
100
AcDbSpline
210
0.0
220
0.0
230
1.0
 70
     8
 71
     3
 72
    11
 73
     7
 74
     0
 42
0.000000001
 43
0.0000000001
 40
-3.576711082448426
 40
-3.576711082448426
 40
-3.576711082448426
 40
-3.576711082448426
 40
-2.825677162948846
 40
-1.983666277812515
 40
-1.056257442711362
 40
0.0
 40
0.0
 40
0.0
 40
0.0
 10
1540.453853329609
 20
-219.5789476210619
 30
669.2913385826773
 10
1534.106350418455
 20
-219.2103762470023
 30
669.2913385826773
 10
1520.659116022083
 20
-218.1313316383993
 30
669.2913385826773
 10
1499.452832074641
 20
-215.7281360786718
 30
669.2913385826773
 10
1475.762068719645
 20
-212.383384812564
 30
669.2913385826773
 10
1459.182174728669
 20
-209.6986844517222
 30
669.2913385826773
 10
1450.364190955255
 20
-208.2002183334469
 30
669.2913385826773
  0
SPLINE
  5
4AE
330
1F
100
AcDbEntity
  8
Default
100
AcDbSpline
210
0.0
220
0.0
230
1.0
 70
     8
 71
     3
 72
    19
 73
    15
 74
     0
 42
0.000000001
 43
0.0000000001
 40
-12.0
 40
-12.0
 40
-12.0
 40
-12.0
 40
-11.0
 40
-10.0
 40
-9.0
 40
-8.0
 40
-7.0
 40
-6.0
 40
-5.0
 40
-4.0
 40
-3.0
 40
-2.0
 40
-1.0
 40
0.0
 40
0.0
 40
0.0
 40
0.0
 10
1450.364190955255
 20
-208.2002183334469
 30
669.2913385826773
 10
1441.997458315736
 20
-209.1935262736213
 30
669.2913385826773
 10
1428.558148693721
 20
-219.9510037807803
 30
669.2913385826773
 10
1408.582827032422
 20
-234.7352215314193
 30
669.2913385826773
 10
1389.06673914
 20
-250.5344949169801
 30
669.2913385826773
 10
1369.552385837664
 20
-266.234595045148
 30
669.2913385826773
 10
1348.777410581266
 20
-280.2826813250275
 30
669.2913385826773
 10
1327.182400282118
 20
-292.9994897425121
 30
669.2913385826773
 10
1304.852126643577
 20
-304.3836438966126
 30
669.2913385826773
 10
1281.934467073623
 20
-314.5244720169929
 30
669.2913385826773
 10
1258.560745680303
 20
-323.5578904793864
 30
669.2913385826773
 10
1234.870018480751
 20
-331.7175653921066
 30
669.2913385826773
 10
1210.911333991722
 20
-339.0570341371848
 30
669.2913385826773
 10
1194.737857453342
 20
-343.242868124801
 30
669.2913385826773
 10
1186.61176565803
 20
-345.1673368080909
 30
669.2913385826773
  0
SPLINE
  5
4AF
330
1F
100
AcDbEntity
  8
Default
100
AcDbSpline
210
0.0
220
0.0
230
1.0
 70
    12
 71
     3
 72
    11
 73
     7
 74
     0
 42
0.000000001
 43
0.0000000001
 40
0.0
 40
0.0
 40
0.0
 40
0.0
 40
0.2499998804336
 40
0.4999997608673
 40
0.7499996413009001
 40
1.0
 40
1.0
 40
1.0
 40
1.0
 10
1186.61176565803
 20
-345.1673368080909
 30
669.2913385826773
 41
1.0
 10
1177.610760393402
 20
-347.2409983572715
 30
669.2913385826773
 41
1.0
 10
1159.509084682204
 20
-350.758010603723
 30
669.2913385826773
 41
1.0
 10
1133.262432681464
 20
-351.2175973159054
 30
669.2913385826773
 41
1.0
 10
1110.008108307798
 20
-345.7630857343346
 30
669.2913385826773
 41
1.0
 10
1097.819467227886
 20
-339.2391920447143
 30
669.2913385826773
 41
1.0
 10
1092.501700644987
 20
-335.8824321517667
 30
669.2913385826773
 41
1.0
  0
SPLINE
  5
4B0
330
1F
100
AcDbEntity
  8
Default
100
AcDbSpline
210
0.0
220
0.0
230
1.0
 70
     8
 71
     3
 72
    19
 73
    15
 74
     0
 42
0.000000001
 43
0.0000000001
 40
-12.0
 40
-12.0
 40
-12.0
 40
-12.0
 40
-11.0
 40
-10.0
 40
-9.0
 40
-8.0
 40
-7.0
 40
-6.0
 40
-5.0
 40
-4.0
 40
-3.0
 40
-2.0
 40
-1.0
 40
0.0
 40
0.0
 40
0.0
 40
0.0
 10
1092.501700644987
 20
-335.8824321517667
 30
669.2913385826773
 10
1087.206795080832
 20
-332.4808037386855
 30
669.2913385826773
 10
1076.580655860586
 20
-325.7374058527702
 30
669.2913385826773
 10
1060.752207536554
 20
-315.4401879701862
 30
669.2913385826773
 10
1045.545855146503
 20
-304.239585281145
 30
669.2913385826773
 10
1030.79442325418
 20
-292.4510997289207
 30
669.2913385826773
 10
1016.577566448135
 20
-280.0255742279977
 30
669.2913385826773
 10
1002.42190716716
 20
-267.5350981441142
 30
669.2913385826773
 10
988.3292408816325
 20
-254.9720886594249
 30
669.2913385826773
 10
974.3159035314223
 20
-242.3203781093496
 30
669.2913385826773
 10
960.5977079440474
 20
-229.3470694809247
 30
669.2913385826773
 10
947.3371331863003
 20
-215.903080009043
 30
669.2913385826773
 10
934.7951024481501
 20
-201.7796713028209
 30
669.2913385826773
 10
927.1308286186851
 20
-191.7842812919287
 30
669.2913385826773
 10
923.4419028959512
 20
-186.6475591067745
 30
669.2913385826773
  0
SPLINE
  5
4B1
330
1F
100
AcDbEntity
  8
Default
100
AcDbSpline
210
0.0
220
0.0
230
1.0
 70
     8
 71
     3
 72
    12
 73
     8
 74
     0
 42
0.000000001
 43
0.0000000001
 40
-15.78913311264457
 40
-15.78913311264457
 40
-15.78913311264457
 40
-15.78913311264457
 40
-11.7692665204822
 40
-7.888736159237259
 40
-4.023995779131863
 40
-2.036640528636299
 40
0.0
 40
0.0
 40
0.0
 40
0.0
 10
923.4419028959512
 20
-186.6475591067745
 30
669.2913385826773
 10
903.5623449820906
 20
-159.0243260742234
 30
669.2913385826773
 10
871.8911085367819
 20
-99.18071128822234
 30
669.2913385826773
 10
855.2740952180776
 20
0.4079814604275774
 30
669.2913385826773
 10
869.0314580057222
 20
82.78869787869295
 30
669.2913385826773
 10
895.407762124489
 20
144.3474627605184
 30
669.2913385826773
 10
913.2980944099383
 20
173.4513042426453
 30
669.2913385826773
 10
923.4418802623352
 20
187.4347895170114
 30
669.2913385826773
  0
SPLINE
  5
4B2
330
1F
100
AcDbEntity
  8
Default
100
AcDbSpline
210
0.0
220
0.0
230
1.0
 70
     8
 71
     3
 72
    19
 73
    15
 74
     0
 42
0.000000001
 43
0.0000000001
 40
0.0
 40
0.0
 40
0.0
 40
0.0
 40
1.0
 40
2.0
 40
3.0
 40
4.0
 40
5.0
 40
6.0
 40
7.0
 40
8.0
 40
9.0
 40
10.0
 40
11.0
 40
12.0
 40
12.0
 40
12.0
 40
12.0
 10
923.4418802623352
 20
187.4347895170114
 30
669.2913385826773
 10
927.1308286186851
 20
192.5716301362928
 30
669.2913385826773
 10
934.7951024481501
 20
202.5670201471886
 30
669.2913385826773
 10
947.3371331863003
 20
216.6904288534107
 30
669.2913385826773
 10
960.5977079440474
 20
230.1344183252887
 30
669.2913385826773
 10
974.3159035314223
 20
243.1077269537138
 30
669.2913385826773
 10
988.3292408816325
 20
255.7594375037962
 30
669.2913385826773
 10
1002.42190716716
 20
268.3224469884818
 30
669.2913385826773
 10
1016.577566448135
 20
280.8129230723618
 30
669.2913385826773
 10
1030.79442325418
 20
293.2384485732884
 30
669.2913385826773
 10
1045.545855146503
 20
305.0269341255199
 30
669.2913385826773
 10
1060.752207536554
 20
316.2275368145575
 30
669.2913385826773
 10
1076.580655860586
 20
326.5247546971415
 30
669.2913385826773
 10
1087.206795080832
 20
333.2681525830495
 30
669.2913385826773
 10
1092.501700644987
 20
336.6697809961307
 30
669.2913385826773
  0
SPLINE
  5
4B3
330
1F
100
AcDbEntity
  8
Default
100
AcDbSpline
210
0.0
220
0.0
230
1.0
 70
    12
 71
     3
 72
    11
 73
     7
 74
     0
 42
0.000000001
 43
0.0000000001
 40
-1.0
 40
-1.0
 40
-1.0
 40
-1.0
 40
-0.7499996413009001
 40
-0.4999997608673
 40
-0.2499998804336
 40
0.0
 40
0.0
 40
0.0
 40
0.0
 10
1092.501700644987
 20
336.6697809961307
 30
669.2913385826773
 41
1.0
 10
1097.819467227886
 20
340.0265408890856
 30
669.2913385826773
 41
1.0
 10
1110.008108307798
 20
346.5504345786986
 30
669.2913385826773
 41
1.0
 10
1133.262432681464
 20
352.0049461602731
 30
669.2913385826773
 41
1.0
 10
1159.509084682204
 20
351.5453594480906
 30
669.2913385826773
 41
1.0
 10
1177.610760393402
 20
348.0283472016428
 30
669.2913385826773
 41
1.0
 10
1186.61176565803
 20
345.9546856524586
 30
669.2913385826773
 41
1.0
  0
SPLINE
  5
4B4
330
1F
100
AcDbEntity
  8
Default
100
AcDbSpline
210
0.0
220
0.0
230
1.0
 70
     8
 71
     3
 72
    19
 73
    15
 74
     0
 42
0.000000001
 43
0.0000000001
 40
0.0
 40
0.0
 40
0.0
 40
0.0
 40
1.0
 40
2.0
 40
3.0
 40
4.0
 40
5.0
 40
6.0
 40
7.0
 40
8.0
 40
9.0
 40
10.0
 40
11.0
 40
12.0
 40
12.0
 40
12.0
 40
12.0
 10
1186.61176565803
 20
345.9546856524586
 30
669.2913385826773
 10
1194.737857453342
 20
344.0302169691723
 30
669.2913385826773
 10
1210.911333991722
 20
339.8443829815561
 30
669.2913385826773
 10
1234.870018480751
 20
332.5049142364743
 30
669.2913385826773
 10
1258.560745680303
 20
324.3452393237504
 30
669.2913385826773
 10
1281.934467073623
 20
315.3118208613642
 30
669.2913385826773
 10
1304.852126643577
 20
305.1709927409839
 30
669.2913385826773
 10
1327.182400282118
 20
293.7868385868834
 30
669.2913385826773
 10
1348.777410581266
 20
281.0700301693988
 30
669.2913385826773
 10
1369.552385837664
 20
267.0219438895121
 30
669.2913385826773
 10
1389.06673914
 20
251.3218437613479
 30
669.2913385826773
 10
1408.582827032422
 20
235.5225703757907
 30
669.2913385826773
 10
1428.558148693721
 20
220.7383526251516
 30
669.2913385826773
 10
1441.997458315736
 20
209.9808751179891
 30
669.2913385826773
 10
1450.364190955255
 20
208.987567177811
 30
669.2913385826773
  0
SPLINE
  5
4B5
330
1F
100
AcDbEntity
  8
Default
100
AcDbSpline
210
0.0
220
0.0
230
1.0
 70
     8
 71
     3
 72
    11
 73
     7
 74
     0
 42
0.000000001
 43
0.0000000001
 40
0.0
 40
0.0
 40
0.0
 40
0.0
 40
1.056257442711362
 40
1.983666277812515
 40
2.825677162948846
 40
3.576711082448426
 40
3.576711082448426
 40
3.576711082448426
 40
3.576711082448426
 10
1450.364190955255
 20
208.987567177811
 30
669.2913385826773
 10
1459.182174728669
 20
210.4860332960936
 30
669.2913385826773
 10
1475.762068719645
 20
213.1707336569354
 30
669.2913385826773
 10
1499.452832074641
 20
216.5154849230431
 30
669.2913385826773
 10
1520.659116022083
 20
218.9186804827633
 30
669.2913385826773
 10
1534.106350418455
 20
219.9977250913663
 30
669.2913385826773
 10
1540.453853329609
 20
220.3662964654296
 30
669.2913385826773
  0
SPLINE
  5
4B6
330
1F
100
AcDbEntity
  8
Default
100
AcDbSpline
210
0.0
220
0.0
230
1.0
 70
     8
 71
     3
 72
    12
 73
     8
 74
     0
 42
0.000000001
 43
0.0000000001
 40
0.0
 40
0.0
 40
0.0
 40
0.0
 40
1.0
 40
2.0
 40
3.0
 40
4.0
 40
5.0
 40
5.0
 40
5.0
 40
5.0
 10
1368.263733911595
 20
-239.6672672500089
 30
669.2913385826773
 10
1357.60675372305
 20
-248.4588993677852
 30
669.2913385826773
 10
1335.253887728171
 20
-264.7841055714006
 30
669.2913385826773
 10
1299.080635366468
 20
-285.1559114320652
 30
669.2913385826773
 10
1261.008607734189
 20
-301.6332871757758
 30
669.2913385826773
 10
1221.898510457055
 20
-315.4051134579812
 30
669.2913385826773
 10
1195.357545247507
 20
-323.1342368296235
 30
669.2913385826773
 10
1181.932444923279
 20
-326.403500937321
 30
669.2913385826773
  0
SPLINE
  5
4B7
330
1F
100
AcDbEntity
  8
Default
100
AcDbSpline
210
0.0
220
0.0
230
1.0
 70
     8
 71
     3
 72
    10
 73
     6
 74
     0
 42
0.000000001
 43
0.0000000001
 40
0.0
 40
0.0
 40
0.0
 40
0.0
 40
1.0
 40
2.0
 40
3.0
 40
3.0
 40
3.0
 40
3.0
 10
1181.932444923279
 20
-326.403500937321
 30
669.2913385826773
 10
1173.009872203032
 20
-328.5313004931621
 30
669.2913385826773
 10
1154.731753406582
 20
-330.8974101099837
 30
669.2913385826773
 10
1127.155559021327
 20
-329.2583262165853
 30
669.2913385826773
 10
1109.3740188744
 20
-323.8334393570793
 30
669.2913385826773
 10
1101.593437327812
 20
-318.8845896839874
 30
669.2913385826773
  0
SPLINE
  5
4B8
330
1F
100
AcDbEntity
  8
Default
100
AcDbSpline
210
0.0
220
0.0
230
1.0
 70
     8
 71
     3
 72
    10
 73
     6
 74
     0
 42
0.000000001
 43
0.0000000001
 40
8.0
 40
8.0
 40
8.0
 40
8.0
 40
9.0
 40
10.0
 40
11.0
 40
11.0
 40
11.0
 40
11.0
 10
1101.593437327812
 20
-318.8845896839874
 30
669.2913385826773
 10
1091.089170059489
 20
-311.8761692475881
 30
669.2913385826773
 10
1069.751229287654
 20
-298.2930209341311
 30
669.2913385826773
 10
1040.236058898356
 20
-274.4461732622903
 30
669.2913385826773
 10
1021.744915096248
 20
-257.2251394140902
 30
669.2913385826773
 10
1012.39458634149
 20
-248.7325438562756
 30
669.2913385826773
  0
ARC
  5
4B9
330
1F
100
AcDbEntity
  8
Default
100
AcDbCircle
 10
1287.562305467351
 20
54.22650076196546
 30
669.2913385826773
 40
409.2694178226944
100
AcDbArc
 50
214.0531741729814
 51
227.7521659811246
  0
SPLINE
  5
4BA
330
1F
100
AcDbEntity
  8
Default
100
AcDbSpline
210
0.0
220
0.0
230
1.0
 70
     8
 71
     3
 72
    12
 73
     8
 74
     0
 42
0.000000001
 43
0.0000000001
 40
0.0
 40
0.0
 40
0.0
 40
0.0
 40
1.832654236483515
 40
3.669578742657731
 40
7.371880427553494
 40
11.11625269817008
 40
14.89017125660395
 40
14.89017125660395
 40
14.89017125660395
 40
14.89017125660395
 10
1113.728007452823
 20
-244.0809320017932
 30
669.2913385826773
 10
1098.155991308888
 20
-244.0820290942855
 30
669.2913385826773
 10
1067.10580848358
 20
-240.8923486357915
 30
669.2913385826773
 10
1007.196968396276
 20
-222.2087084608273
 30
669.2913385826773
 10
941.2851994751129
 20
-176.5727680261614
 30
669.2913385826773
 10
888.82452125435
 20
-95.21276520175783
 30
669.2913385826773
 10
876.6118187650375
 20
-31.55896140932495
 30
669.2913385826773
 10
876.6062250002343
 20
0.3935704594561278
 30
669.2913385826773
  0
SPLINE
  5
4BB
330
1F
100
AcDbEntity
  8
Default
100
AcDbSpline
210
0.0
220
0.0
230
1.0
 70
     8
 71
     3
 72
    12
 73
     8
 74
     0
 42
0.000000001
 43
0.0000000001
 40
0.0
 40
0.0
 40
0.0
 40
0.0
 40
1.889355098582429
 40
3.774519559296818
 40
7.516682166840943
 40
11.21816918271821
 40
14.89017237659324
 40
14.89017237659324
 40
14.89017237659324
 40
14.89017237659324
 10
876.6062250002343
 20
0.3935704594561278
 30
669.2913385826773
 10
876.6079463072475
 20
16.38879551595633
 30
669.2913385826773
 10
879.6816872973089
 20
48.34830025534862
 30
669.2913385826773
 10
897.6572758656022
 20
109.6909985876929
 30
669.2913385826773
 10
941.2658746412946
 20
177.3339529001506
 30
669.2913385826773
 10
1020.179169438301
 20
231.9949018999588
 30
669.2913385826773
 10
1082.591933699672
 20
244.8765879760987
 30
669.2913385826773
 10
1113.685757564204
 20
244.868255226914
 30
669.2913385826773
  0
SPLINE
  5
4BC
330
1F
100
AcDbEntity
  8
Default
100
AcDbSpline
210
0.0
220
0.0
230
1.0
 70
     8
 71
     3
 72
    12
 73
     8
 74
     0
 42
0.000000001
 43
0.0000000001
 40
-15.35241646788361
 40
-15.35241646788361
 40
-15.35241646788361
 40
-15.35241646788361
 40
-11.42846722997082
 40
-7.624448880970328
 40
-3.868777336844832
 40
-1.918304869189328
 40
0.0
 40
0.0
 40
0.0
 40
0.0
 10
1113.685757564204
 20
244.868255226914
 30
669.2913385826773
 10
1146.89328637476
 20
244.8687910029668
 30
669.2913385826773
 10
1212.471159640785
 20
233.0459398156901
 30
669.2913385826773
 10
1296.029415612325
 20
179.5921543376072
 30
669.2913385826773
 10
1342.122956771609
 20
111.522496089806
 30
669.2913385826773
 10
1360.768715540105
 20
49.39591387191208
 30
669.2913385826773
 10
1363.938896826485
 20
16.63366937341303
 30
669.2913385826773
 10
1363.925418119654
 20
0.3935906094531267
 30
669.2913385826773
  0
SPLINE
  5
4BD
330
1F
100
AcDbEntity
  8
Default
100
AcDbSpline
210
0.0
220
0.0
230
1.0
 70
     8
 71
     3
 72
    12
 73
     8
 74
     0
 42
0.000000001
 43
0.0000000001
 40
-15.34910747496398
 40
-15.34910747496398
 40
-15.34910747496398
 40
-15.34910747496398
 40
-11.5840058662532
 40
-7.773657509622693
 40
-3.936637318219009
 40
-1.971105179282631
 40
0.0
 40
0.0
 40
0.0
 40
0.0
 10
1363.925418119654
 20
0.3935906094531267
 30
669.2913385826773
 10
1363.917704634137
 20
-31.46869026469616
 30
669.2913385826773
 10
1351.85068020124
 20
-95.70508386715559
 30
669.2913385826773
 10
1297.189306931208
 20
-177.8957881956984
 30
669.2913385826773
 10
1227.365580398242
 20
-222.8999054605072
 30
669.2913385826773
 10
1163.80814688984
 20
-241.0381701686591
 30
669.2913385826773
 10
1130.462663448596
 20
-244.0871258280338
 30
669.2913385826773
 10
1113.728007452823
 20
-244.0809320017932
 30
669.2913385826773
  0
SPLINE
  5
4BE
330
1F
100
AcDbEntity
  8
Default
100
AcDbSpline
210
0.0
220
0.0
230
1.0
 70
     8
 71
     3
 72
    12
 73
     8
 74
     0
 42
0.000000001
 43
0.0000000001
 40
0.0
 40
0.0
 40
0.0
 40
0.0
 40
1.0
 40
2.0
 40
3.0
 40
4.0
 40
5.0
 40
5.0
 40
5.0
 40
5.0
 10
1368.263733911595
 20
240.4546160943802
 30
669.2913385826773
 10
1357.60675372305
 20
249.2462482121565
 30
669.2913385826773
 10
1335.253887728171
 20
265.5714544157719
 30
669.2913385826773
 10
1299.080635366468
 20
285.9432602764365
 30
669.2913385826773
 10
1261.008607734189
 20
302.4206360201434
 30
669.2913385826773
 10
1221.898510457055
 20
316.1924623023489
 30
669.2913385826773
 10
1195.357545247507
 20
323.9215856739948
 30
669.2913385826773
 10
1181.932444923279
 20
327.190849781685
 30
669.2913385826773
  0
SPLINE
  5
4BF
330
1F
100
AcDbEntity
  8
Default
100
AcDbSpline
210
0.0
220
0.0
230
1.0
 70
     8
 71
     3
 72
    10
 73
     6
 74
     0
 42
0.000000001
 43
0.0000000001
 40
0.0
 40
0.0
 40
0.0
 40
0.0
 40
1.0
 40
2.0
 40
3.0
 40
3.0
 40
3.0
 40
3.0
 10
1181.932444923279
 20
327.190849781685
 30
669.2913385826773
 10
1173.009872203032
 20
329.3186493375298
 30
669.2913385826773
 10
1154.731753406582
 20
331.6847589543478
 30
669.2913385826773
 10
1127.155559021327
 20
330.0456750609566
 30
669.2913385826773
 10
1109.3740188744
 20
324.6207882014433
 30
669.2913385826773
 10
1101.593437327812
 20
319.6719385283551
 30
669.2913385826773
  0
SPLINE
  5
4C0
330
1F
100
AcDbEntity
  8
Default
100
AcDbSpline
210
0.0
220
0.0
230
1.0
 70
     8
 71
     3
 72
    10
 73
     6
 74
     0
 42
0.000000001
 43
0.0000000001
 40
8.0
 40
8.0
 40
8.0
 40
8.0
 40
9.0
 40
10.0
 40
11.0
 40
11.0
 40
11.0
 40
11.0
 10
1101.593437327812
 20
319.6719385283551
 30
669.2913385826773
 10
1091.089170059489
 20
312.6635180919594
 30
669.2913385826773
 10
1069.751229287654
 20
299.0803697784987
 30
669.2913385826773
 10
1040.236058898356
 20
275.2335221066652
 30
669.2913385826773
 10
1021.744915096248
 20
258.0124882584542
 30
669.2913385826773
 10
1012.39458634149
 20
249.5198927006469
 30
669.2913385826773
  0
ARC
  5
4C1
330
1F
100
AcDbEntity
  8
Default
100
AcDbCircle
 10
1287.562305467351
 20
-53.4391519175941
 30
669.2913385826773
 40
409.2694178226944
100
AcDbArc
 50
132.2478340188755
 51
145.9468258270187
  0
SPLINE
  5
4C2
330
1F
100
AcDbEntity
  8
Default
100
AcDbSpline
210
0.0
220
0.0
230
1.0
 70
     8
 71
     3
 72
    23
 73
    19
 74
     0
 42
0.000000001
 43
0.0000000001
 40
-16.0
 40
-16.0
 40
-16.0
 40
-16.0
 40
-14.99999934916018
 40
-13.99999869832036
 40
-12.99999804748054
 40
-11.99999739664072
 40
-10.99999674580089
 40
-9.999996094961071
 40
-8.999995444121251
 40
-7.99999479328143
 40
-6.999994142441609
 40
-5.999993491601789
 40
-4.999992840761966
 40
-3.999992189922146
 40
-2.999991539082325
 40
-1.999990888242504
 40
-0.9999902374026826
 40
0.0
 40
0.0
 40
0.0
 40
0.0
 10
1452.39312081197
 20
209.5060313615733
 30
669.2913385826773
 10
1459.094993291115
 20
210.6443485375577
 30
669.2913385826773
 10
1472.524106194907
 20
212.856370598741
 30
669.2913385826773
 10
1492.666568704923
 20
215.8446565301539
 30
669.2913385826773
 10
1513.037922374069
 20
218.4091095377054
 30
669.2913385826773
 10
1532.853226302139
 20
220.3584515418126
 30
669.2913385826773
 10
1555.038733739721
 20
221.796863793753
 30
669.2913385826773
 10
1564.987385122748
 20
201.1368841078994
 30
669.2913385826773
 10
1570.864163639804
 20
182.2548579545775
 30
669.2913385826773
 10
1574.948846086025
 20
162.0765919344532
 30
669.2913385826773
 10
1578.946362403609
 20
142.1245192093785
 30
669.2913385826773
 10
1582.559026893914
 20
122.0332056006674
 30
669.2913385826773
 10
1585.828895150787
 20
101.9010894252361
 30
669.2913385826773
 10
1588.702285139867
 20
81.70342807744342
 30
669.2913385826773
 10
1591.144244712903
 20
61.45041985695312
 30
669.2913385826773
 10
1593.135870486864
 20
41.14728057045536
 30
669.2913385826773
 10
1594.509239757756
 20
20.7914797038076
 30
669.2913385826773
 10
1594.861920432728
 20
7.193346583092675
 30
669.2913385826773
 10
1594.862685957951
 20
0.3936744221875008
 30
669.2913385826773
  0
SPLINE
  5
4C3
330
1F
100
AcDbEntity
  8
Default
100
AcDbSpline
210
0.0
220
0.0
230
1.0
 70
     8
 71
     3
 72
    23
 73
    19
 74
     0
 42
0.000000001
 43
0.0000000001
 40
0.0
 40
0.0
 40
0.0
 40
0.0
 40
0.9999902374026826
 40
1.999990888242504
 40
2.999991539082325
 40
3.999992189922146
 40
4.999992840761966
 40
5.999993491601789
 40
6.999994142441609
 40
7.99999479328143
 40
8.999995444121251
 40
9.999996094961071
 40
10.99999674580089
 40
11.99999739664072
 40
12.99999804748054
 40
13.99999869832036
 40
14.99999934916018
 40
16.0
 40
16.0
 40
16.0
 40
16.0
 10
1594.862685957951
 20
0.3936744221875008
 30
669.2913385826773
 10
1594.861920432728
 20
-6.405997738724949
 30
669.2913385826773
 10
1594.509239757756
 20
-20.00413085944351
 30
669.2913385826773
 10
1593.135870486864
 20
-40.35993172608399
 30
669.2913385826773
 10
1591.144244712903
 20
-60.66307101258175
 30
669.2913385826773
 10
1588.702285139867
 20
-80.91607923307206
 30
669.2913385826773
 10
1585.828895150787
 20
-101.1137405808611
 30
669.2913385826773
 10
1582.559026893914
 20
-121.2458567563033
 30
669.2913385826773
 10
1578.946362403609
 20
-141.3371703650071
 30
669.2913385826773
 10
1574.948846086025
 20
-161.2892430900818
 30
669.2913385826773
 10
1570.864163639804
 20
-181.4675091102134
 30
669.2913385826773
 10
1564.987385122748
 20
-200.3495352635244
 30
669.2913385826773
 10
1555.038733739721
 20
-221.0095149493853
 30
669.2913385826773
 10
1532.853226302139
 20
-219.5711026974412
 30
669.2913385826773
 10
1513.037922374069
 20
-217.621760693334
 30
669.2913385826773
 10
1492.666568704923
 20
-215.0573076857825
 30
669.2913385826773
 10
1472.524106194907
 20
-212.0690217543696
 30
669.2913385826773
 10
1459.094993291115
 20
-209.85699969319
 30
669.2913385826773
 10
1452.39312081197
 20
-208.7186825172019
 30
669.2913385826773
  0
POLYLINE
  5
4C4
330
1F
100
AcDbEntity
  8
Default
100
AcDb2dPolyline
 66
     1
 10
0.0
 20
0.0
 30
669.2913385826773
  0
VERTEX
  5
4C5
330
4C4
100
AcDbEntity
  8
Default
100
AcDbVertex
100
AcDb2dVertex
 10
962.1245975069234
 20
-231.2362098130605
 30
669.2913385826773
  0
VERTEX
  5
4C6
330
4C4
100
AcDbEntity
  8
Default
100
AcDbVertex
100
AcDb2dVertex
 10
960.0556996124417
 20
-232.4548837977953
 30
669.2913385826773
  0
SEQEND
  5
4C7
330
4C4
100
AcDbEntity
  8
Default
  0
SPLINE
  5
4C8
330
1F
100
AcDbEntity
  8
Default
100
AcDbSpline
210
0.0
220
0.0
230
1.0
 70
    12
 71
     2
 72
     8
 73
     5
 74
     0
 42
0.000000001
 43
0.0000000001
 40
0.0
 40
0.0
 40
0.0
 40
0.0657021758075414
 40
0.0657021758075414
 40
0.5513779496561005
 40
0.5513779496561005
 40
0.5513779496561005
 10
960.0556996124417
 20
-232.4548837977953
 30
669.2913385826773
 41
1.0
 10
959.333393540057
 20
-232.8802061565537
 30
669.2913385826773
 41
0.9938146782922427
 10
958.5353538339861
 20
-233.1354981520006
 30
669.2913385826773
 41
1.0
 10
951.0661407020727
 20
-235.397064650081
 30
669.2913385826773
 41
0.7132736251541142
 10
948.6740716422231
 20
-227.9686170701269
 30
669.2913385826773
 41
1.0
  0
SPLINE
  5
4C9
330
1F
100
AcDbEntity
  8
Default
100
AcDbSpline
210
-0.000000000000023
220
-0.000000000000008
230
1.0
 70
    12
 71
     2
 72
     6
 73
     3
 74
     0
 42
0.000000001
 43
0.0000000001
 40
0.0
 40
0.0
 40
0.0
 40
0.3517776804954474
 40
0.3517776804954474
 40
0.3517776804954474
 10
948.6740716422231
 20
-227.9686170701269
 30
669.2913385826773
 41
1.0
 10
947.0076736846296
 20
-223.1602818013333
 30
669.2913385826773
 41
0.8116604165752045
 10
950.7508426393089
 20
-219.71272376495
 30
669.2913385826774
 41
0.9416357303282252
  0
POLYLINE
  5
4CA
330
1F
100
AcDbEntity
  8
Default
100
AcDb2dPolyline
 66
     1
 10
0.0
 20
0.0
 30
669.2913385826773
  0
VERTEX
  5
4CB
330
4CA
100
AcDbEntity
  8
Default
100
AcDbVertex
100
AcDb2dVertex
 10
962.1245975069234
 20
232.0235586574319
 30
669.2913385826773
  0
VERTEX
  5
4CC
330
4CA
100
AcDbEntity
  8
Default
100
AcDbVertex
100
AcDb2dVertex
 10
960.0556996124417
 20
233.2422326421703
 30
669.2913385826773
  0
SEQEND
  5
4CD
330
4CA
100
AcDbEntity
  8
Default
  0
SPLINE
  5
4CE
330
1F
100
AcDbEntity
  8
Default
100
AcDbSpline
210
0.0
220
0.0
230
1.0
 70
    12
 71
     2
 72
     8
 73
     5
 74
     0
 42
0.000000001
 43
0.0000000001
 40
0.0
 40
0.0
 40
0.0
 40
0.0657021758075414
 40
0.0657021758075414
 40
0.5513779496561005
 40
0.5513779496561005
 40
0.5513779496561005
 10
960.0556996124417
 20
233.2422326421703
 30
669.2913385826773
 41
1.0
 10
959.333393540057
 20
233.6675550009251
 30
669.2913385826773
 41
0.9938146782922427
 10
958.5353538339861
 20
233.922846996372
 30
669.2913385826773
 41
1.0
 10
951.0661407020727
 20
236.1844134944451
 30
669.2913385826773
 41
0.7132736251541142
 10
948.6740716422231
 20
228.755965914491
 30
669.2913385826773
 41
1.0
  0
SPLINE
  5
4CF
330
1F
100
AcDbEntity
  8
Default
100
AcDbSpline
210
-0.000000000000023
220
0.000000000000008
230
1.0
 70
    12
 71
     2
 72
     6
 73
     3
 74
     0
 42
0.000000001
 43
0.0000000001
 40
0.0
 40
0.0
 40
0.0
 40
0.3517776804954474
 40
0.3517776804954474
 40
0.3517776804954474
 10
948.6740716422231
 20
228.755965914491
 30
669.2913385826773
 41
1.0
 10
947.0076736846296
 20
223.947630645701
 30
669.2913385826773
 41
0.8116604165752045
 10
950.7508426393089
 20
220.5000726093287
 30
669.2913385826774
 41
0.9416357303282252
  0
SPLINE
  5
4D0
330
1F
100
AcDbEntity
  8
Default
100
AcDbSpline
210
0.0
220
0.0
230
1.0
 70
    24
 71
     2
 72
     6
 73
     3
 74
     0
 42
0.000000001
 43
0.0000000001
 40
4.403114343305641
 40
4.403114343305641
 40
4.403114343305641
 40
4.523710136401241
 40
4.523710136401241
 40
4.523710136401241
 10
1466.215115327575
 20
-211.0109657799356
 30
669.2913385826773
 10
1467.541490886788
 20
-211.7767490660907
 30
669.2913385826773
 10
1468.867866446
 20
-212.542532352253
 30
669.2913385826773
  0
SPLINE
  5
4D1
330
1F
100
AcDbEntity
  8
Default
100
AcDbSpline
210
0.0
220
0.0
230
1.0
 70
    12
 71
     2
 72
     8
 73
     5
 74
     0
 42
0.000000001
 43
0.0000000001
 40
0.0
 40
0.0
 40
0.0
 40
0.4730574302815958
 40
0.4730574302815958
 40
0.9455180233888372
 40
0.9455180233888372
 40
0.9455180233888372
 10
1468.867866446
 20
-212.542532352253
 30
669.2913385826773
 41
1.0
 10
1475.259153375011
 20
-216.7157375434316
 30
669.2913385826773
 41
0.7091869777201399
 10
1471.123680258124
 20
-223.1315034584357
 30
669.2913385826773
 41
1.0
 10
1467.472705474423
 20
-229.8421537517996
 30
669.2913385826773
 41
0.7071352214376397
 10
1460.76158584274
 20
-226.1920230648092
 30
669.2913385826773
 41
1.0
  0
SPLINE
  5
4D2
330
1F
100
AcDbEntity
  8
Default
100
AcDbSpline
210
0.0
220
0.0
230
1.0
 70
    24
 71
     2
 72
     6
 73
     3
 74
     0
 42
0.000000001
 43
0.0000000001
 40
-4.466989253625452
 40
-4.466989253625452
 40
-4.466989253625452
 40
-3.611823149802035
 40
-3.611823149802035
 40
-3.611823149802035
 10
1460.76158584274
 20
-226.1920230648092
 30
669.2913385826773
 10
1451.356005284279
 20
-220.7617474296302
 30
669.2913385826773
 10
1441.950424725821
 20
-215.3314717944585
 30
669.2913385826773
  0
SPLINE
  5
4D3
330
1F
100
AcDbEntity
  8
Default
100
AcDbSpline
210
0.0
220
0.0
230
1.0
 70
    24
 71
     2
 72
     6
 73
     3
 74
     0
 42
0.000000001
 43
0.0000000001
 40
4.403114343305639
 40
4.403114343305639
 40
4.403114343305639
 40
4.523710136401241
 40
4.523710136401241
 40
4.523710136401241
 10
1466.215115327575
 20
211.7983146243033
 30
669.2913385826773
 10
1467.541490886788
 20
212.5640979104584
 30
669.2913385826773
 10
1468.867866446
 20
213.3298811966171
 30
669.2913385826773
  0
SPLINE
  5
4D4
330
1F
100
AcDbEntity
  8
Default
100
AcDbSpline
210
0.0
220
0.0
230
1.0
 70
    12
 71
     2
 72
     8
 73
     5
 74
     0
 42
0.000000001
 43
0.0000000001
 40
0.0
 40
0.0
 40
0.0
 40
0.4730574302815958
 40
0.4730574302815958
 40
0.9455180233888372
 40
0.9455180233888372
 40
0.9455180233888372
 10
1468.867866446
 20
213.3298811966171
 30
669.2913385826773
 41
1.0
 10
1475.259153375011
 20
217.5030863877993
 30
669.2913385826773
 41
0.7091869777201399
 10
1471.123680258124
 20
223.9188523028107
 30
669.2913385826773
 41
1.0
 10
1467.472705474423
 20
230.6295025961673
 30
669.2913385826773
 41
0.7071352214376397
 10
1460.76158584274
 20
226.9793719091805
 30
669.2913385826773
 41
1.0
  0
SPLINE
  5
4D5
330
1F
100
AcDbEntity
  8
Default
100
AcDbSpline
210
0.0
220
0.0
230
1.0
 70
    24
 71
     2
 72
     6
 73
     3
 74
     0
 42
0.000000001
 43
0.0000000001
 40
-4.466989253625452
 40
-4.466989253625452
 40
-4.466989253625452
 40
-3.611823149802035
 40
-3.611823149802035
 40
-3.611823149802035
 10
1460.76158584274
 20
226.9793719091805
 30
669.2913385826773
 10
1451.356005284279
 20
221.5490962740015
 30
669.2913385826773
 10
1441.950424725821
 20
216.1188206388225
 30
669.2913385826773
  0
SPLINE
  5
4D6
330
1F
100
AcDbEntity
  8
Default
100
AcDbSpline
210
0.0
220
0.0
230
1.0
 70
     8
 71
     3
 72
    29
 73
    25
 74
     0
 42
0.000000001
 43
0.0000000001
 40
0.0
 40
0.0
 40
0.0
 40
0.0
 40
1.0
 40
2.0
 40
3.0
 40
4.0
 40
5.0
 40
6.0
 40
7.0
 40
8.0
 40
9.0
 40
10.0
 40
11.0
 40
12.0
 40
13.0
 40
14.0
 40
15.0
 40
16.0
 40
17.0
 40
18.0
 40
19.0
 40
20.0
 40
21.0
 40
22.0
 40
22.0
 40
22.0
 40
22.0
 10
-1452.875370878246
 20
-208.8927355413788
 30
669.2913385826773
 10
-1444.514828626289
 20
-213.0360474668367
 30
669.2913385826773
 10
-1429.596825514204
 20
-224.3059292036367
 30
669.2913385826773
 10
-1407.48910000069
 20
-241.3650563819527
 30
669.2913385826773
 10
-1385.848965251717
 20
-259.0672193183662
 30
669.2913385826773
 10
-1363.586602890333
 20
-275.9766369847774
 30
669.2913385826773
 10
-1339.9197191963
 20
-290.8982197403301
 30
669.2913385826773
 10
-1315.318070482747
 20
-304.1860320004879
 30
669.2913385826773
 10
-1289.901909085191
 20
-315.8450253154432
 30
669.2913385826773
 10
-1263.910990352939
 20
-326.1406827168274
 30
669.2913385826773
 10
-1237.512048996658
 20
-335.3380741172613
 30
669.2913385826773
 10
-1210.750995993778
 20
-343.4164365758832
 30
669.2913385826773
 10
-1183.698590075594
 20
-350.4686795341685
 30
669.2913385826773
 10
-1156.088495136548
 20
-355.1803808098001
 30
669.2913385826773
 10
-1127.880833566313
 20
-354.0092664442444
 30
669.2913385826773
 10
-1101.368211847232
 20
-344.2782124393806
 30
669.2913385826773
 10
-1078.299587855363
 20
-328.3129797948412
 30
669.2913385826773
 10
-1054.894278947261
 20
-313.0708413945785
 30
669.2913385826773
 10
-1032.99758701722
 20
-295.6404787916498
 30
669.2913385826773
 10
-1012.053339268561
 20
-277.1401021305745
 30
669.2913385826773
 10
-991.257997570236
 20
-258.4647507432009
 30
669.2913385826773
 10
-970.614395013407
 20
-239.6230830839148
 30
669.2913385826773
 10
-950.6317149661267
 20
-220.0684236274927
 30
669.2913385826773
 10
-938.2629863116093
 20
-206.1110551420414
 30
669.2913385826773
 10
-932.4627163350674
 20
-198.8191026934827
 30
669.2913385826773
  0
SPLINE
  5
4D7
330
1F
100
AcDbEntity
  8
Default
100
AcDbSpline
210
0.0
220
0.0
230
1.0
 70
     8
 71
     3
 72
    29
 73
    25
 74
     0
 42
0.000000001
 43
0.0000000001
 40
0.0
 40
0.0
 40
0.0
 40
0.0
 40
1.0
 40
2.0
 40
3.0
 40
4.0
 40
5.0
 40
6.0
 40
7.0
 40
8.0
 40
9.0
 40
10.0
 40
11.0
 40
12.0
 40
13.0
 40
14.0
 40
15.0
 40
16.0
 40
17.0
 40
18.0
 40
19.0
 40
20.0
 40
21.0
 40
22.0
 40
22.0
 40
22.0
 40
22.0
 10
-1452.875370878246
 20
209.6800843857501
 30
669.2913385826773
 10
-1444.514828626289
 20
213.8233963112008
 30
669.2913385826773
 10
-1429.596825514204
 20
225.0932780480118
 30
669.2913385826773
 10
-1407.48910000069
 20
242.1524052263205
 30
669.2913385826773
 10
-1385.848965251717
 20
259.8545681627375
 30
669.2913385826773
 10
-1363.586602890333
 20
276.7639858291451
 30
669.2913385826773
 10
-1339.9197191963
 20
291.6855685846978
 30
669.2913385826773
 10
-1315.318070482747
 20
304.9733808448519
 30
669.2913385826773
 10
-1289.901909085191
 20
316.6323741598181
 30
669.2913385826773
 10
-1263.910990352939
 20
326.9280315611951
 30
669.2913385826773
 10
-1237.512048996658
 20
336.1254229616362
 30
669.2913385826773
 10
-1210.750995993778
 20
344.2037854202473
 30
669.2913385826773
 10
-1183.698590075594
 20
351.2560283785398
 30
669.2913385826773
 10
-1156.088495136548
 20
355.9677296541714
 30
669.2913385826773
 10
-1127.880833566313
 20
354.7966152886194
 30
669.2913385826773
 10
-1101.368211847232
 20
345.0655612837519
 30
669.2913385826773
 10
-1078.299587855363
 20
329.1003286392089
 30
669.2913385826773
 10
-1054.894278947261
 20
313.8581902389461
 30
669.2913385826773
 10
-1032.99758701722
 20
296.4278276360247
 30
669.2913385826773
 10
-1012.053339268561
 20
277.9274509749458
 30
669.2913385826773
 10
-991.257997570236
 20
259.2520995875685
 30
669.2913385826773
 10
-970.614395013407
 20
240.4104319282898
 30
669.2913385826773
 10
-950.6317149661267
 20
220.8557724718641
 30
669.2913385826773
 10
-938.2629863116093
 20
206.8984039864128
 30
669.2913385826773
 10
-932.4627163350674
 20
199.6064515378467
 30
669.2913385826773
  0
SPLINE
  5
4D8
330
1F
100
AcDbEntity
  8
Default
100
AcDbSpline
210
0.0
220
0.0
230
1.0
 70
    12
 71
     3
 72
    12
 73
     8
 74
     0
 42
0.000000001
 43
0.0000000001
 40
-1.0
 40
-1.0
 40
-1.0
 40
-1.0
 40
-0.75
 40
-0.5
 40
-0.25
 40
-0.125
 40
0.0
 40
0.0
 40
0.0
 40
0.0
 10
-1540.453632973695
 20
220.3662964654296
 30
669.2913385826773
 41
1.0
 10
-1541.865675841575
 20
220.3718086307646
 30
669.2913385826773
 41
1.0
 10
-1545.217243124084
 20
218.2961238754916
 30
669.2913385826773
 41
1.0
 10
-1551.132336197378
 20
208.42471596399
 30
669.2913385826773
 41
1.0
 10
-1555.936219501517
 20
195.8688707239645
 30
669.2913385826773
 41
1.0
 10
-1559.30011219333
 20
184.3080001787831
 30
669.2913385826773
 41
1.0
 10
-1560.762909136935
 20
178.246660221129
 30
669.2913385826773
 41
1.0
 10
-1561.442746279321
 20
175.2033623388389
 30
669.2913385826773
 41
1.0
  0
SPLINE
  5
4D9
330
1F
100
AcDbEntity
  8
Default
100
AcDbSpline
210
0.0
220
0.0
230
1.0
 70
    12
 71
     2
 72
     6
 73
     3
 74
     0
 42
0.000000001
 43
0.0000000001
 40
-1.73861529974842
 40
-1.73861529974842
 40
-1.73861529974842
 40
0.0
 40
0.0
 40
0.0
 10
-1561.442746279321
 20
175.2033623388389
 30
669.2913385826773
 41
1.0
 10
-1566.200372183496
 20
153.6389829260235
 30
669.2913385826773
 41
0.9998265244242315
 10
-1570.152891989245
 20
131.9126152403998
 30
669.2913385826773
 41
0.9999999999903403
  0
SPLINE
  5
4DA
330
1F
100
AcDbEntity
  8
Default
100
AcDbSpline
210
0.0
220
0.0
230
1.0
 70
     8
 71
     3
 72
    11
 73
     7
 74
     0
 42
0.000000001
 43
0.0000000001
 40
0.0
 40
0.0
 40
0.0
 40
0.0
 40
0.8055658146296341
 40
1.505207287485616
 40
2.898665587188705
 40
5.215701186741097
 40
5.215701186741097
 40
5.215701186741097
 40
5.215701186741097
 10
-1570.152891989245
 20
131.9126152403998
 30
669.2913385826773
 10
-1571.386032186787
 20
125.2029689158018
 30
669.2913385826773
 10
-1573.549241194626
 20
112.6475617514526
 30
669.2913385826773
 10
-1577.367935688479
 20
88.39731118874002
 30
669.2913385826773
 10
-1582.121256743733
 20
51.36752465341229
 30
669.2913385826773
 10
-1584.664562894534
 20
20.01974742521739
 30
669.2913385826773
 10
-1584.74120779659
 20
0.3936744221875008
 30
669.2913385826773
  0
SPLINE
  5
4DB
330
1F
100
AcDbEntity
  8
Default
100
AcDbSpline
210
0.0
220
0.0
230
1.0
 70
     8
 71
     3
 72
    11
 73
     7
 74
     0
 42
0.000000001
 43
0.0000000001
 40
-5.215701186741097
 40
-5.215701186741097
 40
-5.215701186741097
 40
-5.215701186741097
 40
-2.898665587188705
 40
-1.505207287485616
 40
-0.8055658146296341
 40
0.0
 40
0.0
 40
0.0
 40
0.0
 10
-1584.74120779659
 20
0.3936744221875008
 30
669.2913385826773
 10
-1584.664562894534
 20
-19.23239858084602
 30
669.2913385826773
 10
-1582.121256743733
 20
-50.58017580904456
 30
669.2913385826773
 10
-1577.367935688479
 20
-87.60996234437229
 30
669.2913385826773
 10
-1573.549241194626
 20
-111.8602129070849
 30
669.2913385826773
 10
-1571.386032186787
 20
-124.4156200714377
 30
669.2913385826773
 10
-1570.152891989245
 20
-131.1252663960357
 30
669.2913385826773
  0
SPLINE
  5
4DC
330
1F
100
AcDbEntity
  8
Default
100
AcDbSpline
210
0.0
220
0.0
230
1.0
 70
    12
 71
     2
 72
     6
 73
     3
 74
     0
 42
0.000000001
 43
0.0000000001
 40
0.0
 40
0.0
 40
0.0
 40
1.73861529974842
 40
1.73861529974842
 40
1.73861529974842
 10
-1570.152891989245
 20
-131.1252663960357
 30
669.2913385826773
 41
0.9999999999903403
 10
-1566.200372183496
 20
-152.8516340816557
 30
669.2913385826773
 41
0.9998265244242315
 10
-1561.442746279321
 20
-174.4160134944712
 30
669.2913385826773
 41
1.0
  0
SPLINE
  5
4DD
330
1F
100
AcDbEntity
  8
Default
100
AcDbSpline
210
0.0
220
0.0
230
1.0
 70
    12
 71
     3
 72
    12
 73
     8
 74
     0
 42
0.000000001
 43
0.0000000001
 40
0.0
 40
0.0
 40
0.0
 40
0.0
 40
0.125
 40
0.25
 40
0.5
 40
0.75
 40
1.0
 40
1.0
 40
1.0
 40
1.0
 10
-1561.442746279321
 20
-174.4160134944712
 30
669.2913385826773
 41
1.0
 10
-1560.762909136935
 20
-177.4593113767613
 30
669.2913385826773
 41
1.0
 10
-1559.30011219333
 20
-183.5206513344117
 30
669.2913385826773
 41
1.0
 10
-1555.936219501517
 20
-195.0815218795968
 30
669.2913385826773
 41
1.0
 10
-1551.132336197378
 20
-207.6373671196187
 30
669.2913385826773
 41
1.0
 10
-1545.217243124084
 20
-217.5087750311203
 30
669.2913385826773
 41
1.0
 10
-1541.865675841575
 20
-219.5844597863932
 30
669.2913385826773
 41
1.0
 10
-1540.453632973695
 20
-219.5789476210619
 30
669.2913385826773
 41
1.0
  0
SPLINE
  5
4DE
330
1F
100
AcDbEntity
  8
Default
100
AcDbSpline
210
0.0
220
0.0
230
1.0
 70
     8
 71
     3
 72
    11
 73
     7
 74
     0
 42
0.000000001
 43
0.0000000001
 40
-3.576711082448426
 40
-3.576711082448426
 40
-3.576711082448426
 40
-3.576711082448426
 40
-2.825677162948846
 40
-1.983666277812515
 40
-1.056257442711362
 40
0.0
 40
0.0
 40
0.0
 40
0.0
 10
-1540.453632973695
 20
-219.5789476210619
 30
669.2913385826773
 10
-1534.106130062541
 20
-219.2103762470023
 30
669.2913385826773
 10
-1520.658895666169
 20
-218.1313316383993
 30
669.2913385826773
 10
-1499.452611718727
 20
-215.7281360786718
 30
669.2913385826773
 10
-1475.761848363731
 20
-212.383384812564
 30
669.2913385826773
 10
-1459.181954372755
 20
-209.6986844517222
 30
669.2913385826773
 10
-1450.363970599341
 20
-208.2002183334469
 30
669.2913385826773
  0
SPLINE
  5
4DF
330
1F
100
AcDbEntity
  8
Default
100
AcDbSpline
210
0.0
220
0.0
230
1.0
 70
     8
 71
     3
 72
    19
 73
    15
 74
     0
 42
0.000000001
 43
0.0000000001
 40
-12.0
 40
-12.0
 40
-12.0
 40
-12.0
 40
-11.0
 40
-10.0
 40
-9.0
 40
-8.0
 40
-7.0
 40
-6.0
 40
-5.0
 40
-4.0
 40
-3.0
 40
-2.0
 40
-1.0
 40
0.0
 40
0.0
 40
0.0
 40
0.0
 10
-1450.363970599341
 20
-208.2002183334469
 30
669.2913385826773
 10
-1441.997237959822
 20
-209.1935262736213
 30
669.2913385826773
 10
-1428.557928337807
 20
-219.9510037807803
 30
669.2913385826773
 10
-1408.582606676508
 20
-234.7352215314193
 30
669.2913385826773
 10
-1389.066518784086
 20
-250.5344949169801
 30
669.2913385826773
 10
-1369.55216548175
 20
-266.234595045148
 30
669.2913385826773
 10
-1348.777190225352
 20
-280.2826813250275
 30
669.2913385826773
 10
-1327.182179926204
 20
-292.9994897425121
 30
669.2913385826773
 10
-1304.851906287662
 20
-304.3836438966126
 30
669.2913385826773
 10
-1281.934246717709
 20
-314.5244720169929
 30
669.2913385826773
 10
-1258.560525324389
 20
-323.5578904793864
 30
669.2913385826773
 10
-1234.869798124837
 20
-331.7175653921066
 30
669.2913385826773
 10
-1210.911113635808
 20
-339.0570341371848
 30
669.2913385826773
 10
-1194.737637097427
 20
-343.242868124801
 30
669.2913385826773
 10
-1186.611545302116
 20
-345.1673368080909
 30
669.2913385826773
  0
SPLINE
  5
4E0
330
1F
100
AcDbEntity
  8
Default
100
AcDbSpline
210
0.0
220
0.0
230
1.0
 70
    12
 71
     3
 72
    11
 73
     7
 74
     0
 42
0.000000001
 43
0.0000000001
 40
0.0
 40
0.0
 40
0.0
 40
0.0
 40
0.2499998804336
 40
0.4999997608673
 40
0.7499996413009001
 40
1.0
 40
1.0
 40
1.0
 40
1.0
 10
-1186.611545302116
 20
-345.1673368080909
 30
669.2913385826773
 41
1.0
 10
-1177.610540037488
 20
-347.2409983572715
 30
669.2913385826773
 41
1.0
 10
-1159.50886432629
 20
-350.758010603723
 30
669.2913385826773
 41
1.0
 10
-1133.26221232555
 20
-351.2175973159054
 30
669.2913385826773
 41
1.0
 10
-1110.007887951884
 20
-345.7630857343346
 30
669.2913385826773
 41
1.0
 10
-1097.819246871972
 20
-339.2391920447143
 30
669.2913385826773
 41
1.0
 10
-1092.501480289073
 20
-335.8824321517667
 30
669.2913385826773
 41
1.0
  0
SPLINE
  5
4E1
330
1F
100
AcDbEntity
  8
Default
100
AcDbSpline
210
0.0
220
0.0
230
1.0
 70
     8
 71
     3
 72
    19
 73
    15
 74
     0
 42
0.000000001
 43
0.0000000001
 40
-12.0
 40
-12.0
 40
-12.0
 40
-12.0
 40
-11.0
 40
-10.0
 40
-9.0
 40
-8.0
 40
-7.0
 40
-6.0
 40
-5.0
 40
-4.0
 40
-3.0
 40
-2.0
 40
-1.0
 40
0.0
 40
0.0
 40
0.0
 40
0.0
 10
-1092.501480289073
 20
-335.8824321517667
 30
669.2913385826773
 10
-1087.206574724918
 20
-332.4808037386855
 30
669.2913385826773
 10
-1076.580435504671
 20
-325.7374058527702
 30
669.2913385826773
 10
-1060.75198718064
 20
-315.4401879701862
 30
669.2913385826773
 10
-1045.54563479059
 20
-304.239585281145
 30
669.2913385826773
 10
-1030.794202898265
 20
-292.4510997289207
 30
669.2913385826773
 10
-1016.577346092221
 20
-280.0255742279977
 30
669.2913385826773
 10
-1002.421686811246
 20
-267.5350981441142
 30
669.2913385826773
 10
-988.3290205257186
 20
-254.9720886594249
 30
669.2913385826773
 10
-974.3156831755081
 20
-242.3203781093496
 30
669.2913385826773
 10
-960.5974875881333
 20
-229.3470694809247
 30
669.2913385826773
 10
-947.3369128303861
 20
-215.903080009043
 30
669.2913385826773
 10
-934.7948820922361
 20
-201.7796713028209
 30
669.2913385826773
 10
-927.1306082627711
 20
-191.7842812919287
 30
669.2913385826773
 10
-923.4416825400371
 20
-186.6475591067745
 30
669.2913385826773
  0
SPLINE
  5
4E2
330
1F
100
AcDbEntity
  8
Default
100
AcDbSpline
210
0.0
220
0.0
230
1.0
 70
     8
 71
     3
 72
    12
 73
     8
 74
     0
 42
0.000000001
 43
0.0000000001
 40
-15.78913311264457
 40
-15.78913311264457
 40
-15.78913311264457
 40
-15.78913311264457
 40
-11.7692665204822
 40
-7.888736159237259
 40
-4.023995779131863
 40
-2.036640528636299
 40
0.0
 40
0.0
 40
0.0
 40
0.0
 10
-923.4416825400371
 20
-186.6475591067745
 30
669.2913385826773
 10
-903.5621246261767
 20
-159.0243260742234
 30
669.2913385826773
 10
-871.890888180868
 20
-99.18071128822234
 30
669.2913385826773
 10
-855.2738748621637
 20
0.4079814604275774
 30
669.2913385826773
 10
-869.0312376498082
 20
82.78869787869295
 30
669.2913385826773
 10
-895.4075417685748
 20
144.3474627605184
 30
669.2913385826773
 10
-913.2978740540243
 20
173.4513042426453
 30
669.2913385826773
 10
-923.4416599064211
 20
187.4347895170114
 30
669.2913385826773
  0
SPLINE
  5
4E3
330
1F
100
AcDbEntity
  8
Default
100
AcDbSpline
210
0.0
220
0.0
230
1.0
 70
     8
 71
     3
 72
    19
 73
    15
 74
     0
 42
0.000000001
 43
0.0000000001
 40
0.0
 40
0.0
 40
0.0
 40
0.0
 40
1.0
 40
2.0
 40
3.0
 40
4.0
 40
5.0
 40
6.0
 40
7.0
 40
8.0
 40
9.0
 40
10.0
 40
11.0
 40
12.0
 40
12.0
 40
12.0
 40
12.0
 10
-923.4416599064211
 20
187.4347895170114
 30
669.2913385826773
 10
-927.1306082627711
 20
192.5716301362928
 30
669.2913385826773
 10
-934.7948820922361
 20
202.5670201471886
 30
669.2913385826773
 10
-947.3369128303861
 20
216.6904288534107
 30
669.2913385826773
 10
-960.5974875881333
 20
230.1344183252887
 30
669.2913385826773
 10
-974.3156831755081
 20
243.1077269537138
 30
669.2913385826773
 10
-988.3290205257186
 20
255.7594375037962
 30
669.2913385826773
 10
-1002.421686811246
 20
268.3224469884818
 30
669.2913385826773
 10
-1016.577346092221
 20
280.8129230723618
 30
669.2913385826773
 10
-1030.794202898265
 20
293.2384485732884
 30
669.2913385826773
 10
-1045.54563479059
 20
305.0269341255199
 30
669.2913385826773
 10
-1060.75198718064
 20
316.2275368145575
 30
669.2913385826773
 10
-1076.580435504671
 20
326.5247546971415
 30
669.2913385826773
 10
-1087.206574724918
 20
333.2681525830495
 30
669.2913385826773
 10
-1092.501480289073
 20
336.6697809961307
 30
669.2913385826773
  0
SPLINE
  5
4E4
330
1F
100
AcDbEntity
  8
Default
100
AcDbSpline
210
0.0
220
0.0
230
1.0
 70
    12
 71
     3
 72
    11
 73
     7
 74
     0
 42
0.000000001
 43
0.0000000001
 40
-1.0
 40
-1.0
 40
-1.0
 40
-1.0
 40
-0.7499996413009001
 40
-0.4999997608673
 40
-0.2499998804336
 40
0.0
 40
0.0
 40
0.0
 40
0.0
 10
-1092.501480289073
 20
336.6697809961307
 30
669.2913385826773
 41
1.0
 10
-1097.819246871972
 20
340.0265408890856
 30
669.2913385826773
 41
1.0
 10
-1110.007887951884
 20
346.5504345786986
 30
669.2913385826773
 41
1.0
 10
-1133.26221232555
 20
352.0049461602731
 30
669.2913385826773
 41
1.0
 10
-1159.50886432629
 20
351.5453594480906
 30
669.2913385826773
 41
1.0
 10
-1177.610540037488
 20
348.0283472016428
 30
669.2913385826773
 41
1.0
 10
-1186.611545302116
 20
345.9546856524586
 30
669.2913385826773
 41
1.0
  0
SPLINE
  5
4E5
330
1F
100
AcDbEntity
  8
Default
100
AcDbSpline
210
0.0
220
0.0
230
1.0
 70
     8
 71
     3
 72
    19
 73
    15
 74
     0
 42
0.000000001
 43
0.0000000001
 40
0.0
 40
0.0
 40
0.0
 40
0.0
 40
1.0
 40
2.0
 40
3.0
 40
4.0
 40
5.0
 40
6.0
 40
7.0
 40
8.0
 40
9.0
 40
10.0
 40
11.0
 40
12.0
 40
12.0
 40
12.0
 40
12.0
 10
-1186.611545302116
 20
345.9546856524586
 30
669.2913385826773
 10
-1194.737637097427
 20
344.0302169691723
 30
669.2913385826773
 10
-1210.911113635808
 20
339.8443829815561
 30
669.2913385826773
 10
-1234.869798124837
 20
332.5049142364743
 30
669.2913385826773
 10
-1258.560525324389
 20
324.3452393237504
 30
669.2913385826773
 10
-1281.934246717709
 20
315.3118208613642
 30
669.2913385826773
 10
-1304.851906287662
 20
305.1709927409839
 30
669.2913385826773
 10
-1327.182179926204
 20
293.7868385868834
 30
669.2913385826773
 10
-1348.777190225352
 20
281.0700301693988
 30
669.2913385826773
 10
-1369.55216548175
 20
267.0219438895121
 30
669.2913385826773
 10
-1389.066518784086
 20
251.3218437613479
 30
669.2913385826773
 10
-1408.582606676508
 20
235.5225703757907
 30
669.2913385826773
 10
-1428.557928337807
 20
220.7383526251516
 30
669.2913385826773
 10
-1441.997237959822
 20
209.9808751179891
 30
669.2913385826773
 10
-1450.363970599341
 20
208.987567177811
 30
669.2913385826773
  0
SPLINE
  5
4E6
330
1F
100
AcDbEntity
  8
Default
100
AcDbSpline
210
0.0
220
0.0
230
1.0
 70
     8
 71
     3
 72
    11
 73
     7
 74
     0
 42
0.000000001
 43
0.0000000001
 40
0.0
 40
0.0
 40
0.0
 40
0.0
 40
1.056257442711362
 40
1.983666277812515
 40
2.825677162948846
 40
3.576711082448426
 40
3.576711082448426
 40
3.576711082448426
 40
3.576711082448426
 10
-1450.363970599341
 20
208.987567177811
 30
669.2913385826773
 10
-1459.181954372755
 20
210.4860332960936
 30
669.2913385826773
 10
-1475.761848363731
 20
213.1707336569354
 30
669.2913385826773
 10
-1499.452611718727
 20
216.5154849230431
 30
669.2913385826773
 10
-1520.658895666169
 20
218.9186804827633
 30
669.2913385826773
 10
-1534.106130062541
 20
219.9977250913663
 30
669.2913385826773
 10
-1540.453632973695
 20
220.3662964654296
 30
669.2913385826773
  0
SPLINE
  5
4E7
330
1F
100
AcDbEntity
  8
Default
100
AcDbSpline
210
0.0
220
0.0
230
1.0
 70
     8
 71
     3
 72
    12
 73
     8
 74
     0
 42
0.000000001
 43
0.0000000001
 40
0.0
 40
0.0
 40
0.0
 40
0.0
 40
1.0
 40
2.0
 40
3.0
 40
4.0
 40
5.0
 40
5.0
 40
5.0
 40
5.0
 10
-1368.263513555681
 20
-239.6672672500089
 30
669.2913385826773
 10
-1357.606533367136
 20
-248.4588993677852
 30
669.2913385826773
 10
-1335.253667372257
 20
-264.7841055714006
 30
669.2913385826773
 10
-1299.080415010555
 20
-285.1559114320652
 30
669.2913385826773
 10
-1261.008387378275
 20
-301.6332871757758
 30
669.2913385826773
 10
-1221.898290101141
 20
-315.4051134579812
 30
669.2913385826773
 10
-1195.357324891593
 20
-323.1342368296235
 30
669.2913385826773
 10
-1181.932224567365
 20
-326.403500937321
 30
669.2913385826773
  0
SPLINE
  5
4E8
330
1F
100
AcDbEntity
  8
Default
100
AcDbSpline
210
0.0
220
0.0
230
1.0
 70
     8
 71
     3
 72
    10
 73
     6
 74
     0
 42
0.000000001
 43
0.0000000001
 40
0.0
 40
0.0
 40
0.0
 40
0.0
 40
1.0
 40
2.0
 40
3.0
 40
3.0
 40
3.0
 40
3.0
 10
-1181.932224567365
 20
-326.403500937321
 30
669.2913385826773
 10
-1173.009651847118
 20
-328.5313004931621
 30
669.2913385826773
 10
-1154.731533050668
 20
-330.8974101099837
 30
669.2913385826773
 10
-1127.155338665413
 20
-329.2583262165853
 30
669.2913385826773
 10
-1109.373798518485
 20
-323.8334393570793
 30
669.2913385826773
 10
-1101.593216971898
 20
-318.8845896839874
 30
669.2913385826773
  0
SPLINE
  5
4E9
330
1F
100
AcDbEntity
  8
Default
100
AcDbSpline
210
0.0
220
0.0
230
1.0
 70
     8
 71
     3
 72
    10
 73
     6
 74
     0
 42
0.000000001
 43
0.0000000001
 40
8.0
 40
8.0
 40
8.0
 40
8.0
 40
9.0
 40
10.0
 40
11.0
 40
11.0
 40
11.0
 40
11.0
 10
-1101.593216971898
 20
-318.8845896839874
 30
669.2913385826773
 10
-1091.088949703575
 20
-311.8761692475881
 30
669.2913385826773
 10
-1069.75100893174
 20
-298.2930209341311
 30
669.2913385826773
 10
-1040.235838542442
 20
-274.4461732622903
 30
669.2913385826773
 10
-1021.744694740333
 20
-257.2251394140902
 30
669.2913385826773
 10
-1012.394365985576
 20
-248.7325438562756
 30
669.2913385826773
  0
ARC
  5
4EA
330
1F
100
AcDbEntity
  8
Default
100
AcDbCircle
 10
-1287.562085111437
 20
54.22650076196546
 30
669.2913385826773
 40
409.2694178226944
100
AcDbArc
 50
312.2478340188755
 51
325.9468258270186
  0
SPLINE
  5
4EB
330
1F
100
AcDbEntity
  8
Default
100
AcDbSpline
210
0.0
220
0.0
230
1.0
 70
     8
 71
     3
 72
    12
 73
     8
 74
     0
 42
0.000000001
 43
0.0000000001
 40
0.0
 40
0.0
 40
0.0
 40
0.0
 40
1.832654236483515
 40
3.669578742657731
 40
7.371880427553494
 40
11.11625269817008
 40
14.89017125660395
 40
14.89017125660395
 40
14.89017125660395
 40
14.89017125660395
 10
-1113.727787096909
 20
-244.0809320017932
 30
669.2913385826773
 10
-1098.155770952974
 20
-244.0820290942855
 30
669.2913385826773
 10
-1067.105588127666
 20
-240.8923486357915
 30
669.2913385826773
 10
-1007.196748040362
 20
-222.2087084608273
 30
669.2913385826773
 10
-941.2849791191987
 20
-176.5727680261614
 30
669.2913385826773
 10
-888.8243008984359
 20
-95.21276520175783
 30
669.2913385826773
 10
-876.6115984091234
 20
-31.55896140932495
 30
669.2913385826773
 10
-876.6060046443204
 20
0.3935704594561278
 30
669.2913385826773
  0
SPLINE
  5
4EC
330
1F
100
AcDbEntity
  8
Default
100
AcDbSpline
210
0.0
220
0.0
230
1.0
 70
     8
 71
     3
 72
    12
 73
     8
 74
     0
 42
0.000000001
 43
0.0000000001
 40
0.0
 40
0.0
 40
0.0
 40
0.0
 40
1.889355098582429
 40
3.774519559296818
 40
7.516682166840943
 40
11.21816918271821
 40
14.89017237659324
 40
14.89017237659324
 40
14.89017237659324
 40
14.89017237659324
 10
-876.6060046443204
 20
0.3935704594561278
 30
669.2913385826773
 10
-876.6077259513336
 20
16.38879551595633
 30
669.2913385826773
 10
-879.6814669413947
 20
48.34830025534862
 30
669.2913385826773
 10
-897.6570555096882
 20
109.6909985876929
 30
669.2913385826773
 10
-941.2656542853806
 20
177.3339529001506
 30
669.2913385826773
 10
-1020.178949082387
 20
231.9949018999588
 30
669.2913385826773
 10
-1082.591713343758
 20
244.8765879760987
 30
669.2913385826773
 10
-1113.68553720829
 20
244.868255226914
 30
669.2913385826773
  0
SPLINE
  5
4ED
330
1F
100
AcDbEntity
  8
Default
100
AcDbSpline
210
0.0
220
0.0
230
1.0
 70
     8
 71
     3
 72
    12
 73
     8
 74
     0
 42
0.000000001
 43
0.0000000001
 40
-15.35241646788361
 40
-15.35241646788361
 40
-15.35241646788361
 40
-15.35241646788361
 40
-11.42846722997082
 40
-7.624448880970328
 40
-3.868777336844832
 40
-1.918304869189328
 40
0.0
 40
0.0
 40
0.0
 40
0.0
 10
-1113.68553720829
 20
244.868255226914
 30
669.2913385826773
 10
-1146.893066018845
 20
244.8687910029668
 30
669.2913385826773
 10
-1212.470939284871
 20
233.0459398156901
 30
669.2913385826773
 10
-1296.029195256412
 20
179.5921543376072
 30
669.2913385826773
 10
-1342.122736415695
 20
111.522496089806
 30
669.2913385826773
 10
-1360.768495184191
 20
49.39591387191208
 30
669.2913385826773
 10
-1363.938676470571
 20
16.63366937341303
 30
669.2913385826773
 10
-1363.92519776374
 20
0.3935906094531267
 30
669.2913385826773
  0
SPLINE
  5
4EE
330
1F
100
AcDbEntity
  8
Default
100
AcDbSpline
210
0.0
220
0.0
230
1.0
 70
     8
 71
     3
 72
    12
 73
     8
 74
     0
 42
0.000000001
 43
0.0000000001
 40
-15.34910747496398
 40
-15.34910747496398
 40
-15.34910747496398
 40
-15.34910747496398
 40
-11.5840058662532
 40
-7.773657509622693
 40
-3.936637318219009
 40
-1.971105179282631
 40
0.0
 40
0.0
 40
0.0
 40
0.0
 10
-1363.92519776374
 20
0.3935906094531267
 30
669.2913385826773
 10
-1363.917484278223
 20
-31.46869026469616
 30
669.2913385826773
 10
-1351.850459845326
 20
-95.70508386715559
 30
669.2913385826773
 10
-1297.189086575294
 20
-177.8957881956984
 30
669.2913385826773
 10
-1227.365360042328
 20
-222.8999054605072
 30
669.2913385826773
 10
-1163.807926533926
 20
-241.0381701686591
 30
669.2913385826773
 10
-1130.462443092682
 20
-244.0871258280338
 30
669.2913385826773
 10
-1113.727787096909
 20
-244.0809320017932
 30
669.2913385826773
  0
SPLINE
  5
4EF
330
1F
100
AcDbEntity
  8
Default
100
AcDbSpline
210
0.0
220
0.0
230
1.0
 70
     8
 71
     3
 72
    12
 73
     8
 74
     0
 42
0.000000001
 43
0.0000000001
 40
0.0
 40
0.0
 40
0.0
 40
0.0
 40
1.0
 40
2.0
 40
3.0
 40
4.0
 40
5.0
 40
5.0
 40
5.0
 40
5.0
 10
-1368.263513555681
 20
240.4546160943802
 30
669.2913385826773
 10
-1357.606533367136
 20
249.2462482121565
 30
669.2913385826773
 10
-1335.253667372257
 20
265.5714544157719
 30
669.2913385826773
 10
-1299.080415010555
 20
285.9432602764365
 30
669.2913385826773
 10
-1261.008387378275
 20
302.4206360201434
 30
669.2913385826773
 10
-1221.898290101141
 20
316.1924623023489
 30
669.2913385826773
 10
-1195.357324891593
 20
323.9215856739948
 30
669.2913385826773
 10
-1181.932224567365
 20
327.190849781685
 30
669.2913385826773
  0
SPLINE
  5
4F0
330
1F
100
AcDbEntity
  8
Default
100
AcDbSpline
210
0.0
220
0.0
230
1.0
 70
     8
 71
     3
 72
    10
 73
     6
 74
     0
 42
0.000000001
 43
0.0000000001
 40
0.0
 40
0.0
 40
0.0
 40
0.0
 40
1.0
 40
2.0
 40
3.0
 40
3.0
 40
3.0
 40
3.0
 10
-1181.932224567365
 20
327.190849781685
 30
669.2913385826773
 10
-1173.009651847118
 20
329.3186493375298
 30
669.2913385826773
 10
-1154.731533050668
 20
331.6847589543478
 30
669.2913385826773
 10
-1127.155338665413
 20
330.0456750609566
 30
669.2913385826773
 10
-1109.373798518485
 20
324.6207882014433
 30
669.2913385826773
 10
-1101.593216971898
 20
319.6719385283551
 30
669.2913385826773
  0
SPLINE
  5
4F1
330
1F
100
AcDbEntity
  8
Default
100
AcDbSpline
210
0.0
220
0.0
230
1.0
 70
     8
 71
     3
 72
    10
 73
     6
 74
     0
 42
0.000000001
 43
0.0000000001
 40
8.0
 40
8.0
 40
8.0
 40
8.0
 40
9.0
 40
10.0
 40
11.0
 40
11.0
 40
11.0
 40
11.0
 10
-1101.593216971898
 20
319.6719385283551
 30
669.2913385826773
 10
-1091.088949703575
 20
312.6635180919594
 30
669.2913385826773
 10
-1069.75100893174
 20
299.0803697784987
 30
669.2913385826773
 10
-1040.235838542442
 20
275.2335221066652
 30
669.2913385826773
 10
-1021.744694740333
 20
258.0124882584542
 30
669.2913385826773
 10
-1012.394365985576
 20
249.5198927006469
 30
669.2913385826773
  0
ARC
  5
4F2
330
1F
100
AcDbEntity
  8
Default
100
AcDbCircle
 10
-1287.562085111437
 20
-53.4391519175941
 30
669.2913385826773
 40
409.2694178226944
100
AcDbArc
 50
34.05317417298129
 51
47.75216598112448
  0
SPLINE
  5
4F3
330
1F
100
AcDbEntity
  8
Default
100
AcDbSpline
210
0.0
220
0.0
230
1.0
 70
     8
 71
     3
 72
    23
 73
    19
 74
     0
 42
0.000000001
 43
0.0000000001
 40
-16.0
 40
-16.0
 40
-16.0
 40
-16.0
 40
-14.99999934916018
 40
-13.99999869832036
 40
-12.99999804748054
 40
-11.99999739664072
 40
-10.99999674580089
 40
-9.999996094961071
 40
-8.999995444121251
 40
-7.99999479328143
 40
-6.999994142441609
 40
-5.999993491601789
 40
-4.999992840761966
 40
-3.999992189922146
 40
-2.999991539082325
 40
-1.999990888242504
 40
-0.9999902374026826
 40
0.0
 40
0.0
 40
0.0
 40
0.0
 10
-1452.392900456056
 20
209.5060313615733
 30
669.2913385826773
 10
-1459.094772935201
 20
210.6443485375577
 30
669.2913385826773
 10
-1472.523885838993
 20
212.856370598741
 30
669.2913385826773
 10
-1492.666348349009
 20
215.8446565301539
 30
669.2913385826773
 10
-1513.037702018155
 20
218.4091095377054
 30
669.2913385826773
 10
-1532.853005946225
 20
220.3584515418126
 30
669.2913385826773
 10
-1555.038513383807
 20
221.796863793753
 30
669.2913385826773
 10
-1564.987164766834
 20
201.1368841078994
 30
669.2913385826773
 10
-1570.86394328389
 20
182.2548579545775
 30
669.2913385826773
 10
-1574.948625730111
 20
162.0765919344532
 30
669.2913385826773
 10
-1578.946142047695
 20
142.1245192093785
 30
669.2913385826773
 10
-1582.558806538
 20
122.0332056006674
 30
669.2913385826773
 10
-1585.828674794873
 20
101.9010894252361
 30
669.2913385826773
 10
-1588.702064783953
 20
81.70342807744342
 30
669.2913385826773
 10
-1591.144024356989
 20
61.45041985695312
 30
669.2913385826773
 10
-1593.135650130949
 20
41.14728057045536
 30
669.2913385826773
 10
-1594.509019401842
 20
20.7914797038076
 30
669.2913385826773
 10
-1594.861700076814
 20
7.193346583092675
 30
669.2913385826773
 10
-1594.862465602037
 20
0.3936744221875008
 30
669.2913385826773
  0
SPLINE
  5
4F4
330
1F
100
AcDbEntity
  8
Default
100
AcDbSpline
210
0.0
220
0.0
230
1.0
 70
     8
 71
     3
 72
    23
 73
    19
 74
     0
 42
0.000000001
 43
0.0000000001
 40
0.0
 40
0.0
 40
0.0
 40
0.0
 40
0.9999902374026826
 40
1.999990888242504
 40
2.999991539082325
 40
3.999992189922146
 40
4.999992840761966
 40
5.999993491601789
 40
6.999994142441609
 40
7.99999479328143
 40
8.999995444121251
 40
9.999996094961071
 40
10.99999674580089
 40
11.99999739664072
 40
12.99999804748054
 40
13.99999869832036
 40
14.99999934916018
 40
16.0
 40
16.0
 40
16.0
 40
16.0
 10
-1594.862465602037
 20
0.3936744221875008
 30
669.2913385826773
 10
-1594.861700076814
 20
-6.405997738724949
 30
669.2913385826773
 10
-1594.509019401842
 20
-20.00413085944351
 30
669.2913385826773
 10
-1593.135650130949
 20
-40.35993172608399
 30
669.2913385826773
 10
-1591.144024356989
 20
-60.66307101258175
 30
669.2913385826773
 10
-1588.702064783953
 20
-80.91607923307206
 30
669.2913385826773
 10
-1585.828674794873
 20
-101.1137405808611
 30
669.2913385826773
 10
-1582.558806538
 20
-121.2458567563033
 30
669.2913385826773
 10
-1578.946142047695
 20
-141.3371703650071
 30
669.2913385826773
 10
-1574.948625730111
 20
-161.2892430900818
 30
669.2913385826773
 10
-1570.86394328389
 20
-181.4675091102134
 30
669.2913385826773
 10
-1564.987164766834
 20
-200.3495352635244
 30
669.2913385826773
 10
-1555.038513383807
 20
-221.0095149493853
 30
669.2913385826773
 10
-1532.853005946225
 20
-219.5711026974412
 30
669.2913385826773
 10
-1513.037702018155
 20
-217.621760693334
 30
669.2913385826773
 10
-1492.666348349009
 20
-215.0573076857825
 30
669.2913385826773
 10
-1472.523885838993
 20
-212.0690217543696
 30
669.2913385826773
 10
-1459.094772935201
 20
-209.85699969319
 30
669.2913385826773
 10
-1452.392900456056
 20
-208.7186825172019
 30
669.2913385826773
  0
POLYLINE
  5
4F5
330
1F
100
AcDbEntity
  8
Default
100
AcDb2dPolyline
 66
     1
 10
0.0
 20
0.0
 30
669.2913385826773
  0
VERTEX
  5
4F6
330
4F5
100
AcDbEntity
  8
Default
100
AcDbVertex
100
AcDb2dVertex
 10
-962.1243771510094
 20
-231.2362098130605
 30
669.2913385826773
  0
VERTEX
  5
4F7
330
4F5
100
AcDbEntity
  8
Default
100
AcDbVertex
100
AcDb2dVertex
 10
-960.0554792565276
 20
-232.4548837977953
 30
669.2913385826773
  0
SEQEND
  5
4F8
330
4F5
100
AcDbEntity
  8
Default
  0
SPLINE
  5
4F9
330
1F
100
AcDbEntity
  8
Default
100
AcDbSpline
210
0.0
220
0.0
230
1.0
 70
    12
 71
     2
 72
     8
 73
     5
 74
     0
 42
0.000000001
 43
0.0000000001
 40
0.0
 40
0.0
 40
0.0
 40
0.0657021758075414
 40
0.0657021758075414
 40
0.5513779496561005
 40
0.5513779496561005
 40
0.5513779496561005
 10
-960.0554792565276
 20
-232.4548837977953
 30
669.2913385826773
 41
1.0
 10
-959.3331731841431
 20
-232.8802061565537
 30
669.2913385826773
 41
0.9938146782922427
 10
-958.5351334780721
 20
-233.1354981520006
 30
669.2913385826773
 41
1.0
 10
-951.0659203461587
 20
-235.397064650081
 30
669.2913385826773
 41
0.7132736251541142
 10
-948.6738512863089
 20
-227.9686170701269
 30
669.2913385826773
 41
1.0
  0
SPLINE
  5
4FA
330
1F
100
AcDbEntity
  8
Default
100
AcDbSpline
210
0.000000000000023
220
-0.000000000000008
230
1.0
 70
    12
 71
     2
 72
     6
 73
     3
 74
     0
 42
0.000000001
 43
0.0000000001
 40
0.0
 40
0.0
 40
0.0
 40
0.3517776804954474
 40
0.3517776804954474
 40
0.3517776804954474
 10
-948.6738512863089
 20
-227.9686170701269
 30
669.2913385826773
 41
1.0
 10
-947.0074533287156
 20
-223.1602818013333
 30
669.2913385826773
 41
0.8116604165752045
 10
-950.7506222833949
 20
-219.71272376495
 30
669.2913385826774
 41
0.9416357303282252
  0
POLYLINE
  5
4FB
330
1F
100
AcDbEntity
  8
Default
100
AcDb2dPolyline
 66
     1
 10
0.0
 20
0.0
 30
669.2913385826773
  0
VERTEX
  5
4FC
330
4FB
100
AcDbEntity
  8
Default
100
AcDbVertex
100
AcDb2dVertex
 10
-962.1243771510094
 20
232.0235586574319
 30
669.2913385826773
  0
VERTEX
  5
4FD
330
4FB
100
AcDbEntity
  8
Default
100
AcDbVertex
100
AcDb2dVertex
 10
-960.0554792565276
 20
233.2422326421703
 30
669.2913385826773
  0
SEQEND
  5
4FE
330
4FB
100
AcDbEntity
  8
Default
  0
SPLINE
  5
4FF
330
1F
100
AcDbEntity
  8
Default
100
AcDbSpline
210
0.0
220
0.0
230
1.0
 70
    12
 71
     2
 72
     8
 73
     5
 74
     0
 42
0.000000001
 43
0.0000000001
 40
0.0
 40
0.0
 40
0.0
 40
0.0657021758075414
 40
0.0657021758075414
 40
0.5513779496561005
 40
0.5513779496561005
 40
0.5513779496561005
 10
-960.0554792565276
 20
233.2422326421703
 30
669.2913385826773
 41
1.0
 10
-959.3331731841431
 20
233.6675550009251
 30
669.2913385826773
 41
0.9938146782922427
 10
-958.5351334780721
 20
233.922846996372
 30
669.2913385826773
 41
1.0
 10
-951.0659203461587
 20
236.1844134944451
 30
669.2913385826773
 41
0.7132736251541142
 10
-948.6738512863089
 20
228.755965914491
 30
669.2913385826773
 41
1.0
  0
SPLINE
  5
500
330
1F
100
AcDbEntity
  8
Default
100
AcDbSpline
210
0.000000000000023
220
0.000000000000008
230
1.0
 70
    12
 71
     2
 72
     6
 73
     3
 74
     0
 42
0.000000001
 43
0.0000000001
 40
0.0
 40
0.0
 40
0.0
 40
0.3517776804954474
 40
0.3517776804954474
 40
0.3517776804954474
 10
-948.6738512863089
 20
228.755965914491
 30
669.2913385826773
 41
1.0
 10
-947.0074533287156
 20
223.947630645701
 30
669.2913385826773
 41
0.8116604165752045
 10
-950.7506222833949
 20
220.5000726093287
 30
669.2913385826774
 41
0.9416357303282252
  0
SPLINE
  5
501
330
1F
100
AcDbEntity
  8
Default
100
AcDbSpline
210
0.0
220
0.0
230
1.0
 70
    24
 71
     2
 72
     6
 73
     3
 74
     0
 42
0.000000001
 43
0.0000000001
 40
4.403114343305641
 40
4.403114343305641
 40
4.403114343305641
 40
4.523710136401241
 40
4.523710136401241
 40
4.523710136401241
 10
-1466.214894971662
 20
-211.0109657799356
 30
669.2913385826773
 10
-1467.541270530874
 20
-211.7767490660907
 30
669.2913385826773
 10
-1468.867646090086
 20
-212.542532352253
 30
669.2913385826773
  0
SPLINE
  5
502
330
1F
100
AcDbEntity
  8
Default
100
AcDbSpline
210
0.0
220
0.0
230
1.0
 70
    12
 71
     2
 72
     8
 73
     5
 74
     0
 42
0.000000001
 43
0.0000000001
 40
0.0
 40
0.0
 40
0.0
 40
0.4730574302815958
 40
0.4730574302815958
 40
0.9455180233888372
 40
0.9455180233888372
 40
0.9455180233888372
 10
-1468.867646090086
 20
-212.542532352253
 30
669.2913385826773
 41
1.0
 10
-1475.258933019097
 20
-216.7157375434316
 30
669.2913385826773
 41
0.7091869777201399
 10
-1471.12345990221
 20
-223.1315034584357
 30
669.2913385826773
 41
1.0
 10
-1467.472485118509
 20
-229.8421537517996
 30
669.2913385826773
 41
0.7071352214376397
 10
-1460.761365486826
 20
-226.1920230648092
 30
669.2913385826773
 41
1.0
  0
SPLINE
  5
503
330
1F
100
AcDbEntity
  8
Default
100
AcDbSpline
210
0.0
220
0.0
230
1.0
 70
    24
 71
     2
 72
     6
 73
     3
 74
     0
 42
0.000000001
 43
0.0000000001
 40
-4.466989253625452
 40
-4.466989253625452
 40
-4.466989253625452
 40
-3.611823149802035
 40
-3.611823149802035
 40
-3.611823149802035
 10
-1460.761365486826
 20
-226.1920230648092
 30
669.2913385826773
 10
-1451.355784928365
 20
-220.7617474296302
 30
669.2913385826773
 10
-1441.950204369907
 20
-215.3314717944585
 30
669.2913385826773
  0
SPLINE
  5
504
330
1F
100
AcDbEntity
  8
Default
100
AcDbSpline
210
0.0
220
0.0
230
1.0
 70
    24
 71
     2
 72
     6
 73
     3
 74
     0
 42
0.000000001
 43
0.0000000001
 40
4.403114343305639
 40
4.403114343305639
 40
4.403114343305639
 40
4.523710136401241
 40
4.523710136401241
 40
4.523710136401241
 10
-1466.214894971662
 20
211.7983146243033
 30
669.2913385826773
 10
-1467.541270530874
 20
212.5640979104584
 30
669.2913385826773
 10
-1468.867646090086
 20
213.3298811966171
 30
669.2913385826773
  0
SPLINE
  5
505
330
1F
100
AcDbEntity
  8
Default
100
AcDbSpline
210
0.0
220
0.0
230
1.0
 70
    12
 71
     2
 72
     8
 73
     5
 74
     0
 42
0.000000001
 43
0.0000000001
 40
0.0
 40
0.0
 40
0.0
 40
0.4730574302815958
 40
0.4730574302815958
 40
0.9455180233888372
 40
0.9455180233888372
 40
0.9455180233888372
 10
-1468.867646090086
 20
213.3298811966171
 30
669.2913385826773
 41
1.0
 10
-1475.258933019097
 20
217.5030863877993
 30
669.2913385826773
 41
0.7091869777201399
 10
-1471.12345990221
 20
223.9188523028107
 30
669.2913385826773
 41
1.0
 10
-1467.472485118509
 20
230.6295025961673
 30
669.2913385826773
 41
0.7071352214376397
 10
-1460.761365486826
 20
226.9793719091805
 30
669.2913385826773
 41
1.0
  0
SPLINE
  5
506
330
1F
100
AcDbEntity
  8
Default
100
AcDbSpline
210
0.0
220
0.0
230
1.0
 70
    24
 71
     2
 72
     6
 73
     3
 74
     0
 42
0.000000001
 43
0.0000000001
 40
-4.466989253625452
 40
-4.466989253625452
 40
-4.466989253625452
 40
-3.611823149802035
 40
-3.611823149802035
 40
-3.611823149802035
 10
-1460.761365486826
 20
226.9793719091805
 30
669.2913385826773
 10
-1451.355784928365
 20
221.5490962740015
 30
669.2913385826773
 10
-1441.950204369907
 20
216.1188206388225
 30
669.2913385826773
  0
ENDSEC
  0
SECTION
  2
OBJECTS
  0
DICTIONARY
  5
C
330
0
100
AcDbDictionary
281
     1
  3
ACAD_CIP_PREVIOUS_PRODUCT_INFO
350
E2
  3
ACAD_COLOR
350
DA
  3
ACAD_DETAILVIEWSTYLE
350
D7
  3
ACAD_GROUP
350
D
  3
ACAD_LAYOUT
350
1A
  3
ACAD_MATERIAL
350
43
  3
ACAD_MLEADERSTYLE
350
D6
  3
ACAD_MLINESTYLE
350
17
  3
ACAD_PLOTSETTINGS
350
19
  3
ACAD_PLOTSTYLENAME
350
E
  3
ACAD_SCALELIST
350
47
  3
ACAD_SECTIONVIEWSTYLE
350
D8
  3
ACAD_TABLESTYLE
350
D5
  3
ACAD_VISUALSTYLE
350
2A
  3
ACDB_RECOMPOSE_DATA
350
54B
  3
AcDbVariableDictionary
350
9C
  0
DICTIONARY
  5
9A
330
8
100
AcDbDictionary
280
     1
281
     1
  0
SUN
  5
69
330
29
100
AcDbSun
 90
        1
290
     0
 63
     7
421
 16777215
 40
1.0
291
     1
 91
  2455826
 92
 54000000
292
     0
 70
     0
 71
   256
280
     1
  0
DICTIONARY
  5
3AE
330
2
100
AcDbDictionary
280
     1
281
     1
  3
ACAD_LAYERSTATES
360
3AF
  0
DICTIONARY
  5
E3
330
10
100
AcDbDictionary
280
     1
281
     1
  3
ADSK_XREC_LAYER_RECONCILED
360
E4
  0
DICTIONARY
  5
FD
330
FC
100
AcDbDictionary
280
     1
281
     1
  0
DICTIONARY
  5
2FD
330
1F
100
AcDbDictionary
280
     1
281
     1
  3
ACAD_SORTENTS
360
2FE
  0
XRECORD
  5
E2
102
{ACAD_REACTORS
330
C
102
}
330
C
100
AcDbXrecord
280
     1
300
ACD
300
2016
300
ACD_F_S
  0
DICTIONARY
  5
DA
102
{ACAD_REACTORS
330
C
102
}
330
C
100
AcDbDictionary
281
     1
  0
DICTIONARY
  5
D7
102
{ACAD_REACTORS
330
C
102
}
330
C
100
AcDbDictionary
281
     1
  3
Imperial24
350
DE
  0
DICTIONARY
  5
D
102
{ACAD_REACTORS
330
C
102
}
330
C
100
AcDbDictionary
281
     1
  0
DICTIONARY
  5
1A
102
{ACAD_REACTORS
330
C
102
}
330
C
100
AcDbDictionary
281
     1
  3
Layout1
350
1E
  3
Layout2
350
26
  3
Model
350
22
  0
DICTIONARY
  5
43
102
{ACAD_REACTORS
330
C
102
}
330
C
100
AcDbDictionary
281
     1
  3
ByBlock
350
45
  3
ByLayer
350
44
  3
Global
350
46
  0
DICTIONARY
  5
D6
102
{ACAD_REACTORS
330
C
102
}
330
C
100
AcDbDictionary
281
     1
  3
Standard
350
DC
  0
DICTIONARY
  5
17
102
{ACAD_REACTORS
330
C
102
}
330
C
100
AcDbDictionary
281
     1
  3
Standard
350
18
  0
DICTIONARY
  5
19
102
{ACAD_REACTORS
330
C
102
}
330
C
100
AcDbDictionary
281
     1
  0
ACDBDICTIONARYWDFLT
  5
E
102
{ACAD_REACTORS
330
C
102
}
330
C
100
AcDbDictionary
281
     1
  3
Normal
350
F
100
AcDbDictionaryWithDefault
340
F
  0
DICTIONARY
  5
47
102
{ACAD_REACTORS
330
C
102
}
330
C
100
AcDbDictionary
281
     1
  3
A0
350
48
  3
A1
350
49
  3
A2
350
4A
  3
A3
350
4B
  3
A4
350
4C
  3
A5
350
4D
  3
A6
350
4E
  3
A7
350
4F
  3
A8
350
50
  3
A9
350
51
  3
B0
350
52
  3
B1
350
53
  3
B2
350
54
  3
B3
350
55
  3
B4
350
56
  3
B5
350
57
  3
B6
350
58
  3
B7
350
59
  3
B8
350
5A
  3
B9
350
5B
  3
C0
350
5C
  3
C1
350
5D
  3
C2
350
5E
  3
C3
350
5F
  3
C4
350
60
  3
C5
350
61
  3
C6
350
62
  3
C7
350
63
  3
C8
350
64
  3
C9
350
65
  3
D0
350
66
  3
D1
350
67
  3
D2
350
68
  0
DICTIONARY
  5
D8
102
{ACAD_REACTORS
330
C
102
}
330
C
100
AcDbDictionary
281
     1
  3
Imperial24
350
DD
  0
DICTIONARY
  5
D5
102
{ACAD_REACTORS
330
C
102
}
330
C
100
AcDbDictionary
281
     1
  3
Standard
350
DB
  0
DICTIONARY
  5
2A
102
{ACAD_REACTORS
330
C
102
}
330
C
100
AcDbDictionary
281
     1
  3
2dWireframe
350
2F
  3
3D Hidden
350
FE
  3
3dWireframe
350
FF
  3
Basic
350
32
  3
Brighten
350
36
  3
ColorChange
350
3A
  3
Conceptual
350
34
  3
Dim
350
35
  3
EdgeColorOff
350
3D
  3
Facepattern
350
39
  3
Flat
350
2B
  3
FlatWithEdges
350
2C
  3
Gouraud
350
2D
  3
GouraudWithEdges
350
2E
  3
Hidden
350
31
  3
JitterOff
350
3B
  3
Linepattern
350
38
  3
OverhangOff
350
3C
  3
Realistic
350
33
  3
Shaded
350
42
  3
Shaded with edges
350
41
  3
Shades of Gray
350
3E
  3
Sketchy
350
3F
  3
Thicken
350
37
  3
Wireframe
350
30
  3
X-Ray
350
40
  0
XRECORD
  5
54B
102
{ACAD_REACTORS
330
C
102
}
330
C
100
AcDbXrecord
280
     1
 90
        1
330
DB
330
DD
330
DE
  0
DICTIONARY
  5
9C
102
{ACAD_REACTORS
330
C
102
}
330
C
100
AcDbDictionary
281
     1
  3
CANNOSCALE
350
9D
  3
CMLEADERSTYLE
350
EE
  3
CTABLESTYLE
350
ED
  3
CVIEWDETAILSTYLE
350
EF
  3
CVIEWSECTIONSTYLE
350
F0
  3
LAYEREVAL
350
F2
  3
LAYERNOTIFY
350
F3
  3
LIGHTINGUNITS
350
F1
  3
MSLTSCALE
350
9E
  0
DICTIONARY
  5
3AF
102
{ACAD_REACTORS
330
3AE
102
}
330
3AE
100
AcDbDictionary
281
     1
  0
XRECORD
  5
E4
102
{ACAD_REACTORS
330
E3
102
}
330
E3
100
AcDbXrecord
280
     1
290
     1
  0
SORTENTSTABLE
  5
2FE
102
{ACAD_REACTORS
330
2FD
102
}
330
2FD
100
AcDbSortentsTable
330
1F
331
203
  5
2C7
331
204
  5
2C8
331
205
  5
2C9
331
206
  5
2CA
331
207
  5
2CB
331
208
  5
2CC
331
209
  5
2CD
331
202
  5
2C6
  0
ACDBDETAILVIEWSTYLE
  5
DE
102
{ACAD_XDICTIONARY
360
EA
102
}
102
{ACAD_REACTORS
330
D7
102
}
330
D7
100
AcDbModelDocViewStyle
 70
     0
  3
Imperial24
290
     0
100
AcDbDetailViewStyle
 70
     0
 71
     0
 90
        3
 71
     1
340
11
 62
   256
 40
0.24
340
0
 62
   256
 40
0.24
300

 40
0.36
280
     3
 71
     2
340
16
 90
       25
 62
   256
 71
     3
340
11
 62
   256
 40
0.24
 90
        1
 40
0.75
 90
        1
300
%<\AcVar ViewType \f "%tc1">% %<\AcVar ViewDetailId>%\PSCALE %<\AcVar ViewScale \f "%sn">%
 71
     4
340
16
 90
       25
 62
   256
340
16
 90
       25
 62
   256
280
     0
  0
LAYOUT
  5
1E
102
{ACAD_REACTORS
330
1A
102
}
330
1A
100
AcDbPlotSettings
  1

  2
none_device
  4

  6

 40
0.0
 41
0.0
 42
0.0
 43
0.0
 44
0.0
 45
0.0
 46
0.0
 47
0.0
 48
0.0
 49
0.0
140
0.0
141
0.0
142
1.0
143
1.0
 70
   688
 72
     0
 73
     0
 74
     5
  7

 75
    16
147
1.0
 76
     0
 77
     2
 78
   300
148
0.0
149
0.0
100
AcDbLayout
  1
Layout1
 70
     1
 71
     1
 10
0.0
 20
0.0
 11
12.0
 21
9.0
 12
0.0
 22
0.0
 32
0.0
 14
1.000000000000000E+20
 24
1.000000000000000E+20
 34
1.000000000000000E+20
 15
-1.000000000000000E+20
 25
-1.000000000000000E+20
 35
-1.000000000000000E+20
146
0.0
 13
0.0
 23
0.0
 33
0.0
 16
1.0
 26
0.0
 36
0.0
 17
0.0
 27
1.0
 37
0.0
 76
     0
330
1B
  0
LAYOUT
  5
26
102
{ACAD_REACTORS
330
1A
102
}
330
1A
100
AcDbPlotSettings
  1

  2
none_device
  4

  6

 40
0.0
 41
0.0
 42
0.0
 43
0.0
 44
0.0
 45
0.0
 46
0.0
 47
0.0
 48
0.0
 49
0.0
140
0.0
141
0.0
142
1.0
143
1.0
 70
   688
 72
     0
 73
     0
 74
     5
  7

 75
    16
147
1.0
 76
     0
 77
     2
 78
   300
148
0.0
149
0.0
100
AcDbLayout
  1
Layout2
 70
     1
 71
     2
 10
0.0
 20
0.0
 11
0.0
 21
0.0
 12
0.0
 22
0.0
 32
0.0
 14
0.0
 24
0.0
 34
0.0
 15
0.0
 25
0.0
 35
0.0
146
0.0
 13
0.0
 23
0.0
 33
0.0
 16
1.0
 26
0.0
 36
0.0
 17
0.0
 27
1.0
 37
0.0
 76
     0
330
23
  0
LAYOUT
  5
22
102
{ACAD_REACTORS
330
1A
102
}
330
1A
100
AcDbPlotSettings
  1

  2
none_device
  4
Letter_(8.50_x_11.00_Inches)
  6

 40
6.349999999999999
 41
6.349999999999999
 42
6.350005079999999
 43
6.350005079999999
 44
215.9
 45
279.4
 46
0.0
 47
0.0
 48
0.0
 49
0.0
140
0.0
141
0.0
142
1.0
143
1.0
 70
  1712
 72
     0
 73
     0
 74
     0
  7

 75
     0
147
1.0
 76
     0
 77
     2
 78
   300
148
0.0
149
0.0
100
AcDbLayout
  1
Model
 70
     1
 71
     0
 10
0.0
 20
0.0
 11
12.0
 21
9.0
 12
0.0
 22
0.0
 32
0.0
 14
-1721.004153013703
 24
-1721.004153013703
 34
-0.0000000000006416
 15
1721.004153013703
 25
1721.004153013703
 35
1012.909489665011
146
0.0
 13
0.0
 23
0.0
 33
0.0
 16
1.0
 26
0.0
 36
0.0
 17
0.0
 27
1.0
 37
0.0
 76
     0
330
1F
331
29
  0
MATERIAL
  5
45
102
{ACAD_REACTORS
330
43
102
}
330
43
100
AcDbMaterial
  1
ByBlock
 73
     1
 78
     1
172
     1
176
     1
270
     1
274
     1
  0
MATERIAL
  5
44
102
{ACAD_REACTORS
330
43
102
}
330
43
100
AcDbMaterial
  1
ByLayer
 73
     1
 78
     1
172
     1
176
     1
270
     1
274
     1
  0
MATERIAL
  5
46
102
{ACAD_REACTORS
330
43
102
}
330
43
100
AcDbMaterial
  1
Global
 73
     1
 78
     1
172
     1
176
     1
270
     1
274
     1
  0
MLEADERSTYLE
  5
DC
102
{ACAD_REACTORS
330
D6
102
}
330
D6
100
AcDbMLeaderStyle
179
     2
170
     2
171
     1
172
     0
 90
        2
 40
0.0
 41
0.0
173
     1
 91
-1056964608
340
14
 92
       -2
290
     1
 42
0.09
291
     1
 43
0.36
  3
Standard
 44
0.18
300

342
11
174
     1
178
     6
175
     1
176
     0
 93
-1056964608
 45
0.18
292
     0
297
     0
 46
0.18
 94
-1056964608
 47
1.0
 49
1.0
140
1.0
293
     1
141
0.0
294
     1
177
     0
142
1.0
295
     1
296
     0
143
0.125
271
     0
272
     9
273
     9
298
     1
  0
MLINESTYLE
  5
18
102
{ACAD_REACTORS
330
17
102
}
330
17
100
AcDbMlineStyle
  2
STANDARD
 70
     0
  3

 62
   256
 51
90.0
 52
90.0
 71
     2
 49
0.5
 62
   256
  6
BYLAYER
 49
-0.5
 62
   256
  6
BYLAYER
  0
ACDBPLACEHOLDER
  5
F
102
{ACAD_REACTORS
330
E
102
}
330
E
  0
SCALE
  5
48
102
{ACAD_REACTORS
330
47
102
}
330
47
100
AcDbScale
 70
     0
300
1:1
140
1.0
141
1.0
290
     1
  0
SCALE
  5
49
102
{ACAD_REACTORS
330
47
102
}
330
47
100
AcDbScale
 70
     0
300
1:2
140
1.0
141
2.0
290
     0
  0
SCALE
  5
4A
102
{ACAD_REACTORS
330
47
102
}
330
47
100
AcDbScale
 70
     0
300
1:4
140
1.0
141
4.0
290
     0
  0
SCALE
  5
4B
102
{ACAD_REACTORS
330
47
102
}
330
47
100
AcDbScale
 70
     0
300
1:5
140
1.0
141
5.0
290
     0
  0
SCALE
  5
4C
102
{ACAD_REACTORS
330
47
102
}
330
47
100
AcDbScale
 70
     0
300
1:8
140
1.0
141
8.0
290
     0
  0
SCALE
  5
4D
102
{ACAD_REACTORS
330
47
102
}
330
47
100
AcDbScale
 70
     0
300
1:10
140
1.0
141
10.0
290
     0
  0
SCALE
  5
4E
102
{ACAD_REACTORS
330
47
102
}
330
47
100
AcDbScale
 70
     0
300
1:16
140
1.0
141
16.0
290
     0
  0
SCALE
  5
4F
102
{ACAD_REACTORS
330
47
102
}
330
47
100
AcDbScale
 70
     0
300
1:20
140
1.0
141
20.0
290
     0
  0
SCALE
  5
50
102
{ACAD_REACTORS
330
47
102
}
330
47
100
AcDbScale
 70
     0
300
1:30
140
1.0
141
30.0
290
     0
  0
SCALE
  5
51
102
{ACAD_REACTORS
330
47
102
}
330
47
100
AcDbScale
 70
     0
300
1:40
140
1.0
141
40.0
290
     0
  0
SCALE
  5
52
102
{ACAD_REACTORS
330
47
102
}
330
47
100
AcDbScale
 70
     0
300
1:50
140
1.0
141
50.0
290
     0
  0
SCALE
  5
53
102
{ACAD_REACTORS
330
47
102
}
330
47
100
AcDbScale
 70
     0
300
1:100
140
1.0
141
100.0
290
     0
  0
SCALE
  5
54
102
{ACAD_REACTORS
330
47
102
}
330
47
100
AcDbScale
 70
     0
300
2:1
140
2.0
141
1.0
290
     0
  0
SCALE
  5
55
102
{ACAD_REACTORS
330
47
102
}
330
47
100
AcDbScale
 70
     0
300
4:1
140
4.0
141
1.0
290
     0
  0
SCALE
  5
56
102
{ACAD_REACTORS
330
47
102
}
330
47
100
AcDbScale
 70
     0
300
8:1
140
8.0
141
1.0
290
     0
  0
SCALE
  5
57
102
{ACAD_REACTORS
330
47
102
}
330
47
100
AcDbScale
 70
     0
300
10:1
140
10.0
141
1.0
290
     0
  0
SCALE
  5
58
102
{ACAD_REACTORS
330
47
102
}
330
47
100
AcDbScale
 70
     0
300
100:1
140
100.0
141
1.0
290
     0
  0
SCALE
  5
59
102
{ACAD_REACTORS
330
47
102
}
330
47
100
AcDbScale
 70
     0
300
1/128" = 1'-0"
140
0.0078125
141
12.0
290
     0
  0
SCALE
  5
5A
102
{ACAD_REACTORS
330
47
102
}
330
47
100
AcDbScale
 70
     0
300
1/64" = 1'-0"
140
0.015625
141
12.0
290
     0
  0
SCALE
  5
5B
102
{ACAD_REACTORS
330
47
102
}
330
47
100
AcDbScale
 70
     0
300
1/32" = 1'-0"
140
0.03125
141
12.0
290
     0
  0
SCALE
  5
5C
102
{ACAD_REACTORS
330
47
102
}
330
47
100
AcDbScale
 70
     0
300
1/16" = 1'-0"
140
0.0625
141
12.0
290
     0
  0
SCALE
  5
5D
102
{ACAD_REACTORS
330
47
102
}
330
47
100
AcDbScale
 70
     0
300
3/32" = 1'-0"
140
0.09375
141
12.0
290
     0
  0
SCALE
  5
5E
102
{ACAD_REACTORS
330
47
102
}
330
47
100
AcDbScale
 70
     0
300
1/8" = 1'-0"
140
0.125
141
12.0
290
     0
  0
SCALE
  5
5F
102
{ACAD_REACTORS
330
47
102
}
330
47
100
AcDbScale
 70
     0
300
3/16" = 1'-0"
140
0.1875
141
12.0
290
     0
  0
SCALE
  5
60
102
{ACAD_REACTORS
330
47
102
}
330
47
100
AcDbScale
 70
     0
300
1/4" = 1'-0"
140
0.25
141
12.0
290
     0
  0
SCALE
  5
61
102
{ACAD_REACTORS
330
47
102
}
330
47
100
AcDbScale
 70
     0
300
3/8" = 1'-0"
140
0.375
141
12.0
290
     0
  0
SCALE
  5
62
102
{ACAD_REACTORS
330
47
102
}
330
47
100
AcDbScale
 70
     0
300
1/2" = 1'-0"
140
0.5
141
12.0
290
     0
  0
SCALE
  5
63
102
{ACAD_REACTORS
330
47
102
}
330
47
100
AcDbScale
 70
     0
300
3/4" = 1'-0"
140
0.75
141
12.0
290
     0
  0
SCALE
  5
64
102
{ACAD_REACTORS
330
47
102
}
330
47
100
AcDbScale
 70
     0
300
1" = 1'-0"
140
1.0
141
12.0
290
     0
  0
SCALE
  5
65
102
{ACAD_REACTORS
330
47
102
}
330
47
100
AcDbScale
 70
     0
300
1-1/2" = 1'-0"
140
1.5
141
12.0
290
     0
  0
SCALE
  5
66
102
{ACAD_REACTORS
330
47
102
}
330
47
100
AcDbScale
 70
     0
300
3" = 1'-0"
140
3.0
141
12.0
290
     0
  0
SCALE
  5
67
102
{ACAD_REACTORS
330
47
102
}
330
47
100
AcDbScale
 70
     0
300
6" = 1'-0"
140
6.0
141
12.0
290
     0
  0
SCALE
  5
68
102
{ACAD_REACTORS
330
47
102
}
330
47
100
AcDbScale
 70
     0
300
1'-0" = 1'-0"
140
12.0
141
12.0
290
     0
  0
ACDBSECTIONVIEWSTYLE
  5
DD
102
{ACAD_XDICTIONARY
360
E8
102
}
102
{ACAD_REACTORS
330
D8
102
}
330
D8
100
AcDbModelDocViewStyle
 70
     0
  3
Imperial24
290
     0
100
AcDbSectionViewStyle
 70
     0
 71
     0
 90
       78
 71
     1
340
11
 62
   256
 40
0.24
340
0
340
0
 62
   256
 40
0.24
300
I, O, Q, S, X, Z
 40
0.48
 90
        3
 40
0.18
 90
        1
 71
     2
340
16
 90
       25
 62
   256
340
16
 90
       50
 62
   256
 40
0.24
 40
0.0
 40
0.24
 71
     3
340
11
 62
   256
 40
0.24
 90
        1
 40
0.75
 90
        1
300
%<\AcVar ViewType \f "%tc1">% %<\AcVar ViewSectionStartId>%-%<\AcVar ViewSectionEndId>%\PSCALE %<\AcVar ViewScale \f "%sn">%
 71
     4
 62
   256
 62
   257
300
ANSI31
 40
1.0
 90
        0
290
     0
290
     0
 90
        6
 40
0.0
 40
1.570796326794896
 40
0.2617993877991494
 40
1.308996938995747
 40
-0.2617993877991494
 40
1.832595714594046
  0
TABLESTYLE
  5
DB
102
{ACAD_XDICTIONARY
360
547
102
}
102
{ACAD_REACTORS
330
D5
102
}
330
D5
100
AcDbTableStyle
280
     0
  3
Standard
 70
     0
 71
     0
 40
0.06
 41
0.06
280
     0
281
     0
  7
Standard
140
0.18
170
     2
 62
     0
 63
     7
283
     0
 90
      512
 91
        0
  1

274
    -2
284
     1
 64
     0
275
    -2
285
     1
 65
     0
276
    -2
286
     1
 66
     0
277
    -2
287
     1
 67
     0
278
    -2
288
     1
 68
     0
279
    -2
289
     1
 69
     0
  7
Standard
140
0.25
170
     5
 62
     0
 63
     7
283
     0
 90
      512
 91
        0
  1

274
    -2
284
     1
 64
     0
275
    -2
285
     1
 65
     0
276
    -2
286
     1
 66
     0
277
    -2
287
     1
 67
     0
278
    -2
288
     1
 68
     0
279
    -2
289
     1
 69
     0
  7
Standard
140
0.18
170
     5
 62
     0
 63
     7
283
     0
 90
      512
 91
        0
  1

274
    -2
284
     1
 64
     0
275
    -2
285
     1
 65
     0
276
    -2
286
     1
 66
     0
277
    -2
287
     1
 67
     0
278
    -2
288
     1
 68
     0
279
    -2
289
     1
 69
     0
  0
VISUALSTYLE
  5
2F
102
{ACAD_REACTORS
330
2A
102
}
330
2A
100
AcDbVisualStyle
  2
2dWireframe
 70
     4
177
     3
291
     0
 70
    58
 90
        0
176
     1
 90
        2
176
     1
 90
        0
176
     1
 90
        0
176
     1
 40
0.6
176
     1
 40
30.0
176
     1
 62
     7
420
 16777215
176
     1
 90
        1
176
     1
 90
        4
176
     1
 62
     7
176
     1
 62
   257
176
     1
 90
        1
176
     1
 90
        1
176
     1
 40
1.0
176
     1
 90
        0
176
     1
 62
   257
176
     1
 40
1.0
176
     1
 90
        1
176
     1
 90
        6
176
     1
 90
        2
176
     1
 62
     7
176
     1
 90
        5
176
     1
 90
        0
176
     1
 90
        0
176
     1
290
     0
176
     1
 90
        1
176
     1
 40
0.0
176
     1
 90
        0
176
     1
290
     1
176
     1
290
     1
176
     1
290
     0
176
     1
290
     0
176
     1
290
     0
176
     1
290
     0
176
     1
290
     0
176
     1
290
     0
176
     1
290
     0
176
     1
 90
       50
176
     1
 40
0.0
176
     1
 40
1.0
176
     1
 90
        0
176
     1
 62
    18
420
        0
176
     1
 90
       50
176
     1
 90
        3
176
     1
 62
     5
420
      255
176
     1
290
     0
176
     1
 90
       50
176
     1
 90
       50
176
     1
 90
       50
176
     1
290
     0
176
     1
 90
       50
176
     1
 62
   256
176
     0
 40
1.0
176
     0
 90
        2
176
     1
  1
strokes_ogs.tif
176
     1
290
     0
176
     1
 40
1.0
176
     1
 40
1.0
176
     1
  0
VISUALSTYLE
  5
FE
102
{ACAD_REACTORS
330
2A
102
}
330
2A
100
AcDbVisualStyle
  2

 70
     6
177
     3
291
     0
 70
    58
 90
        1
176
     1
 90
        2
176
     1
 90
        2
176
     1
 90
        0
176
     1
 40
0.6
176
     1
 40
30.0
176
     1
 62
     7
420
 16777215
176
     1
 90
        2
176
     1
 90
        2
176
     1
 62
     7
176
     1
 62
   257
176
     1
 90
        2
176
     1
 90
        1
176
     1
 40
40.0
176
     1
 90
        0
176
     1
 62
   257
176
     1
 40
1.0
176
     1
 90
        1
176
     1
 90
        6
176
     1
 90
        2
176
     1
 62
     7
176
     1
 90
        3
176
     1
 90
        0
176
     1
 90
        0
176
     1
290
     0
176
     1
 90
        1
176
     1
 40
0.0
176
     1
 90
        0
176
     1
290
     0
176
     1
290
     1
176
     1
290
     1
176
     1
290
     0
176
     1
290
     0
176
     1
290
     0
176
     1
290
     0
176
     1
290
     0
176
     1
290
     0
176
     1
 90
       50
176
     1
 40
0.0
176
     1
 40
1.0
176
     1
 90
        0
176
     1
 62
    18
420
        0
176
     1
 90
       50
176
     1
 90
        3
176
     1
 62
     5
420
      255
176
     1
290
     0
176
     1
 90
       50
176
     1
 90
       50
176
     1
 90
       50
176
     1
290
     0
176
     1
 90
       50
176
     1
 62
   256
176
     0
 40
1.0
176
     0
 90
        2
176
     1
  1
strokes_ogs.tif
176
     1
290
     0
176
     1
 40
1.0
176
     1
 40
1.0
176
     1
  0
VISUALSTYLE
  5
FF
102
{ACAD_REACTORS
330
2A
102
}
330
2A
100
AcDbVisualStyle
  2

 70
     5
177
     3
291
     0
 70
    58
 90
        0
176
     1
 90
        2
176
     1
 90
        0
176
     1
 90
        0
176
     1
 40
0.6
176
     1
 40
30.0
176
     1
 62
     7
420
 16777215
176
     1
 90
        1
176
     1
 90
        4
176
     1
 62
     7
176
     1
 62
   257
176
     1
 90
        1
176
     1
 90
        1
176
     1
 40
1.0
176
     1
 90
        0
176
     1
 62
   257
176
     1
 40
1.0
176
     1
 90
        1
176
     1
 90
        6
176
     1
 90
        2
176
     1
 62
     7
176
     1
 90
        5
176
     1
 90
        0
176
     1
 90
        0
176
     1
290
     0
176
     1
 90
        1
176
     1
 40
0.0
176
     1
 90
        0
176
     1
290
     0
176
     1
290
     1
176
     1
290
     1
176
     1
290
     0
176
     1
290
     0
176
     1
290
     0
176
     1
290
     0
176
     1
290
     0
176
     1
290
     0
176
     1
 90
       50
176
     1
 40
0.0
176
     1
 40
1.0
176
     1
 90
        0
176
     1
 62
    18
420
        0
176
     1
 90
       50
176
     1
 90
        3
176
     1
 62
     5
420
      255
176
     1
290
     0
176
     1
 90
       50
176
     1
 90
       50
176
     1
 90
       50
176
     1
290
     0
176
     1
 90
       50
176
     1
 62
   256
176
     0
 40
1.0
176
     0
 90
        2
176
     1
  1
strokes_ogs.tif
176
     1
290
     0
176
     1
 40
1.0
176
     1
 40
1.0
176
     1
  0
VISUALSTYLE
  5
32
102
{ACAD_REACTORS
330
2A
102
}
330
2A
100
AcDbVisualStyle
  2
Basic
 70
     7
177
     3
291
     1
 70
    58
 90
        1
176
     1
 90
        0
176
     1
 90
        1
176
     1
 90
        0
176
     1
 40
0.6
176
     1
 40
30.0
176
     1
 62
     7
420
 16777215
176
     1
 90
        0
176
     1
 90
        4
176
     1
 62
     7
176
     1
 62
   257
176
     1
 90
        1
176
     1
 90
        1
176
     1
 40
1.0
176
     1
 90
        8
176
     1
 62
     7
176
     1
 40
1.0
176
     1
 90
        1
176
     1
 90
        6
176
     1
 90
        2
176
     1
 62
     7
176
     1
 90
        5
176
     1
 90
        0
176
     1
 90
        0
176
     1
290
     0
176
     1
 90
        1
176
     1
 40
0.0
176
     1
 90
        0
176
     1
290
     0
176
     1
290
     1
176
     1
290
     1
176
     1
290
     0
176
     1
290
     0
176
     1
290
     0
176
     1
290
     0
176
     1
290
     0
176
     1
290
     0
176
     1
 90
       50
176
     1
 40
0.0
176
     1
 40
1.0
176
     1
 90
        0
176
     1
 62
    18
420
        0
176
     1
 90
       50
176
     1
 90
        3
176
     1
 62
     5
420
      255
176
     1
290
     0
176
     1
 90
       50
176
     1
 90
       50
176
     1
 90
       50
176
     1
290
     0
176
     1
 90
       50
176
     1
 62
   256
176
     0
 40
1.0
176
     0
 90
        2
176
     1
  1
strokes_ogs.tif
176
     1
290
     0
176
     1
 40
1.0
176
     1
 40
1.0
176
     1
  0
VISUALSTYLE
  5
36
102
{ACAD_REACTORS
330
2A
102
}
330
2A
100
AcDbVisualStyle
  2
Brighten
 70
    12
177
     3
291
     1
 70
    58
 90
        2
176
     1
 90
        2
176
     1
 90
        0
176
     1
 90
        0
176
     1
 40
0.6
176
     1
 40
30.0
176
     1
 62
     7
420
 16777215
176
     1
 90
        1
176
     1
 90
        4
176
     1
 62
     7
176
     1
 62
   257
176
     1
 90
        1
176
     1
 90
        1
176
     1
 40
1.0
176
     1
 90
        8
176
     1
 62
     7
176
     1
 40
1.0
176
     1
 90
        1
176
     1
 90
        6
176
     1
 90
        2
176
     1
 62
     7
176
     1
 90
        5
176
     1
 90
        0
176
     1
 90
        0
176
     1
290
     0
176
     1
 90
        1
176
     1
 40
50.0
176
     1
 90
        0
176
     1
290
     0
176
     1
290
     1
176
     1
290
     1
176
     1
290
     0
176
     1
290
     0
176
     1
290
     0
176
     1
290
     0
176
     1
290
     0
176
     1
290
     0
176
     1
 90
       50
176
     1
 40
0.0
176
     1
 40
1.0
176
     1
 90
        0
176
     1
 62
    18
420
        0
176
     1
 90
       50
176
     1
 90
        3
176
     1
 62
     5
420
      255
176
     1
290
     0
176
     1
 90
       50
176
     1
 90
       50
176
     1
 90
       50
176
     1
290
     0
176
     1
 90
       50
176
     1
 62
   256
176
     0
 40
1.0
176
     0
 90
        2
176
     1
  1
strokes_ogs.tif
176
     1
290
     0
176
     1
 40
1.0
176
     1
 40
1.0
176
     1
  0
VISUALSTYLE
  5
3A
102
{ACAD_REACTORS
330
2A
102
}
330
2A
100
AcDbVisualStyle
  2
ColorChange
 70
    16
177
     3
291
     1
 70
    58
 90
        2
176
     1
 90
        2
176
     1
 90
        3
176
     1
 90
        0
176
     1
 40
0.6
176
     1
 40
30.0
176
     1
 62
     8
420
  8421504
176
     1
 90
        1
176
     1
 90
        4
176
     1
 62
     7
176
     1
 62
   257
176
     1
 90
        1
176
     1
 90
        1
176
     1
 40
1.0
176
     1
 90
        8
176
     1
 62
     8
420
  8421504
176
     1
 40
1.0
176
     1
 90
        1
176
     1
 90
        6
176
     1
 90
        2
176
     1
 62
     7
176
     1
 90
        5
176
     1
 90
        0
176
     1
 90
        0
176
     1
290
     0
176
     1
 90
        1
176
     1
 40
0.0
176
     1
 90
        0
176
     1
290
     0
176
     1
290
     1
176
     1
290
     1
176
     1
290
     0
176
     1
290
     0
176
     1
290
     0
176
     1
290
     0
176
     1
290
     0
176
     1
290
     0
176
     1
 90
       50
176
     1
 40
0.0
176
     1
 40
1.0
176
     1
 90
        0
176
     1
 62
    18
420
        0
176
     1
 90
       50
176
     1
 90
        3
176
     1
 62
     5
420
      255
176
     1
290
     0
176
     1
 90
       50
176
     1
 90
       50
176
     1
 90
       50
176
     1
290
     0
176
     1
 90
       50
176
     1
 62
   256
176
     0
 40
1.0
176
     0
 90
        2
176
     1
  1
strokes_ogs.tif
176
     1
290
     0
176
     1
 40
1.0
176
     1
 40
1.0
176
     1
  0
VISUALSTYLE
  5
34
102
{ACAD_REACTORS
330
2A
102
}
330
2A
100
AcDbVisualStyle
  2
Conceptual
 70
     9
177
     3
291
     0
 70
    58
 90
        3
176
     1
 90
        2
176
     1
 90
        0
176
     1
 90
        0
176
     1
 40
0.6
176
     1
 40
30.0
176
     1
 62
     7
420
 16777215
176
     1
 90
        2
176
     1
 90
        2
176
     1
 62
     7
176
     1
 62
   257
176
     1
 90
        1
176
     1
 90
        1
176
     1
 40
179.0
176
     1
 90
        8
176
     1
 62
     7
176
     1
 40
1.0
176
     1
 90
        1
176
     1
 90
        6
176
     1
 90
        2
176
     1
 62
     7
176
     1
 90
        3
176
     1
 90
        0
176
     1
 90
        0
176
     1
290
     0
176
     1
 90
        1
176
     1
 40
0.0
176
     1
 90
        0
176
     1
290
     0
176
     1
290
     1
176
     1
290
     1
176
     1
290
     0
176
     1
290
     0
176
     1
290
     0
176
     1
290
     0
176
     1
290
     0
176
     1
290
     0
176
     1
 90
       50
176
     1
 40
0.0
176
     1
 40
1.0
176
     1
 90
        0
176
     1
 62
    18
420
        0
176
     1
 90
       50
176
     1
 90
        3
176
     1
 62
     5
420
      255
176
     1
290
     0
176
     1
 90
       50
176
     1
 90
       50
176
     1
 90
       50
176
     1
290
     0
176
     1
 90
       50
176
     1
 62
   256
176
     0
 40
1.0
176
     0
 90
        2
176
     1
  1
strokes_ogs.tif
176
     1
290
     0
176
     1
 40
1.0
176
     1
 40
1.0
176
     1
  0
VISUALSTYLE
  5
35
102
{ACAD_REACTORS
330
2A
102
}
330
2A
100
AcDbVisualStyle
  2
Dim
 70
    11
177
     3
291
     1
 70
    58
 90
        2
176
     1
 90
        2
176
     1
 90
        0
176
     1
 90
        0
176
     1
 40
0.6
176
     1
 40
30.0
176
     1
 62
     7
420
 16777215
176
     1
 90
        1
176
     1
 90
        4
176
     1
 62
     7
176
     1
 62
   257
176
     1
 90
        1
176
     1
 90
        1
176
     1
 40
1.0
176
     1
 90
        8
176
     1
 62
     7
176
     1
 40
1.0
176
     1
 90
        1
176
     1
 90
        6
176
     1
 90
        2
176
     1
 62
     7
176
     1
 90
        5
176
     1
 90
        0
176
     1
 90
        0
176
     1
290
     0
176
     1
 90
        1
176
     1
 40
-50.0
176
     1
 90
        0
176
     1
290
     0
176
     1
290
     1
176
     1
290
     1
176
     1
290
     0
176
     1
290
     0
176
     1
290
     0
176
     1
290
     0
176
     1
290
     0
176
     1
290
     0
176
     1
 90
       50
176
     1
 40
0.0
176
     1
 40
1.0
176
     1
 90
        0
176
     1
 62
    18
420
        0
176
     1
 90
       50
176
     1
 90
        3
176
     1
 62
     5
420
      255
176
     1
290
     0
176
     1
 90
       50
176
     1
 90
       50
176
     1
 90
       50
176
     1
290
     0
176
     1
 90
       50
176
     1
 62
   256
176
     0
 40
1.0
176
     0
 90
        2
176
     1
  1
strokes_ogs.tif
176
     1
290
     0
176
     1
 40
1.0
176
     1
 40
1.0
176
     1
  0
VISUALSTYLE
  5
3D
102
{ACAD_REACTORS
330
2A
102
}
330
2A
100
AcDbVisualStyle
  2
EdgeColorOff
 70
    22
177
     3
291
     1
 70
    58
 90
        2
176
     0
 90
        2
176
     0
 90
        0
176
     0
 90
        0
176
     0
 40
0.6
176
     0
 40
30.0
176
     0
 62
     7
420
 16777215
176
     0
 90
        1
176
     0
 90
        4
176
     0
 62
     7
176
     0
 62
   257
176
     0
 90
        1
176
     0
 90
        1
176
     0
 40
1.0
176
     0
 90
        8
176
     2
 62
     7
176
     0
 40
1.0
176
     0
 90
        1
176
     0
 90
        6
176
     0
 90
        2
176
     0
 62
     7
176
     0
 90
        5
176
     0
 90
        0
176
     0
 90
        0
176
     0
290
     0
176
     0
 90
        1
176
     0
 40
0.0
176
     0
 90
        0
176
     0
290
     0
176
     0
290
     1
176
     0
290
     1
176
     0
290
     0
176
     0
290
     0
176
     0
290
     0
176
     0
290
     0
176
     0
290
     0
176
     0
290
     0
176
     0
 90
       50
176
     0
 40
0.0
176
     0
 40
1.0
176
     0
 90
        0
176
     0
 62
    18
420
        0
176
     0
 90
       50
176
     0
 90
        3
176
     0
 62
     5
420
      255
176
     0
290
     0
176
     0
 90
       50
176
     0
 90
       50
176
     0
 90
       50
176
     0
290
     0
176
     0
 90
       50
176
     0
 62
   256
176
     0
 40
1.0
176
     0
 90
        2
176
     0
  1
strokes_ogs.tif
176
     0
290
     0
176
     0
 40
1.0
176
     0
 40
1.0
176
     0
  0
VISUALSTYLE
  5
39
102
{ACAD_REACTORS
330
2A
102
}
330
2A
100
AcDbVisualStyle
  2
Facepattern
 70
    15
177
     3
291
     1
 70
    58
 90
        2
176
     1
 90
        2
176
     1
 90
        0
176
     1
 90
        0
176
     1
 40
0.6
176
     1
 40
30.0
176
     1
 62
     7
420
 16777215
176
     1
 90
        1
176
     1
 90
        4
176
     1
 62
     7
176
     1
 62
   257
176
     1
 90
        1
176
     1
 90
        1
176
     1
 40
1.0
176
     1
 90
        8
176
     1
 62
     7
176
     1
 40
1.0
176
     1
 90
        1
176
     1
 90
        6
176
     1
 90
        2
176
     1
 62
     7
176
     1
 90
        5
176
     1
 90
        0
176
     1
 90
        0
176
     1
290
     0
176
     1
 90
        1
176
     1
 40
0.0
176
     1
 90
        0
176
     1
290
     0
176
     1
290
     1
176
     1
290
     1
176
     1
290
     0
176
     1
290
     0
176
     1
290
     0
176
     1
290
     0
176
     1
290
     0
176
     1
290
     0
176
     1
 90
       50
176
     1
 40
0.0
176
     1
 40
1.0
176
     1
 90
        0
176
     1
 62
    18
420
        0
176
     1
 90
       50
176
     1
 90
        3
176
     1
 62
     5
420
      255
176
     1
290
     0
176
     1
 90
       50
176
     1
 90
       50
176
     1
 90
       50
176
     1
290
     0
176
     1
 90
       50
176
     1
 62
   256
176
     0
 40
1.0
176
     0
 90
        2
176
     1
  1
strokes_ogs.tif
176
     1
290
     0
176
     1
 40
1.0
176
     1
 40
1.0
176
     1
  0
VISUALSTYLE
  5
2B
102
{ACAD_REACTORS
330
2A
102
}
330
2A
100
AcDbVisualStyle
  2
Flat
 70
     0
177
     3
291
     1
 70
    58
 90
        2
176
     1
 90
        1
176
     1
 90
        1
176
     1
 90
        2
176
     1
 40
0.6
176
     1
 40
30.0
176
     1
 62
     7
420
 16777215
176
     1
 90
        0
176
     1
 90
        0
176
     1
 62
     7
176
     1
 62
   257
176
     1
 90
        1
176
     1
 90
        1
176
     1
 40
1.0
176
     1
 90
        8
176
     1
 62
     7
176
     1
 40
1.0
176
     1
 90
        1
176
     1
 90
        6
176
     1
 90
        2
176
     1
 62
     7
176
     1
 90
        5
176
     1
 90
        0
176
     1
 90
        0
176
     1
290
     0
176
     1
 90
       13
176
     1
 40
0.0
176
     1
 90
        0
176
     1
290
     0
176
     1
290
     1
176
     1
290
     1
176
     1
290
     0
176
     1
290
     0
176
     1
290
     0
176
     1
290
     0
176
     1
290
     0
176
     1
290
     0
176
     1
 90
       50
176
     1
 40
0.0
176
     1
 40
1.0
176
     1
 90
        0
176
     1
 62
    18
420
        0
176
     1
 90
       50
176
     1
 90
        3
176
     1
 62
     5
420
      255
176
     1
290
     0
176
     1
 90
       50
176
     1
 90
       50
176
     1
 90
       50
176
     1
290
     0
176
     1
 90
       50
176
     1
 62
   256
176
     0
 40
1.0
176
     0
 90
        2
176
     1
  1
strokes_ogs.tif
176
     1
290
     0
176
     1
 40
1.0
176
     1
 40
1.0
176
     1
  0
VISUALSTYLE
  5
2C
102
{ACAD_REACTORS
330
2A
102
}
330
2A
100
AcDbVisualStyle
  2
FlatWithEdges
 70
     1
177
     3
291
     1
 70
    58
 90
        2
176
     1
 90
        1
176
     1
 90
        1
176
     1
 90
        2
176
     1
 40
0.6
176
     1
 40
30.0
176
     1
 62
     7
420
 16777215
176
     1
 90
        1
176
     1
 90
        0
176
     1
 62
     7
176
     1
 62
   257
176
     1
 90
        1
176
     1
 90
        1
176
     1
 40
1.0
176
     1
 90
        0
176
     1
 62
   257
176
     1
 40
1.0
176
     1
 90
        1
176
     1
 90
        6
176
     1
 90
        2
176
     1
 62
     7
176
     1
 90
        5
176
     1
 90
        0
176
     1
 90
        0
176
     1
290
     0
176
     1
 90
       13
176
     1
 40
0.0
176
     1
 90
        0
176
     1
290
     0
176
     1
290
     1
176
     1
290
     1
176
     1
290
     0
176
     1
290
     0
176
     1
290
     0
176
     1
290
     0
176
     1
290
     0
176
     1
290
     0
176
     1
 90
       50
176
     1
 40
0.0
176
     1
 40
1.0
176
     1
 90
        0
176
     1
 62
    18
420
        0
176
     1
 90
       50
176
     1
 90
        3
176
     1
 62
     5
420
      255
176
     1
290
     0
176
     1
 90
       50
176
     1
 90
       50
176
     1
 90
       50
176
     1
290
     0
176
     1
 90
       50
176
     1
 62
   256
176
     0
 40
1.0
176
     0
 90
        2
176
     1
  1
strokes_ogs.tif
176
     1
290
     0
176
     1
 40
1.0
176
     1
 40
1.0
176
     1
  0
VISUALSTYLE
  5
2D
102
{ACAD_REACTORS
330
2A
102
}
330
2A
100
AcDbVisualStyle
  2
Gouraud
 70
     2
177
     3
291
     1
 70
    58
 90
        2
176
     1
 90
        2
176
     1
 90
        1
176
     1
 90
        2
176
     1
 40
0.6
176
     1
 40
30.0
176
     1
 62
     7
420
 16777215
176
     1
 90
        0
176
     1
 90
        0
176
     1
 62
     7
176
     1
 62
   257
176
     1
 90
        1
176
     1
 90
        1
176
     1
 40
1.0
176
     1
 90
        0
176
     1
 62
     7
176
     1
 40
1.0
176
     1
 90
        1
176
     1
 90
        6
176
     1
 90
        2
176
     1
 62
     7
176
     1
 90
        5
176
     1
 90
        0
176
     1
 90
        0
176
     1
290
     0
176
     1
 90
       13
176
     1
 40
0.0
176
     1
 90
        0
176
     1
290
     0
176
     1
290
     1
176
     1
290
     1
176
     1
290
     0
176
     1
290
     0
176
     1
290
     0
176
     1
290
     0
176
     1
290
     0
176
     1
290
     0
176
     1
 90
       50
176
     1
 40
0.0
176
     1
 40
1.0
176
     1
 90
        0
176
     1
 62
    18
420
        0
176
     1
 90
       50
176
     1
 90
        3
176
     1
 62
     5
420
      255
176
     1
290
     0
176
     1
 90
       50
176
     1
 90
       50
176
     1
 90
       50
176
     1
290
     0
176
     1
 90
       50
176
     1
 62
   256
176
     0
 40
1.0
176
     0
 90
        2
176
     1
  1
strokes_ogs.tif
176
     1
290
     0
176
     1
 40
1.0
176
     1
 40
1.0
176
     1
  0
VISUALSTYLE
  5
2E
102
{ACAD_REACTORS
330
2A
102
}
330
2A
100
AcDbVisualStyle
  2
GouraudWithEdges
 70
     3
177
     3
291
     1
 70
    58
 90
        2
176
     1
 90
        2
176
     1
 90
        1
176
     1
 90
        2
176
     1
 40
0.6
176
     1
 40
30.0
176
     1
 62
     7
420
 16777215
176
     1
 90
        1
176
     1
 90
        0
176
     1
 62
     7
176
     1
 62
   257
176
     1
 90
        1
176
     1
 90
        1
176
     1
 40
1.0
176
     1
 90
        0
176
     1
 62
   257
176
     1
 40
1.0
176
     1
 90
        1
176
     1
 90
        6
176
     1
 90
        2
176
     1
 62
     7
176
     1
 90
        5
176
     1
 90
        0
176
     1
 90
        0
176
     1
290
     0
176
     1
 90
       13
176
     1
 40
0.0
176
     1
 90
        0
176
     1
290
     0
176
     1
290
     1
176
     1
290
     1
176
     1
290
     0
176
     1
290
     0
176
     1
290
     0
176
     1
290
     0
176
     1
290
     0
176
     1
290
     0
176
     1
 90
       50
176
     1
 40
0.0
176
     1
 40
1.0
176
     1
 90
        0
176
     1
 62
    18
420
        0
176
     1
 90
       50
176
     1
 90
        3
176
     1
 62
     5
420
      255
176
     1
290
     0
176
     1
 90
       50
176
     1
 90
       50
176
     1
 90
       50
176
     1
290
     0
176
     1
 90
       50
176
     1
 62
   256
176
     0
 40
1.0
176
     0
 90
        2
176
     1
  1
strokes_ogs.tif
176
     1
290
     0
176
     1
 40
1.0
176
     1
 40
1.0
176
     1
  0
VISUALSTYLE
  5
31
102
{ACAD_REACTORS
330
2A
102
}
330
2A
100
AcDbVisualStyle
  2
Hidden
 70
     6
177
     3
291
     0
 70
    58
 90
        1
176
     1
 90
        2
176
     1
 90
        2
176
     1
 90
        0
176
     1
 40
0.6
176
     1
 40
30.0
176
     1
 62
     7
420
 16777215
176
     1
 90
        2
176
     1
 90
        2
176
     1
 62
     7
176
     1
 62
   257
176
     1
 90
        2
176
     1
 90
        1
176
     1
 40
40.0
176
     1
 90
        0
176
     1
 62
   257
176
     1
 40
1.0
176
     1
 90
        1
176
     1
 90
        6
176
     1
 90
        2
176
     1
 62
     7
176
     1
 90
        3
176
     1
 90
        0
176
     1
 90
        0
176
     1
290
     0
176
     1
 90
        1
176
     1
 40
0.0
176
     1
 90
        0
176
     1
290
     0
176
     1
290
     1
176
     1
290
     1
176
     1
290
     0
176
     1
290
     0
176
     1
290
     0
176
     1
290
     0
176
     1
290
     0
176
     1
290
     0
176
     1
 90
       50
176
     1
 40
0.0
176
     1
 40
1.0
176
     1
 90
        0
176
     1
 62
    18
420
        0
176
     1
 90
       50
176
     1
 90
        3
176
     1
 62
     5
420
      255
176
     1
290
     0
176
     1
 90
       50
176
     1
 90
       50
176
     1
 90
       50
176
     1
290
     0
176
     1
 90
       50
176
     1
 62
   256
176
     0
 40
1.0
176
     0
 90
        2
176
     1
  1
strokes_ogs.tif
176
     1
290
     0
176
     1
 40
1.0
176
     1
 40
1.0
176
     1
  0
VISUALSTYLE
  5
3B
102
{ACAD_REACTORS
330
2A
102
}
330
2A
100
AcDbVisualStyle
  2
JitterOff
 70
    20
177
     3
291
     1
 70
    58
 90
        2
176
     0
 90
        2
176
     0
 90
        0
176
     0
 90
        0
176
     0
 40
0.6
176
     0
 40
30.0
176
     0
 62
     7
420
 16777215
176
     0
 90
        1
176
     0
 90
        4
176
     0
 62
     7
176
     0
 62
   257
176
     0
 90
        1
176
     0
 90
        1
176
     0
 40
1.0
176
     0
 90
       10
176
     2
 62
     7
176
     0
 40
1.0
176
     0
 90
        1
176
     0
 90
        6
176
     0
 90
        2
176
     0
 62
     7
176
     0
 90
        5
176
     0
 90
        0
176
     0
 90
        0
176
     0
290
     0
176
     0
 90
        1
176
     0
 40
0.0
176
     0
 90
        0
176
     0
290
     0
176
     0
290
     1
176
     0
290
     1
176
     0
290
     0
176
     0
290
     0
176
     0
290
     0
176
     0
290
     0
176
     0
290
     0
176
     0
290
     0
176
     0
 90
       50
176
     0
 40
0.0
176
     0
 40
1.0
176
     0
 90
        0
176
     0
 62
    18
420
        0
176
     0
 90
       50
176
     0
 90
        3
176
     0
 62
     5
420
      255
176
     0
290
     0
176
     0
 90
       50
176
     0
 90
       50
176
     0
 90
       50
176
     0
290
     0
176
     0
 90
       50
176
     0
 62
   256
176
     0
 40
1.0
176
     0
 90
        2
176
     0
  1
strokes_ogs.tif
176
     0
290
     0
176
     0
 40
1.0
176
     0
 40
1.0
176
     0
  0
VISUALSTYLE
  5
38
102
{ACAD_REACTORS
330
2A
102
}
330
2A
100
AcDbVisualStyle
  2
Linepattern
 70
    14
177
     3
291
     1
 70
    58
 90
        2
176
     1
 90
        2
176
     1
 90
        0
176
     1
 90
        0
176
     1
 40
0.6
176
     1
 40
30.0
176
     1
 62
     7
420
 16777215
176
     1
 90
        1
176
     1
 90
        4
176
     1
 62
     7
176
     1
 62
   257
176
     1
 90
        7
176
     1
 90
        7
176
     1
 40
1.0
176
     1
 90
        8
176
     1
 62
     7
176
     1
 40
1.0
176
     1
 90
        1
176
     1
 90
        6
176
     1
 90
        2
176
     1
 62
     7
176
     1
 90
        5
176
     1
 90
        0
176
     1
 90
        0
176
     1
290
     0
176
     1
 90
        1
176
     1
 40
0.0
176
     1
 90
        0
176
     1
290
     0
176
     1
290
     1
176
     1
290
     1
176
     1
290
     0
176
     1
290
     0
176
     1
290
     0
176
     1
290
     0
176
     1
290
     0
176
     1
290
     0
176
     1
 90
       50
176
     1
 40
0.0
176
     1
 40
1.0
176
     1
 90
        0
176
     1
 62
    18
420
        0
176
     1
 90
       50
176
     1
 90
        3
176
     1
 62
     5
420
      255
176
     1
290
     0
176
     1
 90
       50
176
     1
 90
       50
176
     1
 90
       50
176
     1
290
     0
176
     1
 90
       50
176
     1
 62
   256
176
     0
 40
1.0
176
     0
 90
        2
176
     1
  1
strokes_ogs.tif
176
     1
290
     0
176
     1
 40
1.0
176
     1
 40
1.0
176
     1
  0
VISUALSTYLE
  5
3C
102
{ACAD_REACTORS
330
2A
102
}
330
2A
100
AcDbVisualStyle
  2
OverhangOff
 70
    21
177
     3
291
     1
 70
    58
 90
        2
176
     0
 90
        2
176
     0
 90
        0
176
     0
 90
        0
176
     0
 40
0.6
176
     0
 40
30.0
176
     0
 62
     7
420
 16777215
176
     0
 90
        1
176
     0
 90
        4
176
     0
 62
     7
176
     0
 62
   257
176
     0
 90
        1
176
     0
 90
        1
176
     0
 40
1.0
176
     0
 90
        9
176
     2
 62
     7
176
     0
 40
1.0
176
     0
 90
        1
176
     0
 90
        6
176
     0
 90
        2
176
     0
 62
     7
176
     0
 90
        5
176
     0
 90
        0
176
     0
 90
        0
176
     0
290
     0
176
     0
 90
        1
176
     0
 40
0.0
176
     0
 90
        0
176
     0
290
     0
176
     0
290
     1
176
     0
290
     1
176
     0
290
     0
176
     0
290
     0
176
     0
290
     0
176
     0
290
     0
176
     0
290
     0
176
     0
290
     0
176
     0
 90
       50
176
     0
 40
0.0
176
     0
 40
1.0
176
     0
 90
        0
176
     0
 62
    18
420
        0
176
     0
 90
       50
176
     0
 90
        3
176
     0
 62
     5
420
      255
176
     0
290
     0
176
     0
 90
       50
176
     0
 90
       50
176
     0
 90
       50
176
     0
290
     0
176
     0
 90
       50
176
     0
 62
   256
176
     0
 40
1.0
176
     0
 90
        2
176
     0
  1
strokes_ogs.tif
176
     0
290
     0
176
     0
 40
1.0
176
     0
 40
1.0
176
     0
  0
VISUALSTYLE
  5
33
102
{ACAD_REACTORS
330
2A
102
}
330
2A
100
AcDbVisualStyle
  2
Realistic
 70
     8
177
     3
291
     0
 70
    58
 90
        2
176
     1
 90
        3
176
     1
 90
        0
176
     1
 90
        2
176
     1
 40
0.6
176
     1
 40
30.0
176
     1
 62
     7
420
 16777215
176
     1
 90
        0
176
     1
 90
        0
176
     1
 62
     7
176
     1
 62
   257
176
     1
 90
        1
176
     1
 90
        1
176
     1
 40
1.0
176
     1
 90
        8
176
     1
 62
   257
176
     1
 40
1.0
176
     1
 90
        1
176
     1
 90
        6
176
     1
 90
        2
176
     1
 62
     7
176
     1
 90
        3
176
     1
 90
        0
176
     1
 90
        0
176
     1
290
     0
176
     1
 90
       13
176
     1
 40
0.0
176
     1
 90
        0
176
     1
290
     0
176
     1
290
     1
176
     1
290
     1
176
     1
290
     0
176
     1
290
     0
176
     1
290
     0
176
     1
290
     0
176
     1
290
     0
176
     1
290
     0
176
     1
 90
       50
176
     1
 40
0.0
176
     1
 40
1.0
176
     1
 90
        0
176
     1
 62
    18
420
        0
176
     1
 90
       50
176
     1
 90
        3
176
     1
 62
     5
420
      255
176
     1
290
     0
176
     1
 90
       50
176
     1
 90
       50
176
     1
 90
       50
176
     1
290
     0
176
     1
 90
       50
176
     1
 62
   256
176
     0
 40
1.0
176
     0
 90
        2
176
     1
  1
strokes_ogs.tif
176
     1
290
     0
176
     1
 40
1.0
176
     1
 40
1.0
176
     1
  0
VISUALSTYLE
  5
42
102
{ACAD_REACTORS
330
2A
102
}
330
2A
100
AcDbVisualStyle
  2
Shaded
 70
    27
177
     3
291
     0
 70
    58
 90
        2
176
     1
 90
        2
176
     1
 90
        1
176
     1
 90
        2
176
     1
 40
0.6
176
     1
 40
30.0
176
     1
 62
     7
420
 16777215
176
     1
 90
        0
176
     1
 90
        4
176
     1
 62
     7
176
     1
 62
   257
176
     1
 90
        1
176
     1
 90
        1
176
     1
 40
1.0
176
     1
 90
        8
176
     1
 62
   257
176
     1
 40
1.0
176
     1
 90
        1
176
     1
 90
        6
176
     1
 90
        2
176
     1
 62
     8
420
  7895160
176
     1
 90
        3
176
     1
 90
        0
176
     1
 90
        0
176
     1
290
     0
176
     1
 90
        5
176
     1
 40
0.0
176
     1
 90
        0
176
     1
290
     0
176
     1
290
     1
176
     1
290
     1
176
     1
290
     0
176
     1
290
     0
176
     1
290
     0
176
     1
290
     0
176
     1
290
     0
176
     1
290
     0
176
     1
 90
       50
176
     1
 40
0.0
176
     1
 40
1.0
176
     1
 90
        0
176
     1
 62
    18
420
        0
176
     1
 90
       50
176
     1
 90
        3
176
     1
 62
     5
420
      255
176
     1
290
     0
176
     1
 90
       50
176
     1
 90
       50
176
     1
 90
       50
176
     1
290
     0
176
     1
 90
       50
176
     1
 62
   256
176
     0
 40
1.0
176
     0
 90
        2
176
     1
  1
strokes_ogs.tif
176
     1
290
     0
176
     1
 40
1.0
176
     1
 40
1.0
176
     1
  0
VISUALSTYLE
  5
41
102
{ACAD_REACTORS
330
2A
102
}
330
2A
100
AcDbVisualStyle
  2
Shaded with edges
 70
    26
177
     3
291
     0
 70
    58
 90
        2
176
     1
 90
        2
176
     1
 90
        1
176
     1
 90
        2
176
     1
 40
0.6
176
     1
 40
30.0
176
     1
 62
     7
420
 16777215
176
     1
 90
        1
176
     1
 90
       10
176
     1
 62
     7
176
     1
 62
   257
176
     1
 90
        2
176
     1
 90
        1
176
     1
 40
1.0
176
     1
 90
        8
176
     1
 62
   257
176
     1
 40
1.0
176
     1
 90
        1
176
     1
 90
        6
176
     1
 90
        2
176
     1
 62
     7
176
     1
 90
        3
176
     1
 90
        0
176
     1
 90
        0
176
     1
290
     0
176
     1
 90
        5
176
     1
 40
0.0
176
     1
 90
        0
176
     1
290
     0
176
     1
290
     1
176
     1
290
     1
176
     1
290
     0
176
     1
290
     0
176
     1
290
     0
176
     1
290
     0
176
     1
290
     0
176
     1
290
     0
176
     1
 90
       50
176
     1
 40
0.0
176
     1
 40
1.0
176
     1
 90
        0
176
     1
 62
    18
420
        0
176
     1
 90
       50
176
     1
 90
        3
176
     1
 62
     5
420
      255
176
     1
290
     0
176
     1
 90
       50
176
     1
 90
       50
176
     1
 90
       50
176
     1
290
     0
176
     1
 90
       50
176
     1
 62
   256
176
     0
 40
1.0
176
     0
 90
        2
176
     1
  1
strokes_ogs.tif
176
     1
290
     0
176
     1
 40
1.0
176
     1
 40
1.0
176
     1
  0
VISUALSTYLE
  5
3E
102
{ACAD_REACTORS
330
2A
102
}
330
2A
100
AcDbVisualStyle
  2
Shades of Gray
 70
    23
177
     3
291
     0
 70
    58
 90
        2
176
     1
 90
        2
176
     1
 90
        3
176
     1
 90
        0
176
     1
 40
0.6
176
     1
 40
30.0
176
     1
 62
     7
420
 16777215
176
     1
 90
        2
176
     1
 90
        2
176
     1
 62
     7
176
     1
 62
     7
176
     1
 90
        1
176
     1
 90
        1
176
     1
 40
40.0
176
     1
 90
        8
176
     1
 62
     7
176
     1
 40
1.0
176
     1
 90
        1
176
     1
 90
        6
176
     1
 90
        2
176
     1
 62
     7
176
     1
 90
        3
176
     1
 90
        0
176
     1
 90
        0
176
     1
290
     0
176
     1
 90
        1
176
     1
 40
0.0
176
     1
 90
        0
176
     1
290
     0
176
     1
290
     1
176
     1
290
     1
176
     1
290
     0
176
     1
290
     0
176
     1
290
     0
176
     1
290
     0
176
     1
290
     0
176
     1
290
     0
176
     1
 90
       50
176
     1
 40
0.0
176
     1
 40
1.0
176
     1
 90
        0
176
     1
 62
    18
420
        0
176
     1
 90
       50
176
     1
 90
        3
176
     1
 62
     5
420
      255
176
     1
290
     0
176
     1
 90
       50
176
     1
 90
       50
176
     1
 90
       50
176
     1
290
     0
176
     1
 90
       50
176
     1
 62
   256
176
     0
 40
1.0
176
     0
 90
        2
176
     1
  1
strokes_ogs.tif
176
     1
290
     0
176
     1
 40
1.0
176
     1
 40
1.0
176
     1
  0
VISUALSTYLE
  5
3F
102
{ACAD_REACTORS
330
2A
102
}
330
2A
100
AcDbVisualStyle
  2
Sketchy
 70
    24
177
     3
291
     0
 70
    58
 90
        1
176
     1
 90
        2
176
     1
 90
        2
176
     1
 90
        0
176
     1
 40
0.6
176
     1
 40
30.0
176
     1
 62
     7
420
 16777215
176
     1
 90
        2
176
     1
 90
        2
176
     1
 62
     7
176
     1
 62
     7
176
     1
 90
        1
176
     1
 90
        1
176
     1
 40
40.0
176
     1
 90
       11
176
     1
 62
     7
176
     1
 40
1.0
176
     1
 90
        1
176
     1
 90
        6
176
     1
 90
        2
176
     1
 62
     7
176
     1
 90
        6
176
     1
 90
        0
176
     1
 90
        0
176
     1
290
     0
176
     1
 90
        1
176
     1
 40
0.0
176
     1
 90
        0
176
     1
290
     0
176
     1
290
     1
176
     1
290
     1
176
     1
290
     0
176
     1
290
     0
176
     1
290
     0
176
     1
290
     0
176
     1
290
     0
176
     1
290
     0
176
     1
 90
       50
176
     1
 40
0.0
176
     1
 40
1.0
176
     1
 90
        0
176
     1
 62
    18
420
        0
176
     1
 90
       50
176
     1
 90
        3
176
     1
 62
     5
420
      255
176
     1
290
     0
176
     1
 90
       50
176
     1
 90
       50
176
     1
 90
       50
176
     1
290
     0
176
     1
 90
       50
176
     1
 62
   256
176
     0
 40
1.0
176
     0
 90
        2
176
     1
  1
strokes_ogs.tif
176
     1
290
     0
176
     1
 40
1.0
176
     1
 40
1.0
176
     1
  0
VISUALSTYLE
  5
37
102
{ACAD_REACTORS
330
2A
102
}
330
2A
100
AcDbVisualStyle
  2
Thicken
 70
    13
177
     3
291
     1
 70
    58
 90
        2
176
     1
 90
        2
176
     1
 90
        0
176
     1
 90
        0
176
     1
 40
0.6
176
     1
 40
30.0
176
     1
 62
     7
420
 16777215
176
     1
 90
        1
176
     1
 90
        4
176
     1
 62
     7
176
     1
 62
   257
176
     1
 90
        1
176
     1
 90
        1
176
     1
 40
1.0
176
     1
 90
       12
176
     1
 62
     7
176
     1
 40
1.0
176
     1
 90
        1
176
     1
 90
        6
176
     1
 90
        2
176
     1
 62
     7
176
     1
 90
        5
176
     1
 90
        0
176
     1
 90
        0
176
     1
290
     0
176
     1
 90
        1
176
     1
 40
0.0
176
     1
 90
        0
176
     1
290
     0
176
     1
290
     1
176
     1
290
     1
176
     1
290
     0
176
     1
290
     0
176
     1
290
     0
176
     1
290
     0
176
     1
290
     0
176
     1
290
     0
176
     1
 90
       50
176
     1
 40
0.0
176
     1
 40
1.0
176
     1
 90
        0
176
     1
 62
    18
420
        0
176
     1
 90
       50
176
     1
 90
        3
176
     1
 62
     5
420
      255
176
     1
290
     0
176
     1
 90
       50
176
     1
 90
       50
176
     1
 90
       50
176
     1
290
     0
176
     1
 90
       50
176
     1
 62
   256
176
     0
 40
1.0
176
     0
 90
        2
176
     1
  1
strokes_ogs.tif
176
     1
290
     0
176
     1
 40
1.0
176
     1
 40
1.0
176
     1
  0
VISUALSTYLE
  5
30
102
{ACAD_REACTORS
330
2A
102
}
330
2A
100
AcDbVisualStyle
  2
Wireframe
 70
     5
177
     3
291
     0
 70
    58
 90
        0
176
     1
 90
        2
176
     1
 90
        0
176
     1
 90
        0
176
     1
 40
0.6
176
     1
 40
30.0
176
     1
 62
     7
420
 16777215
176
     1
 90
        1
176
     1
 90
        4
176
     1
 62
     7
176
     1
 62
   257
176
     1
 90
        1
176
     1
 90
        1
176
     1
 40
1.0
176
     1
 90
        0
176
     1
 62
   257
176
     1
 40
1.0
176
     1
 90
        1
176
     1
 90
        6
176
     1
 90
        2
176
     1
 62
     7
176
     1
 90
        3
176
     1
 90
        0
176
     1
 90
        0
176
     1
290
     0
176
     1
 90
        1
176
     1
 40
0.0
176
     1
 90
        0
176
     1
290
     0
176
     1
290
     1
176
     1
290
     1
176
     1
290
     0
176
     1
290
     0
176
     1
290
     0
176
     1
290
     0
176
     1
290
     0
176
     1
290
     0
176
     1
 90
       50
176
     1
 40
0.0
176
     1
 40
1.0
176
     1
 90
        0
176
     1
 62
    18
420
        0
176
     1
 90
       50
176
     1
 90
        3
176
     1
 62
     5
420
      255
176
     1
290
     0
176
     1
 90
       50
176
     1
 90
       50
176
     1
 90
       50
176
     1
290
     0
176
     1
 90
       50
176
     1
 62
   256
176
     0
 40
1.0
176
     0
 90
        2
176
     1
  1
strokes_ogs.tif
176
     1
290
     0
176
     1
 40
1.0
176
     1
 40
1.0
176
     1
  0
VISUALSTYLE
  5
40
102
{ACAD_REACTORS
330
2A
102
}
330
2A
100
AcDbVisualStyle
  2
X-Ray
 70
    25
177
     3
291
     0
 70
    58
 90
        2
176
     1
 90
        2
176
     1
 90
        1
176
     1
 90
        1
176
     1
 40
0.5
176
     1
 40
30.0
176
     1
 62
     7
420
 16777215
176
     1
 90
        1
176
     1
 90
        0
176
     1
 62
     7
176
     1
 62
   257
176
     1
 90
        1
176
     1
 90
        1
176
     1
 40
1.0
176
     1
 90
        8
176
     1
 62
     7
176
     1
 40
1.0
176
     1
 90
        1
176
     1
 90
        6
176
     1
 90
        2
176
     1
 62
     7
176
     1
 90
        3
176
     1
 90
        0
176
     1
 90
        0
176
     1
290
     0
176
     1
 90
       13
176
     1
 40
0.0
176
     1
 90
        0
176
     1
290
     0
176
     1
290
     1
176
     1
290
     1
176
     1
290
     0
176
     1
290
     0
176
     1
290
     0
176
     1
290
     0
176
     1
290
     0
176
     1
290
     0
176
     1
 90
       50
176
     1
 40
0.0
176
     1
 40
1.0
176
     1
 90
        0
176
     1
 62
    18
420
        0
176
     1
 90
       50
176
     1
 90
        3
176
     1
 62
     5
420
      255
176
     1
290
     0
176
     1
 90
       50
176
     1
 90
       50
176
     1
 90
       50
176
     1
290
     0
176
     1
 90
       50
176
     1
 62
   256
176
     0
 40
1.0
176
     0
 90
        2
176
     1
  1
strokes_ogs.tif
176
     1
290
     0
176
     1
 40
1.0
176
     1
 40
1.0
176
     1
  0
DICTIONARYVAR
  5
9D
102
{ACAD_REACTORS
330
9C
102
}
330
9C
100
DictionaryVariables
280
     0
  1
1:1
  0
DICTIONARYVAR
  5
EE
102
{ACAD_REACTORS
330
9C
102
}
330
9C
100
DictionaryVariables
280
     0
  1
STANDARD
  0
DICTIONARYVAR
  5
ED
102
{ACAD_REACTORS
330
9C
102
}
330
9C
100
DictionaryVariables
280
     0
  1
STANDARD
  0
DICTIONARYVAR
  5
EF
102
{ACAD_REACTORS
330
9C
102
}
330
9C
100
DictionaryVariables
280
     0
  1
Imperial24
  0
DICTIONARYVAR
  5
F0
102
{ACAD_REACTORS
330
9C
102
}
330
9C
100
DictionaryVariables
280
     0
  1
Imperial24
  0
DICTIONARYVAR
  5
F2
102
{ACAD_REACTORS
330
9C
102
}
330
9C
100
DictionaryVariables
280
     0
  1
1
  0
DICTIONARYVAR
  5
F3
102
{ACAD_REACTORS
330
9C
102
}
330
9C
100
DictionaryVariables
280
     0
  1
15
  0
DICTIONARYVAR
  5
F1
102
{ACAD_REACTORS
330
9C
102
}
330
9C
100
DictionaryVariables
280
     0
  1
0
  0
DICTIONARYVAR
  5
9E
102
{ACAD_REACTORS
330
9C
102
}
330
9C
100
DictionaryVariables
280
     0
  1
1
  0
DICTIONARY
  5
EA
330
DE
100
AcDbDictionary
280
     1
281
     1
  3
ACAD_XREC_ROUNDTRIP
360
54A
  0
DICTIONARY
  5
E8
330
DD
100
AcDbDictionary
280
     1
281
     1
  3
ACAD_XREC_ROUNDTRIP
360
549
  0
DICTIONARY
  5
547
330
DB
100
AcDbDictionary
280
     1
281
     1
  3
ACAD_ROUNDTRIP_2008_TABLESTYLE_CELLSTYLEMAP
360
548
  0
XRECORD
  5
54A
102
{ACAD_REACTORS
330
EA
102
}
330
EA
100
AcDbXrecord
280
     1
102
DISPLAYNAME
  1
Imperial24
102
FLAGS
 90
        0
  0
XRECORD
  5
549
102
{ACAD_REACTORS
330
E8
102
}
330
E8
100
AcDbXrecord
280
     1
102
DISPLAYNAME
  1
Imperial24
102
FLAGS
 90
        0
  0
CELLSTYLEMAP
  5
548
102
{ACAD_REACTORS
330
547
102
}
330
547
100
AcDbCellStyleMap
 90
        3
300
CELLSTYLE
  1
TABLEFORMAT_BEGIN
 90
        5
170
     1
 91
        0
 92
    32768
 62
   257
 93
        1
300
CONTENTFORMAT
  1
CONTENTFORMAT_BEGIN
 90
        0
 91
        0
 92
      512
 93
        0
300

 40
0.0
140
1.0
 94
        5
 62
     0
340
11
144
0.25
309
CONTENTFORMAT_END
171
     0
 94
        0
309
TABLEFORMAT_END
  1
CELLSTYLE_BEGIN
 90
        1
 91
        1
300
_TITLE
309
CELLSTYLE_END
300
CELLSTYLE
  1
TABLEFORMAT_BEGIN
 90
        5
170
     1
 91
        0
 92
        0
 62
   257
 93
        1
300
CONTENTFORMAT
  1
CONTENTFORMAT_BEGIN
 90
        0
 91
        0
 92
      512
 93
        0
300

 40
0.0
140
1.0
 94
        5
 62
     0
340
11
144
0.18
309
CONTENTFORMAT_END
171
     0
 94
        0
309
TABLEFORMAT_END
  1
CELLSTYLE_BEGIN
 90
        2
 91
        1
300
_HEADER
309
CELLSTYLE_END
300
CELLSTYLE
  1
TABLEFORMAT_BEGIN
 90
        5
170
     1
 91
        0
 92
        0
 62
   257
 93
        1
300
CONTENTFORMAT
  1
CONTENTFORMAT_BEGIN
 90
        0
 91
        0
 92
      512
 93
        0
300

 40
0.0
140
1.0
 94
        2
 62
     0
340
11
144
0.18
309
CONTENTFORMAT_END
171
     0
 94
        0
309
TABLEFORMAT_END
  1
CELLSTYLE_BEGIN
 90
        3
 91
        2
300
_DATA
309
CELLSTYLE_END
  0
ENDSEC
  0
SECTION
  2
ACDSDATA
 70
     2
 71
     8
  0
ACDSSCHEMA
 90
        0
  1
AcDb3DSolid_ASM_Data
  2
AcDbDs::ID
280
    10
 91
        8
  2
ASM_Data
280
    15
 91
        0
101
ACDSRECORD
 95
        0
 90
        1
  2
AcDbDs::TreatedAsObjectData
280
     1
291
     1
101
ACDSRECORD
 95
        0
 90
        2
  2
AcDbDs::Legacy
280
     1
291
     1
101
ACDSRECORD
  1
AcDbDs::ID
 90
        3
  2
AcDs:Indexable
280
     1
291
     1
101
ACDSRECORD
  1
AcDbDs::ID
 90
        4
  2
AcDbDs::HandleAttribute
280
     7
282
     1
  0
ACDSSCHEMA
 90
        1
  1
AcDbDs::TreatedAsObjectDataSchema
  2
AcDbDs::TreatedAsObjectData
280
     1
 91
        0
  0
ACDSSCHEMA
 90
        2
  1
AcDbDs::LegacySchema
  2
AcDbDs::Legacy
280
     1
 91
        0
  0
ACDSSCHEMA
 90
        3
  1
AcDbDs::IndexedPropertySchema
  2
AcDs:Indexable
280
     1
 91
        0
  0
ACDSSCHEMA
 90
        4
  1
AcDbDs::HandleAttributeSchema
  2
AcDbDs::HandleAttribute
280
     7
 91
        1
284
     1
  0
ACDSSCHEMA
 90
        5
  1
AcDb_Thumbnail_Schema
  2
AcDbDs::ID
280
    10
 91
        8
  2
Thumbnail_Data
280
    15
 91
        0
101
ACDSRECORD
 95
        5
 90
        1
  2
AcDbDs::TreatedAsObjectData
280
     1
291
     1
101
ACDSRECORD
 95
        5
 90
        2
  2
AcDbDs::Legacy
280
     1
291
     1
101
ACDSRECORD
  1
AcDbDs::ID
 90
        3
  2
AcDs:Indexable
280
     1
291
     1
101
ACDSRECORD
  1
AcDbDs::ID
 90
        4
  2
AcDbDs::HandleAttribute
280
     7
282
     1
  0
ACDSRECORD
 90
        5
  2
AcDbDs::ID
280
    10
320
22
  2
Thumbnail_Data
280
    15
 94
     1297
310
89504E470D0A1A0A0000000D4948445200000100000000670803000000D82A6C0200000300504C5445000000000000C8C8C80000000000000000000000000000000000000000000000000000330000660000990000CC0000FF0033000033330033660033990033CC0033FF0066000066330066660066990066CC0066FF0099
310
000099330099660099990099CC0099FF00CC0000CC3300CC6600CC9900CCCC00CCFF00FF0000FF3300FF6600FF9900FFCC00FFFF3300003300333300663300993300CC3300FF3333003333333333663333993333CC3333FF3366003366333366663366993366CC3366FF3399003399333399663399993399CC3399FF33CC00
310
33CC3333CC6633CC9933CCCC33CCFF33FF0033FF3333FF6633FF9933FFCC33FFFF6600006600336600666600996600CC6600FF6633006633336633666633996633CC6633FF6666006666336666666666996666CC6666FF6699006699336699666699996699CC6699FF66CC0066CC3366CC6666CC9966CCCC66CCFF66FF0066
310
FF3366FF6666FF9966FFCC66FFFF9900009900339900669900999900CC9900FF9933009933339933669933999933CC9933FF9966009966339966669966999966CC9966FF9999009999339999669999999999CC9999FF99CC0099CC3399CC6699CC9999CCCC99CCFF99FF0099FF3399FF6699FF9999FFCC99FFFFCC0000CC00
310
33CC0066CC0099CC00CCCC00FFCC3300CC3333CC3366CC3399CC33CCCC33FFCC6600CC6633CC6666CC6699CC66CCCC66FFCC9900CC9933CC9966CC9999CC99CCCC99FFCCCC00CCCC33CCCC66CCCC99CCCCCCCCCCFFCCFF00CCFF33CCFF66CCFF99CCFFCCCCFFFFFF0000FF0033FF0066FF0099FF00CCFF00FFFF3300FF3333
310
FF3366FF3399FF33CCFF33FFFF6600FF6633FF6666FF6699FF66CCFF66FFFF9900FF9933FF9966FF9999FF99CCFF99FFFFCC00FFCC33FFCC66FFCC99FFCCCCFFCCFFFFFF00FFFF33FFFF66FFFF99FFFFCCFFFFFF0000000D0D0D1A1A1A2828283535354343435050505D5D5D6B6B6B787878868686939393A1A1A1AEAEAEBB
310
BBBBC9C9C9D6D6D6E4E4E4F1F1F1FFFFFF00000000000000000000000000000000000000000000000000000000000008F1915C000001984944415478DAED9CC16EC3201044F7FFFF77EE4D1B555D1B7004B6526FE6CD0D2B46EC631D606D4DC4BF4A52B84A1B39C63F6E7900386C920100E011B04A0043023F00D21AE8B612
310
3E83CEB3EF06609BF47604BE83D50110B70478B68C52A04900000000005ECBC023D60E00AF8D905E5C703B0B18029075FCBB904D8B82BF51CBB536EC5C136ED300218410422E3B9F637D2E804B7F0600000000000000C0CDD7FC2B0094DC1BF4F7344B002A6E8FFE462B9D0590BA52B1F0DB895B00903BA980A019ECB6FA3D
310
0DA0D3DDAD21A88D218F781A40F766D502109A1EBA3AB7A6CB15000CBE029D06A0A80940AFF362368FC6BD5700A035002A0740EF0120000080FF005601F601EC04390BDCB6109286AEF3A7C17D7705AA02F9E87ABE1E908FD851458312C65A45A84E3524DA4ACE8535C1A8A6CEA017CBE29FF3C29817230000000000000067
310
00EE5F892184104268BF31F08EDE978146F57F9FF91F340CE37724E0EE1FD0B1D03073D0F0F610C1460700007037520A6F3739FC04ED1D25F114B57795C557187375BCC53157E711F0CE80E08DF83DA6FE0BAADBA2D4DD49031E0000000049454E44AE42608249454E44AE426082007007C09A8095D2DF0D29CE7F6B5C63AE
310
400000000049454E44AE426082BDB00000000049454E44AE426082
  0
ENDSEC
  0
EOF
