  0
SECTION
  2
HEADER
  9
$ACADVER
  1
AC1027
  9
$ACADMAINTVER
 70
   105
  9
$DWGCODEPAGE
  3
ANSI_1252
  9
$LASTSAVEDBY
  1
Sandra
  9
$REQUIREDVERSIONS
160
                 0
  9
$INSBASE
 10
0.0
 20
0.0
 30
0.0
  9
$EXTMIN
 10
-1545.172352721043
 20
-1545.172352721043
 30
0.0
  9
$EXTMAX
 10
1545.172352721043
 20
1545.172352721043
 30
0.0
  9
$LIMMIN
 10
0.0
 20
0.0
  9
$LIMMAX
 10
12.0
 20
9.0
  9
$ORTHOMODE
 70
     1
  9
$REGENMODE
 70
     1
  9
$FILLMODE
 70
     1
  9
$QTEXTMODE
 70
     0
  9
$MIRRTEXT
 70
     1
  9
$LTSCALE
 40
1.0
  9
$ATTMODE
 70
     1
  9
$TEXTSIZE
 40
0.2
  9
$TRACEWID
 40
0.05
  9
$TEXTSTYLE
  7
Standard
  9
$CLAYER
  8
Default
  9
$CELTYPE
  6
ByLayer
  9
$CECOLOR
 62
   256
  9
$CELTSCALE
 40
1.0
  9
$DISPSILH
 70
     0
  9
$DIMSCALE
 40
1.0
  9
$DIMASZ
 40
0.18
  9
$DIMEXO
 40
0.0625
  9
$DIMDLI
 40
0.38
  9
$DIMRND
 40
0.0
  9
$DIMDLE
 40
0.0
  9
$DIMEXE
 40
0.18
  9
$DIMTP
 40
0.0
  9
$DIMTM
 40
0.0
  9
$DIMTXT
 40
0.18
  9
$DIMCEN
 40
0.09
  9
$DIMTSZ
 40
0.0
  9
$DIMTOL
 70
     0
  9
$DIMLIM
 70
     0
  9
$DIMTIH
 70
     1
  9
$DIMTOH
 70
     1
  9
$DIMSE1
 70
     0
  9
$DIMSE2
 70
     0
  9
$DIMTAD
 70
     0
  9
$DIMZIN
 70
     0
  9
$DIMBLK
  1

  9
$DIMASO
 70
     1
  9
$DIMSHO
 70
     1
  9
$DIMPOST
  1

  9
$DIMAPOST
  1

  9
$DIMALT
 70
     0
  9
$DIMALTD
 70
     2
  9
$DIMALTF
 40
25.4
  9
$DIMLFAC
 40
1.0
  9
$DIMTOFL
 70
     0
  9
$DIMTVP
 40
0.0
  9
$DIMTIX
 70
     0
  9
$DIMSOXD
 70
     0
  9
$DIMSAH
 70
     0
  9
$DIMBLK1
  1

  9
$DIMBLK2
  1

  9
$DIMSTYLE
  2
Standard
  9
$DIMCLRD
 70
     0
  9
$DIMCLRE
 70
     0
  9
$DIMCLRT
 70
     0
  9
$DIMTFAC
 40
1.0
  9
$DIMGAP
 40
0.09
  9
$DIMJUST
 70
     0
  9
$DIMSD1
 70
     0
  9
$DIMSD2
 70
     0
  9
$DIMTOLJ
 70
     1
  9
$DIMTZIN
 70
     0
  9
$DIMALTZ
 70
     0
  9
$DIMALTTZ
 70
     0
  9
$DIMUPT
 70
     0
  9
$DIMDEC
 70
     4
  9
$DIMTDEC
 70
     4
  9
$DIMALTU
 70
     2
  9
$DIMALTTD
 70
     2
  9
$DIMTXSTY
  7
Standard
  9
$DIMAUNIT
 70
     0
  9
$DIMADEC
 70
     0
  9
$DIMALTRND
 40
0.0
  9
$DIMAZIN
 70
     0
  9
$DIMDSEP
 70
    46
  9
$DIMATFIT
 70
     3
  9
$DIMFRAC
 70
     0
  9
$DIMLDRBLK
  1

  9
$DIMLUNIT
 70
     2
  9
$DIMLWD
 70
    -2
  9
$DIMLWE
 70
    -2
  9
$DIMTMOVE
 70
     2
  9
$DIMFXL
 40
1.0
  9
$DIMFXLON
 70
     0
  9
$DIMJOGANG
 40
0.7853981633974483
  9
$DIMTFILL
 70
     0
  9
$DIMTFILLCLR
 70
     0
  9
$DIMARCSYM
 70
     0
  9
$DIMLTYPE
  6

  9
$DIMLTEX1
  6

  9
$DIMLTEX2
  6

  9
$DIMTXTDIRECTION
 70
     0
  9
$LUNITS
 70
     2
  9
$LUPREC
 70
     3
  9
$SKETCHINC
 40
0.1
  9
$FILLETRAD
 40
0.5
  9
$AUNITS
 70
     0
  9
$AUPREC
 70
     0
  9
$MENU
  1
.
  9
$ELEVATION
 40
0.0
  9
$PELEVATION
 40
0.0
  9
$THICKNESS
 40
0.0
  9
$LIMCHECK
 70
     0
  9
$CHAMFERA
 40
0.0
  9
$CHAMFERB
 40
0.0
  9
$CHAMFERC
 40
0.0
  9
$CHAMFERD
 40
0.0
  9
$SKPOLY
 70
     0
  9
$TDCREATE
 40
2456645.637732453
  9
$TDUCREATE
 40
2456645.804399120
  9
$TDUPDATE
 40
2457842.441207026
  9
$TDUUPDATE
 40
2457842.607873692
  9
$TDINDWG
 40
0.0118454514
  9
$TDUSRTIMER
 40
0.0118454514
  9
$USRTIMER
 70
     1
  9
$ANGBASE
 50
0.0
  9
$ANGDIR
 70
     0
  9
$PDMODE
 70
     0
  9
$PDSIZE
 40
0.0
  9
$PLINEWID
 40
0.0
  9
$SPLFRAME
 70
     0
  9
$SPLINETYPE
 70
     6
  9
$SPLINESEGS
 70
     8
  9
$HANDSEED
  5
5A9D1
  9
$SURFTAB1
 70
     6
  9
$SURFTAB2
 70
     6
  9
$SURFTYPE
 70
     6
  9
$SURFU
 70
     6
  9
$SURFV
 70
     6
  9
$UCSBASE
  2

  9
$UCSNAME
  2

  9
$UCSORG
 10
0.0
 20
0.0
 30
0.0
  9
$UCSXDIR
 10
1.0
 20
0.0
 30
0.0
  9
$UCSYDIR
 10
0.0
 20
1.0
 30
0.0
  9
$UCSORTHOREF
  2

  9
$UCSORTHOVIEW
 70
     0
  9
$UCSORGTOP
 10
0.0
 20
0.0
 30
0.0
  9
$UCSORGBOTTOM
 10
0.0
 20
0.0
 30
0.0
  9
$UCSORGLEFT
 10
0.0
 20
0.0
 30
0.0
  9
$UCSORGRIGHT
 10
0.0
 20
0.0
 30
0.0
  9
$UCSORGFRONT
 10
0.0
 20
0.0
 30
0.0
  9
$UCSORGBACK
 10
0.0
 20
0.0
 30
0.0
  9
$PUCSBASE
  2

  9
$PUCSNAME
  2

  9
$PUCSORG
 10
0.0
 20
0.0
 30
0.0
  9
$PUCSXDIR
 10
1.0
 20
0.0
 30
0.0
  9
$PUCSYDIR
 10
0.0
 20
1.0
 30
0.0
  9
$PUCSORTHOREF
  2

  9
$PUCSORTHOVIEW
 70
     0
  9
$PUCSORGTOP
 10
0.0
 20
0.0
 30
0.0
  9
$PUCSORGBOTTOM
 10
0.0
 20
0.0
 30
0.0
  9
$PUCSORGLEFT
 10
0.0
 20
0.0
 30
0.0
  9
$PUCSORGRIGHT
 10
0.0
 20
0.0
 30
0.0
  9
$PUCSORGFRONT
 10
0.0
 20
0.0
 30
0.0
  9
$PUCSORGBACK
 10
0.0
 20
0.0
 30
0.0
  9
$USERI1
 70
     0
  9
$USERI2
 70
     0
  9
$USERI3
 70
     0
  9
$USERI4
 70
     0
  9
$USERI5
 70
     0
  9
$USERR1
 40
0.0
  9
$USERR2
 40
0.0
  9
$USERR3
 40
0.0
  9
$USERR4
 40
0.0
  9
$USERR5
 40
0.0
  9
$WORLDVIEW
 70
     1
  9
$SHADEDGE
 70
     3
  9
$SHADEDIF
 70
    70
  9
$TILEMODE
 70
     1
  9
$MAXACTVP
 70
    64
  9
$PINSBASE
 10
0.0
 20
0.0
 30
0.0
  9
$PLIMCHECK
 70
     0
  9
$PEXTMIN
 10
1.000000000000000E+20
 20
1.000000000000000E+20
 30
1.000000000000000E+20
  9
$PEXTMAX
 10
-1.000000000000000E+20
 20
-1.000000000000000E+20
 30
-1.000000000000000E+20
  9
$PLIMMIN
 10
0.0
 20
0.0
  9
$PLIMMAX
 10
12.0
 20
9.0
  9
$UNITMODE
 70
     0
  9
$VISRETAIN
 70
     1
  9
$PLINEGEN
 70
     0
  9
$PSLTSCALE
 70
     1
  9
$TREEDEPTH
 70
  3020
  9
$CMLSTYLE
  2
Standard
  9
$CMLJUST
 70
     0
  9
$CMLSCALE
 40
1.0
  9
$PROXYGRAPHICS
 70
     1
  9
$MEASUREMENT
 70
     0
  9
$CELWEIGHT
370
    -1
  9
$ENDCAPS
280
     0
  9
$JOINSTYLE
280
     0
  9
$LWDISPLAY
290
     0
  9
$INSUNITS
 70
     4
  9
$HYPERLINKBASE
  1

  9
$STYLESHEET
  1

  9
$XEDIT
290
     1
  9
$CEPSNTYPE
380
     0
  9
$PSTYLEMODE
290
     1
  9
$FINGERPRINTGUID
  2
{4E6D208B-91B7-49DD-99DC-45B11ED94279}
  9
$VERSIONGUID
  2
{68106764-DF2C-431A-AD60-9600C06EE5A0}
  9
$EXTNAMES
290
     1
  9
$PSVPSCALE
 40
0.0
  9
$OLESTARTUP
290
     0
  9
$SORTENTS
280
   127
  9
$INDEXCTL
280
     0
  9
$HIDETEXT
280
     1
  9
$XCLIPFRAME
280
     0
  9
$HALOGAP
280
     0
  9
$OBSCOLOR
 70
   257
  9
$OBSLTYPE
280
     0
  9
$INTERSECTIONDISPLAY
280
     0
  9
$INTERSECTIONCOLOR
 70
   257
  9
$DIMASSOC
280
     2
  9
$PROJECTNAME
  1

  9
$CAMERADISPLAY
290
     0
  9
$LENSLENGTH
 40
50.0
  9
$CAMERAHEIGHT
 40
0.0
  9
$STEPSPERSEC
 40
2.0
  9
$STEPSIZE
 40
6.0
  9
$3DDWFPREC
 40
2.0
  9
$PSOLWIDTH
 40
0.25
  9
$PSOLHEIGHT
 40
4.0
  9
$LOFTANG1
 40
1.570796326794896
  9
$LOFTANG2
 40
1.570796326794896
  9
$LOFTMAG1
 40
0.0
  9
$LOFTMAG2
 40
0.0
  9
$LOFTPARAM
 70
     7
  9
$LOFTNORMALS
280
     1
  9
$LATITUDE
 40
37.795
  9
$LONGITUDE
 40
-122.394
  9
$NORTHDIRECTION
 40
0.0
  9
$TIMEZONE
 70
 -8000
  9
$LIGHTGLYPHDISPLAY
280
     1
  9
$TILEMODELIGHTSYNCH
280
     1
  9
$CMATERIAL
347
44
  9
$SOLIDHIST
280
     0
  9
$SHOWHIST
280
     1
  9
$DWFFRAME
280
     2
  9
$DGNFRAME
280
     0
  9
$REALWORLDSCALE
290
     1
  9
$INTERFERECOLOR
 62
     1
  9
$INTERFEREOBJVS
345
33
  9
$INTERFEREVPVS
346
30
  9
$CSHADOW
280
     0
  9
$SHADOWPLANELOCATION
 40
0.0
  0
ENDSEC
  0
SECTION
  2
CLASSES
  0
CLASS
  1
ACDBDICTIONARYWDFLT
  2
AcDbDictionaryWithDefault
  3
ObjectDBX Classes
 90
        0
 91
        1
280
     0
281
     0
  0
CLASS
  1
VISUALSTYLE
  2
AcDbVisualStyle
  3
ObjectDBX Classes
 90
     4095
 91
       26
280
     0
281
     0
  0
CLASS
  1
MATERIAL
  2
AcDbMaterial
  3
ObjectDBX Classes
 90
     1153
 91
        3
280
     0
281
     0
  0
CLASS
  1
SCALE
  2
AcDbScale
  3
ObjectDBX Classes
 90
     1153
 91
       33
280
     0
281
     0
  0
CLASS
  1
SUN
  2
AcDbSun
  3
SCENEOE
 90
     1153
 91
        1
280
     0
281
     0
  0
CLASS
  1
DICTIONARYVAR
  2
AcDbDictionaryVar
  3
ObjectDBX Classes
 90
        0
 91
        9
280
     0
281
     0
  0
CLASS
  1
TABLESTYLE
  2
AcDbTableStyle
  3
ObjectDBX Classes
 90
     4095
 91
        1
280
     0
281
     0
  0
CLASS
  1
MLEADERSTYLE
  2
AcDbMLeaderStyle
  3
ACDB_MLEADERSTYLE_CLASS
 90
     4095
 91
        1
280
     0
281
     0
  0
CLASS
  1
ACDBSECTIONVIEWSTYLE
  2
AcDbSectionViewStyle
  3
ObjectDBX Classes
 90
     1025
 91
        1
280
     0
281
     0
  0
CLASS
  1
ACDBDETAILVIEWSTYLE
  2
AcDbDetailViewStyle
  3
ObjectDBX Classes
 90
     1025
 91
        1
280
     0
281
     0
  0
CLASS
  1
SOLID_BACKGROUND
  2
AcDbSolidBackground
  3
SCENEOE
 90
     4095
 91
        0
280
     0
281
     0
  0
CLASS
  1
NPOCOLLECTION
  2
AcDbImpNonPersistentObjectsCollection
  3
ObjectDBX Classes
 90
     1153
 91
        0
280
     0
281
     0
  0
CLASS
  1
SORTENTSTABLE
  2
AcDbSortentsTable
  3
ObjectDBX Classes
 90
        0
 91
        1
280
     0
281
     0
  0
CLASS
  1
CELLSTYLEMAP
  2
AcDbCellStyleMap
  3
ObjectDBX Classes
 90
     1152
 91
        1
280
     0
281
     0
  0
ENDSEC
  0
SECTION
  2
TABLES
  0
TABLE
  2
VPORT
  5
8
102
{ACAD_XDICTIONARY
360
5A4D6
102
}
330
0
100
AcDbSymbolTable
 70
     1
  0
VPORT
  5
29
330
8
100
AcDbSymbolTableRecord
100
AcDbViewportTableRecord
  2
*Active
 70
     0
 10
0.0
 20
0.0
 11
1.0
 21
1.0
 12
-869.9883719462269
 22
1171.423264387043
 13
0.0
 23
0.0
 14
0.5
 24
0.5
 15
0.5
 25
0.5
 16
-0.0000000000048885
 26
0.0
 36
21820.23759464916
 17
869.9883791483921
 27
-1020.914433997276
 37
509.4479064941401
 40
3299.290016349619
 41
2.334549878345498
 42
50.0
 43
0.0
 44
0.0
 50
0.0
 51
0.0
 71
     0
 72
   100
 73
     1
 74
     3
 75
     0
 76
     0
 77
     0
 78
     0
281
     0
 65
     1
110
0.0
120
0.0
130
0.0
111
1.0
121
0.0
131
0.0
112
0.0
122
1.0
132
0.0
 79
     0
146
0.0
348
2F
 60
     3
 61
     5
292
     1
282
     1
141
0.0
142
0.0
 63
   250
421
  3355443
361
69
1001
ACAD_NAV_VCDISPLAY
1070
     3
  0
ENDTAB
  0
TABLE
  2
LTYPE
  5
5
330
0
100
AcDbSymbolTable
 70
     1
  0
LTYPE
  5
14
330
5
100
AcDbSymbolTableRecord
100
AcDbLinetypeTableRecord
  2
ByBlock
 70
     0
  3

 72
    65
 73
     0
 40
0.0
  0
LTYPE
  5
15
330
5
100
AcDbSymbolTableRecord
100
AcDbLinetypeTableRecord
  2
ByLayer
 70
     0
  3

 72
    65
 73
     0
 40
0.0
  0
LTYPE
  5
16
330
5
100
AcDbSymbolTableRecord
100
AcDbLinetypeTableRecord
  2
Continuous
 70
     0
  3
Solid line
 72
    65
 73
     0
 40
0.0
  0
ENDTAB
  0
TABLE
  2
LAYER
  5
2
102
{ACAD_XDICTIONARY
360
5A841
102
}
330
0
100
AcDbSymbolTable
 70
     2
  0
LAYER
  5
10
102
{ACAD_XDICTIONARY
360
5A838
102
}
330
2
100
AcDbSymbolTableRecord
100
AcDbLayerTableRecord
  2
0
 70
     0
 62
     7
  6
Continuous
370
    -3
390
F
347
46
348
0
  0
LAYER
  5
6A
102
{ACAD_XDICTIONARY
360
5A83A
102
}
330
2
100
AcDbSymbolTableRecord
100
AcDbLayerTableRecord
  2
Default
 70
     0
 62
     7
  6
Continuous
370
    -3
390
F
347
46
348
0
  0
ENDTAB
  0
TABLE
  2
STYLE
  5
3
330
0
100
AcDbSymbolTable
 70
     1
  0
STYLE
  5
11
330
3
100
AcDbSymbolTableRecord
100
AcDbTextStyleTableRecord
  2
Standard
 70
     0
 40
0.0
 41
1.0
 50
0.0
 71
     0
 42
0.2
  3
txt
  4

  0
ENDTAB
  0
TABLE
  2
VIEW
  5
6
330
0
100
AcDbSymbolTable
 70
     0
  0
ENDTAB
  0
TABLE
  2
UCS
  5
7
330
0
100
AcDbSymbolTable
 70
     0
  0
ENDTAB
  0
TABLE
  2
APPID
  5
9
330
0
100
AcDbSymbolTable
 70
     3
  0
APPID
  5
12
330
9
100
AcDbSymbolTableRecord
100
AcDbRegAppTableRecord
  2
ACAD
 70
     0
  0
APPID
  5
5A526
330
9
100
AcDbSymbolTableRecord
100
AcDbRegAppTableRecord
  2
ACAD_NAV_VCDISPLAY
 70
     0
  0
APPID
  5
5A85E
330
9
100
AcDbSymbolTableRecord
100
AcDbRegAppTableRecord
  2
ACAD_EXEMPT_FROM_CAD_STANDARDS
 70
     0
  0
ENDTAB
  0
TABLE
  2
DIMSTYLE
  5
A
330
0
100
AcDbSymbolTable
 70
     1
100
AcDbDimStyleTable
 71
     1
340
27
  0
DIMSTYLE
105
27
330
A
100
AcDbSymbolTableRecord
100
AcDbDimStyleTableRecord
  2
Standard
 70
     0
340
11
  0
ENDTAB
  0
TABLE
  2
BLOCK_RECORD
  5
1
330
0
100
AcDbSymbolTable
 70
     1
  0
BLOCK_RECORD
  5
1F
102
{ACAD_XDICTIONARY
360
5A759
102
}
330
1
100
AcDbSymbolTableRecord
100
AcDbBlockTableRecord
  2
*Model_Space
340
22
 70
     0
280
     1
281
     0
  0
BLOCK_RECORD
  5
1B
330
1
100
AcDbSymbolTableRecord
100
AcDbBlockTableRecord
  2
*Paper_Space
340
1E
 70
     0
280
     1
281
     0
  0
BLOCK_RECORD
  5
23
330
1
100
AcDbSymbolTableRecord
100
AcDbBlockTableRecord
  2
*Paper_Space0
340
26
 70
     0
280
     1
281
     0
  0
ENDTAB
  0
ENDSEC
  0
SECTION
  2
BLOCKS
  0
BLOCK
  5
20
330
1F
100
AcDbEntity
  8
0
100
AcDbBlockBegin
  2
*Model_Space
 70
     0
 10
0.0
 20
0.0
 30
0.0
  3
*Model_Space
  1

  0
ENDBLK
  5
21
330
1F
100
AcDbEntity
  8
0
100
AcDbBlockEnd
  0
BLOCK
  5
1C
330
1B
100
AcDbEntity
 67
     1
  8
0
100
AcDbBlockBegin
  2
*Paper_Space
 70
     0
 10
0.0
 20
0.0
 30
0.0
  3
*Paper_Space
  1

  0
ENDBLK
  5
1D
330
1B
100
AcDbEntity
 67
     1
  8
0
100
AcDbBlockEnd
  0
BLOCK
  5
24
330
23
100
AcDbEntity
 67
     1
  8
0
100
AcDbBlockBegin
  2
*Paper_Space0
 70
     0
 10
0.0
 20
0.0
 30
0.0
  3
*Paper_Space0
  1

  0
ENDBLK
  5
25
330
23
100
AcDbEntity
 67
     1
  8
0
100
AcDbBlockEnd
  0
ENDSEC
  0
SECTION
  2
ENTITIES
  0
SPLINE
  5
5A8C0
330
1F
100
AcDbEntity
  8
Default
100
AcDbSpline
210
0.0
220
0.0
230
1.0
 70
     8
 71
     3
 72
    12
 73
     8
 74
     0
 42
0.000000001
 43
0.0000000001
 40
0.0
 40
0.0
 40
0.0
 40
0.0
 40
0.1510110321465192
 40
0.3037660471064116
 40
0.5900965017365678
 40
0.8249401141264362
 40
1.014583801502342
 40
1.014583801502342
 40
1.014583801502342
 40
1.014583801502342
 10
-10.28877173194951
 20
768.6945613570771
 30
0.0
 10
-10.41364377988748
 20
767.4215073518483
 30
0.0
 10
-10.51092015359927
 20
764.8484910538956
 30
0.0
 10
-10.0737382948314
 20
759.8587164512776
 30
0.0
 10
-8.538248947428201
 20
754.3178772736194
 30
0.0
 10
-5.115654118140355
 20
749.2161662564488
 30
0.0
 10
-1.716696315251738
 20
747.5716552903088
 30
0.0
 10
-0.0821874360331094
 20
747.6034936744092
 30
0.0
  0
SPLINE
  5
5A8C1
330
1F
100
AcDbEntity
  8
Default
100
AcDbSpline
210
0.0
220
0.0
230
1.0
 70
     8
 71
     3
 72
    12
 73
     8
 74
     0
 42
0.000000001
 43
0.0000000001
 40
-1.014583801502342
 40
-1.014583801502342
 40
-1.014583801502342
 40
-1.014583801502342
 40
-0.8249401141264362
 40
-0.5900965017365678
 40
-0.3037660471064116
 40
-0.1510110321465192
 40
0.0
 40
0.0
 40
0.0
 40
0.0
 10
-0.0821874360331094
 20
747.6034936744092
 30
0.0
 10
1.552321443189157
 20
747.5716552903088
 30
0.0
 10
4.951279246077774
 20
749.2161662564488
 30
0.0
 10
8.37387407536562
 20
754.3178772736194
 30
0.0
 10
9.909363422768819
 20
759.8587164512776
 30
0.0
 10
10.34654528153669
 20
764.8484910538956
 30
0.0
 10
10.2492689078249
 20
767.4215073518483
 30
0.0
 10
10.12439685988329
 20
768.6945613570771
 30
0.0
  0
SPLINE
  5
5A8C2
330
1F
100
AcDbEntity
  8
Default
100
AcDbSpline
210
0.0
220
0.0
230
1.0
 70
    12
 71
     2
 72
     6
 73
     3
 74
     0
 42
0.000000001
 43
0.0000000001
 40
0.0
 40
0.0
 40
0.0
 40
0.1369528492222414
 40
0.1369528492222414
 40
0.1369528492222414
 10
-9.419501332834897
 20
778.3302218935952
 30
0.0
 41
1.0
 10
-9.383191128133603
 20
776.5913296317178
 30
0.0
 41
0.9999966913238282
 10
-9.402283467832148
 20
774.8514490529689
 30
0.0
 41
0.9999959461296658
  0
ARC
  5
5A8C3
330
1F
100
AcDbEntity
  8
Default
100
AcDbCircle
 10
-22.10056612982544
 20
774.6426011750684
 30
0.0
 40
12.7
100
AcDbArc
 50
348.4871521735326
 51
0.9422552251277975
  0
SPLINE
  5
5A8C4
330
1F
100
AcDbEntity
  8
Default
100
AcDbSpline
210
0.0
220
0.0
230
1.0
 70
     8
 71
     3
 72
    14
 73
    10
 74
     0
 42
0.000000001
 43
0.0000000001
 40
0.2772630823298201
 40
0.2772630823298201
 40
0.2772630823298201
 40
0.2772630823298201
 40
1.0
 40
2.0
 40
3.0
 40
4.0
 40
5.0
 40
6.0
 40
7.0
 40
7.0
 40
7.0
 40
7.0
 10
-9.656090455674984
 20
772.1078378339464
 30
0.0
 10
-9.861760919043717
 20
771.0980942272092
 30
0.0
 10
-10.24444338603962
 20
768.6691994657796
 30
0.0
 10
-10.36487416182308
 20
764.7790737244961
 30
0.0
 10
-9.907308562909292
 20
760.5175553567517
 30
0.0
 10
-8.852462716392892
 20
756.3584121539626
 30
0.0
 10
-7.062058012295437
 20
752.4501767668319
 30
0.0
 10
-4.265388272622203
 20
749.1238057445573
 30
0.0
 10
-1.521948363315004
 20
747.9752125757897
 30
0.0
 10
-0.0821748234079678
 20
747.988103220747
 30
0.0
  0
SPLINE
  5
5A8C5
330
1F
100
AcDbEntity
  8
Default
100
AcDbSpline
210
0.0
220
0.0
230
1.0
 70
     8
 71
     3
 72
    14
 73
    10
 74
     0
 42
0.000000001
 43
0.0000000001
 40
-7.0
 40
-7.0
 40
-7.0
 40
-7.0
 40
-6.0
 40
-5.0
 40
-4.0
 40
-3.0
 40
-2.0
 40
-1.0
 40
-0.2482205602640466
 40
-0.2482205602640466
 40
-0.2482205602640466
 40
-0.2482205602640466
 10
-0.0821748234079678
 20
747.988103220747
 30
0.0
 10
1.357598716502707
 20
747.9752125757897
 30
0.0
 10
4.101038625809906
 20
749.1238057445573
 30
0.0
 10
6.89770836548314
 20
752.4501767668319
 30
0.0
 10
8.688113069580595
 20
756.3584121539626
 30
0.0
 10
9.742958916096995
 20
760.5175553567517
 30
0.0
 10
10.20052451501078
 20
764.7790737244961
 30
0.0
 10
10.07880914451061
 20
768.7106941331315
 30
0.0
 10
9.684421369482606
 20
771.179979370396
 30
0.0
 10
9.46672874760452
 20
772.2295196822581
 30
0.0
  0
ARC
  5
5A8C6
330
1F
100
AcDbEntity
  8
Default
100
AcDbCircle
 10
21.90205018950701
 20
774.8088181598598
 30
0.0
 40
12.7
100
AcDbArc
 50
178.9775798079639
 51
191.7179678781595
  0
SPLINE
  5
5A8C7
330
1F
100
AcDbEntity
  8
Default
100
AcDbSpline
210
0.0
220
0.0
230
1.0
 70
    12
 71
     2
 72
     6
 73
     3
 74
     0
 42
0.000000001
 43
0.0000000001
 40
-0.1297405451143296
 40
-0.1297405451143296
 40
-0.1297405451143296
 40
0.0
 40
0.0
 40
0.0
 10
9.204072164463013
 20
775.035432535986
 30
0.0
 41
0.9999960316975588
 10
9.233473245604272
 20
776.6828756004309
 30
0.0
 41
0.999996865512317
 10
9.267871858119633
 20
778.3302218935952
 30
0.0
 41
1.0
  0
SPLINE
  5
5A8C8
330
1F
100
AcDbEntity
  8
Default
100
AcDbSpline
210
0.0
220
0.0
230
1.0
 70
    12
 71
     2
 72
     6
 73
     3
 74
     0
 42
0.000000001
 43
0.0000000001
 40
0.0
 40
0.0
 40
0.0
 40
0.0853474550214741
 40
0.0853474550214741
 40
0.0853474550214741
 10
10.1995971926558
 20
767.8043822510828
 30
0.0
 41
1.0
 10
10.27547659290985
 20
766.7226917936988
 30
0.0
 41
0.9993970637774639
 10
10.27610479927216
 20
765.6383433560024
 30
0.0
 41
1.0
  0
SPLINE
  5
5A8C9
330
1F
100
AcDbEntity
  8
Default
100
AcDbSpline
210
0.0
220
0.0
230
1.0
 70
    12
 71
     2
 72
     6
 73
     3
 74
     0
 42
0.000000001
 43
0.0000000001
 40
0.0
 40
0.0
 40
0.0
 40
0.0853474550214741
 40
0.0853474550214741
 40
0.0853474550214741
 10
351.8104931180101
 20
1129.978847725584
 30
0.0
 41
1.0
 10
352.8921835753977
 20
1130.054727125838
 30
0.0
 41
0.9993970637774639
 10
353.9765320130941
 20
1130.055355332201
 30
0.0
 41
1.0
  0
SPLINE
  5
5A8CA
330
1F
100
AcDbEntity
  8
Default
100
AcDbSpline
210
0.0
220
0.0
230
1.0
 70
     8
 71
     3
 72
    12
 73
     8
 74
     0
 42
0.000000001
 43
0.0000000001
 40
0.0
 40
0.0
 40
0.0
 40
0.0
 40
0.1510110321465192
 40
0.3037660471064116
 40
0.5900965017365678
 40
0.8249401141264362
 40
1.014583801502342
 40
1.014583801502342
 40
1.014583801502342
 40
1.014583801502342
 10
350.9203140120157
 20
1109.490478800979
 30
0.0
 10
352.1933680172483
 20
1109.365606753041
 30
0.0
 10
354.7663843152009
 20
1109.268330379329
 30
0.0
 10
359.7561589178154
 20
1109.705512238097
 30
0.0
 10
365.2969980954699
 20
1111.2410015855
 30
0.0
 10
370.3987091126442
 20
1114.663596414788
 30
0.0
 10
372.0432200787841
 20
1118.062554217677
 30
0.0
 10
372.0113816946873
 20
1119.697063096895
 30
0.0
  0
SPLINE
  5
5A8CB
330
1F
100
AcDbEntity
  8
Default
100
AcDbSpline
210
0.0
220
0.0
230
1.0
 70
     8
 71
     3
 72
    12
 73
     8
 74
     0
 42
0.000000001
 43
0.0000000001
 40
-1.014583801502342
 40
-1.014583801502342
 40
-1.014583801502342
 40
-1.014583801502342
 40
-0.8249401141264362
 40
-0.5900965017365678
 40
-0.3037660471064116
 40
-0.1510110321465192
 40
0.0
 40
0.0
 40
0.0
 40
0.0
 10
372.0113816946873
 20
1119.697063096895
 30
0.0
 10
372.0432200787841
 20
1121.331571976118
 30
0.0
 10
370.3987091126442
 20
1124.730529779006
 30
0.0
 10
365.2969980954699
 20
1128.153124608294
 30
0.0
 10
359.7561589178154
 20
1129.688613955697
 30
0.0
 10
354.7663843152009
 20
1130.125795814465
 30
0.0
 10
352.1933680172483
 20
1130.028519440753
 30
0.0
 10
350.9203140120157
 20
1129.903647392815
 30
0.0
  0
SPLINE
  5
5A8CC
330
1F
100
AcDbEntity
  8
Default
100
AcDbSpline
210
0.0
220
0.0
230
1.0
 70
    12
 71
     2
 72
     6
 73
     3
 74
     0
 42
0.000000001
 43
0.0000000001
 40
0.0
 40
0.0
 40
0.0
 40
0.1369528492222414
 40
0.1369528492222414
 40
0.1369528492222414
 10
341.2846534754976
 20
1110.359749200094
 30
0.0
 41
1.0
 10
343.0235457373715
 20
1110.396059404795
 30
0.0
 41
0.9999966913238282
 10
344.7634263161276
 20
1110.376967065096
 30
0.0
 41
0.9999959461296658
  0
ARC
  5
5A8CD
330
1F
100
AcDbEntity
  8
Default
100
AcDbCircle
 10
344.9722741940282
 20
1097.678684403103
 30
0.0
 40
12.7
100
AcDbArc
 50
78.48715217353163
 51
90.9422552251277
  0
SPLINE
  5
5A8CE
330
1F
100
AcDbEntity
  8
Default
100
AcDbSpline
210
0.0
220
0.0
230
1.0
 70
     8
 71
     3
 72
    14
 73
    10
 74
     0
 42
0.000000001
 43
0.0000000001
 40
0.2772630823298201
 40
0.2772630823298201
 40
0.2772630823298201
 40
0.2772630823298201
 40
1.0
 40
2.0
 40
3.0
 40
4.0
 40
5.0
 40
6.0
 40
7.0
 40
7.0
 40
7.0
 40
7.0
 10
347.5070375351502
 20
1110.123160077254
 30
0.0
 10
348.5167811418873
 20
1109.917489613885
 30
0.0
 10
350.9456759033132
 20
1109.534807146889
 30
0.0
 10
354.8358016446004
 20
1109.414376371105
 30
0.0
 10
359.0973200123412
 20
1109.871941970019
 30
0.0
 10
363.2564632151302
 20
1110.926787816536
 30
0.0
 10
367.1646986022647
 20
1112.717192520633
 30
0.0
 10
370.4910696245356
 20
1115.513862260306
 30
0.0
 10
371.6396627933032
 20
1118.257302169614
 30
0.0
 10
371.6267721483459
 20
1119.697075709524
 30
0.0
  0
SPLINE
  5
5A8CF
330
1F
100
AcDbEntity
  8
Default
100
AcDbSpline
210
0.0
220
0.0
230
1.0
 70
     8
 71
     3
 72
    14
 73
    10
 74
     0
 42
0.000000001
 43
0.0000000001
 40
-7.0
 40
-7.0
 40
-7.0
 40
-7.0
 40
-6.0
 40
-5.0
 40
-4.0
 40
-3.0
 40
-2.0
 40
-1.0
 40
-0.2482205602640466
 40
-0.2482205602640466
 40
-0.2482205602640466
 40
-0.2482205602640466
 10
371.6267721483459
 20
1119.697075709524
 30
0.0
 10
371.6396627933032
 20
1121.136849249428
 30
0.0
 10
370.4910696245356
 20
1123.880289158738
 30
0.0
 10
367.1646986022647
 20
1126.676958898412
 30
0.0
 10
363.2564632151302
 20
1128.467363602509
 30
0.0
 10
359.0973200123412
 20
1129.522209449025
 30
0.0
 10
354.8358016446004
 20
1129.979775047939
 30
0.0
 10
350.9041812359651
 20
1129.858059677439
 30
0.0
 10
348.4348959986969
 20
1129.463671902411
 30
0.0
 10
347.3853556868385
 20
1129.245979280533
 30
0.0
  0
ARC
  5
5A8D0
330
1F
100
AcDbEntity
  8
Default
100
AcDbCircle
 10
344.8060572092295
 20
1141.681300722436
 30
0.0
 40
12.7
100
AcDbArc
 50
268.9775798079641
 51
281.7179678781601
  0
SPLINE
  5
5A8D1
330
1F
100
AcDbEntity
  8
Default
100
AcDbSpline
210
0.0
220
0.0
230
1.0
 70
    12
 71
     2
 72
     6
 73
     3
 74
     0
 42
0.000000001
 43
0.0000000001
 40
-0.1297405451143296
 40
-0.1297405451143296
 40
-0.1297405451143296
 40
0.0
 40
0.0
 40
0.0
 10
344.5794428331069
 20
1128.983322697391
 30
0.0
 41
0.9999960316975588
 10
342.9319997686657
 20
1129.012723778533
 30
0.0
 41
0.999996865512317
 10
341.2846534754976
 20
1129.047122391048
 30
0.0
 41
1.0
  0
SPLINE
  5
5A8D2
330
1F
100
AcDbEntity
  8
Default
100
AcDbSpline
210
0.0
220
0.0
230
1.0
 70
    12
 71
     2
 72
     6
 73
     3
 74
     0
 42
0.000000001
 43
0.0000000001
 40
0.0
 40
0.0
 40
0.0
 40
0.0587632096241838
 40
0.0587632096241838
 40
0.0587632096241838
 10
1.394462849839783
 20
748.1110689765903
 30
0.0
 41
1.0
 10
0.6680744114096342
 20
747.9233671921522
 30
0.0
 41
0.9921107855315545
 10
-0.0821728050573256
 20
747.922254737334
 30
0.0
 41
1.0
  0
SPLINE
  5
5A8D3
330
1F
100
AcDbEntity
  8
Default
100
AcDbSpline
210
0.0
220
0.0
230
1.0
 70
    24
 71
     2
 72
     6
 73
     3
 74
     0
 42
0.000000001
 43
0.0000000001
 40
0.0
 40
0.0
 40
0.0
 40
0.0114467396849787
 40
0.0114467396849787
 40
0.0114467396849787
 10
-0.0821875797041685
 20
747.9222547373121
 30
0.0
 10
-0.0821875141805322
 20
747.7768811433145
 30
0.0
 10
-0.0821874486605339
 20
747.6315075493133
 30
0.0
  0
SPLINE
  5
5A8D4
330
1F
100
AcDbEntity
  8
Default
100
AcDbSpline
210
0.0
220
0.0
230
1.0
 70
    12
 71
     2
 72
     6
 73
     3
 74
     0
 42
0.000000001
 43
0.0000000001
 40
0.0
 40
0.0
 40
0.0
 40
0.0586712320260919
 40
0.0586712320260919
 40
0.0586712320260919
 10
-0.0821875797041685
 20
747.9222547373121
 30
0.0
 41
1.0
 10
-0.8312486320132848
 20
747.923359159826
 30
0.0
 41
0.9921343149382712
 10
-1.556560534641448
 20
748.110485651114
 30
0.0
 41
1.0
  0
SPLINE
  5
5A8D6
330
1F
100
AcDbEntity
  8
Default
100
AcDbSpline
210
0.0
220
0.0
230
1.0
 70
     8
 71
     3
 72
    22
 73
    18
 74
     0
 42
0.000000001
 43
0.0000000001
 40
0.0
 40
0.0
 40
0.0
 40
0.0
 40
0.2588469591229587
 40
0.6477254461891114
 40
1.024641027840087
 40
1.817983982162573
 40
2.582167143679937
 40
4.062052734317923
 40
7.850412104674
 40
9.497260537102542
 40
10.543391206404
 40
10.8432833113025
 40
12.15829953678302
 40
13.34949093133962
 40
14.77372714428499
 40
17.25709974516987
 40
21.82793658798906
 40
21.82793658798906
 40
21.82793658798906
 40
21.82793658798906
 10
196.4797560947522
 20
1456.287339596251
 30
0.0
 10
196.2764477862297
 20
1454.08955660249
 30
0.0
 10
197.2602769641894
 20
1448.642350613705
 30
0.0
 10
200.4229134355742
 20
1440.551356540624
 30
0.0
 10
206.1204867627498
 20
1428.638766221515
 30
0.0
 10
213.9431490220163
 20
1414.244381877534
 30
0.0
 10
225.2062188347013
 20
1391.120284824328
 30
0.0
 10
246.8299545892592
 20
1344.84718661554
 30
0.0
 10
269.1575671371579
 20
1290.694943594981
 30
0.0
 10
288.9653437515267
 20
1239.529399846861
 30
0.0
 10
297.8583784289554
 20
1215.799867227042
 30
0.0
 10
305.5136934866573
 20
1194.597327091886
 30
0.0
 10
310.0479737156934
 20
1171.142546276993
 30
0.0
 10
311.796685210888
 20
1137.906663526386
 30
0.0
 10
311.3364892284085
 20
1094.695235638372
 30
0.0
 10
302.2039289923055
 20
1023.291241356635
 30
0.0
 10
279.5032605539713
 20
966.9787896691397
 30
0.0
 10
257.5028135587167
 20
935.0346171270595
 30
0.0
  0
SPLINE
  5
5A8D7
330
1F
100
AcDbEntity
  8
Default
100
AcDbSpline
210
0.0
220
0.0
230
1.0
 70
     8
 71
     3
 72
    19
 73
    15
 74
     0
 42
0.000000001
 43
0.0000000001
 40
-12.0
 40
-12.0
 40
-12.0
 40
-12.0
 40
-11.0
 40
-10.0
 40
-9.0
 40
-8.0
 40
-7.0
 40
-6.0
 40
-5.0
 40
-4.0
 40
-3.0
 40
-2.0
 40
-1.0
 40
0.0
 40
0.0
 40
0.0
 40
0.0
 10
223.1130174103459
 20
1500.023491637045
 30
0.0
 10
219.9179665899469
 20
1505.387211826905
 30
0.0
 10
207.0962822265724
 20
1509.45477455991
 30
0.0
 10
188.9808702123487
 20
1514.041258853371
 30
0.0
 10
170.1960210558941
 20
1517.446820123403
 30
0.0
 10
151.4753307374308
 20
1520.536764332834
 30
0.0
 10
132.6377094247659
 20
1523.065029361633
 30
0.0
 10
113.755502951652
 20
1525.150279792482
 30
0.0
 10
94.82877639123444
 20
1526.810192288767
 30
0.0
 10
75.87334089694969
 20
1528.088060266591
 30
0.0
 10
56.89765483551354
 20
1529.018703279768
 30
0.0
 10
37.90945744498504
 20
1529.638120442114
 30
0.0
 10
18.91440146354262
 20
1529.982118799149
 30
0.0
 10
6.249207203076821
 20
1530.051721550668
 30
0.0
 10
-0.083364355417416
 20
1530.052539083861
 30
0.0
  0
SPLINE
  5
5A8DC
330
1F
100
AcDbEntity
  8
Default
100
AcDbSpline
210
0.0
220
0.0
230
1.0
 70
    12
 71
     2
 72
     6
 73
     3
 74
     0
 42
0.000000001
 43
0.0000000001
 40
-6.233889429224446
 40
-6.233889429224446
 40
-6.233889429224446
 40
0.0
 40
0.0
 40
0.0
 10
-0.083364355417416
 20
1543.45577619118
 30
0.0
 41
1.0
 10
79.26043790028098
 20
1543.603160809804
 30
0.0
 41
0.996730330589404
 10
157.5915792525998
 20
1530.968839481242
 30
0.0
 41
1.0
  0
SPLINE
  5
5A8DD
330
1F
100
AcDbEntity
  8
Default
100
AcDbSpline
210
0.0
220
0.0
230
1.0
 70
     8
 71
     3
 72
    12
 73
     8
 74
     0
 42
0.000000001
 43
0.0000000001
 40
0.0
 40
0.0
 40
0.0
 40
0.0
 40
0.8495817757806477
 40
1.391422022197968
 40
2.191064820612614
 40
2.689385262996221
 40
3.111933853859593
 40
3.111933853859593
 40
3.111933853859593
 40
3.111933853859593
 10
157.5915792525998
 20
1530.968839481242
 30
0.0
 10
164.6982106546206
 20
1529.696932602749
 30
0.0
 10
176.2915919297743
 20
1527.919965878455
 30
0.0
 10
194.5003283017727
 20
1524.073927833104
 30
0.0
 10
209.5006200249195
 20
1520.020700771123
 30
0.0
 10
222.3397285833021
 20
1512.277634900644
 30
0.0
 10
224.2625631941523
 20
1503.680018447003
 30
0.0
 10
223.1512920832724
 20
1500.163087019808
 30
0.0
  0
SPLINE
  5
5A8DE
330
1F
100
AcDbEntity
  8
Default
100
AcDbSpline
210
0.0
220
0.0
230
1.0
 70
    12
 71
     2
 72
     6
 73
     3
 74
     0
 42
0.000000001
 43
0.0000000001
 40
0.0
 40
0.0
 40
0.0
 40
0.443505275079806
 40
0.443505275079806
 40
0.443505275079806
 10
223.1512920832724
 20
1500.163087019808
 30
0.0
 41
1.0
 10
221.5258046025815
 20
1494.536980088518
 30
0.0
 41
0.9799943751373794
 10
217.9233312202382
 20
1490.107957340786
 30
0.0
 41
1.0
  0
SPLINE
  5
5A8DF
330
1F
100
AcDbEntity
  8
Default
100
AcDbSpline
210
0.0
220
0.0
230
1.0
 70
    12
 71
     2
 72
     6
 73
     3
 74
     0
 42
0.000000001
 43
0.0000000001
 40
-5.654573080352872
 40
-5.654573080352872
 40
-5.654573080352872
 40
0.0
 40
0.0
 40
0.0
 10
142.8995571796299
 20
1533.33695951016
 30
0.0
 41
1.0
 10
71.88527972335259
 20
1545.016293311963
 30
0.0
 41
0.9967681786255456
 10
-0.083364355417416
 20
1545.172352721043
 30
0.0
 41
1.0
  0
SPLINE
  5
5A8E1
330
1F
100
AcDbEntity
  8
Default
100
AcDbSpline
210
0.0
220
0.0
230
1.0
 70
    12
 71
     2
 72
     6
 73
     3
 74
     0
 42
0.000000001
 43
0.0000000001
 40
-1.102413928352738
 40
-1.102413928352738
 40
-1.102413928352738
 40
0.0
 40
0.0
 40
0.0
 10
311.5448041223285
 20
1129.385786328132
 30
0.0
 41
0.9999999993925147
 10
325.5536530460818
 20
1129.230554078853
 30
0.0
 41
0.9999999996616539
 10
339.5635350436391
 20
1129.075482313414
 30
0.0
 41
1.0
  0
SPLINE
  5
5A8E2
330
1F
100
AcDbEntity
  8
Default
100
AcDbSpline
210
0.0
220
0.0
230
1.0
 70
     8
 71
     3
 72
    14
 73
    10
 74
     0
 42
0.000000001
 43
0.0000000001
 40
0.0
 40
0.0
 40
0.0
 40
0.0
 40
1.0
 40
2.0
 40
3.0
 40
4.0
 40
5.0
 40
6.0
 40
7.0
 40
7.0
 40
7.0
 40
7.0
 10
339.5635350436391
 20
1129.075482313414
 30
0.0
 10
341.3492976149833
 20
1129.048815139855
 30
0.0
 10
344.7182505520764
 20
1128.533269648849
 30
0.0
 10
349.3506307155517
 20
1126.354334289377
 30
0.0
 10
352.7748312018016
 20
1122.305702132109
 30
0.0
 10
352.6890474188299
 20
1116.890740522546
 30
0.0
 10
349.1845760585206
 20
1112.924368728627
 30
0.0
 10
344.5264884620524
 20
1110.805484611237
 30
0.0
 10
341.1524209903951
 20
1110.325220966441
 30
0.0
 10
339.4650124180812
 20
1110.324462950984
 30
0.0
  0
SPLINE
  5
5A8E3
330
1F
100
AcDbEntity
  8
Default
100
AcDbSpline
210
0.0
220
0.0
230
1.0
 70
    12
 71
     2
 72
     6
 73
     3
 74
     0
 42
0.000000001
 43
0.0000000001
 40
0.0
 40
0.0
 40
0.0
 40
1.112498698414412
 40
1.112498698414412
 40
1.112498698414412
 10
339.4650124180812
 20
1110.324462950984
 30
0.0
 41
1.0
 10
325.3371377317348
 20
1110.168687454263
 30
0.0
 41
0.9999999996585591
 10
311.2092656628997
 20
1110.012674746215
 30
0.0
 41
0.9999999993875963
  0
SPLINE
  5
5A8E4
330
1F
100
AcDbEntity
  8
Default
100
AcDbSpline
210
0.0
220
0.0
230
1.0
 70
    12
 71
     2
 72
     6
 73
     3
 74
     0
 42
0.000000001
 43
0.0000000001
 40
-1.281345128275034
 40
-1.281345128275034
 40
-1.281345128275034
 40
0.0
 40
0.0
 40
0.0
 10
9.656931063833781
 20
812.6175557849148
 30
0.0
 41
0.9999999993069707
 10
9.476473018443812
 20
796.3351458766867
 30
0.0
 41
0.9999999996067375
 10
9.296231780485413
 20
780.0513403254537
 30
0.0
 41
1.0
  0
SPLINE
  5
5A8E5
330
1F
100
AcDbEntity
  8
Default
100
AcDbSpline
210
0.0
220
0.0
230
1.0
 70
     8
 71
     3
 72
    14
 73
    10
 74
     0
 42
0.000000001
 43
0.0000000001
 40
0.0
 40
0.0
 40
0.0
 40
0.0
 40
1.0
 40
2.0
 40
3.0
 40
4.0
 40
5.0
 40
6.0
 40
7.0
 40
7.0
 40
7.0
 40
7.0
 10
9.296231780485413
 20
780.0513403254537
 30
0.0
 10
9.269564606926451
 20
778.2655777541097
 30
0.0
 10
8.754019115917344
 20
774.8966248170201
 30
0.0
 10
6.575083756448748
 20
770.2642446535413
 30
0.0
 10
2.526451599180745
 20
766.8400441672913
 30
0.0
 10
-2.888510010383015
 20
766.925827950263
 30
0.0
 10
-6.854881804297747
 20
770.4302993105686
 30
0.0
 10
-8.97376592169121
 20
775.0883869070405
 30
0.0
 10
-9.454029566487861
 20
778.4624543786978
 30
0.0
 10
-9.454787581943946
 20
780.1498629510117
 30
0.0
  0
SPLINE
  5
5A8E6
330
1F
100
AcDbEntity
  8
Default
100
AcDbSpline
210
0.0
220
0.0
230
1.0
 70
    12
 71
     2
 72
     6
 73
     3
 74
     0
 42
0.000000001
 43
0.0000000001
 40
0.0
 40
0.0
 40
0.0
 40
1.278324852146924
 40
1.278324852146924
 40
1.278324852146924
 10
-9.454787581943946
 20
780.1498629510117
 30
0.0
 41
1.0
 10
-9.633782567837897
 20
796.3836017825581
 30
0.0
 41
0.9999999996076647
 10
-9.813090751631079
 20
812.6173371577227
 30
0.0
 41
0.9999999993083845
  0
SPLINE
  5
5A8E8
330
1F
100
AcDbEntity
  8
Default
100
AcDbSpline
210
0.0
220
0.0
230
1.0
 70
     8
 71
     3
 72
    47
 73
    43
 74
     0
 42
0.000000001
 43
0.0000000001
 40
36.00001859489052
 40
36.00001859489052
 40
36.00001859489052
 40
36.00001859489052
 40
37.0
 40
38.0
 40
39.0
 40
40.0
 40
41.0
 40
42.0
 40
43.0
 40
44.0
 40
45.0
 40
46.0
 40
47.0
 40
48.0
 40
49.0
 40
50.0
 40
51.0
 40
52.0
 40
53.0
 40
53.0
 40
53.0
 40
54.0
 40
55.0
 40
56.0
 40
57.0
 40
58.0
 40
59.0
 40
60.0
 40
60.0
 40
60.0
 40
61.0
 40
62.0
 40
63.0
 40
64.0
 40
65.0
 40
66.0
 40
67.0
 40
68.0
 40
69.0
 40
70.0
 40
71.0
 40
72.0
 40
72.0
 40
72.0
 40
72.0
 10
-0.0821874360331094
 20
812.5133546983189
 30
0.0
 10
11.10294204676574
 20
812.4944289786316
 30
0.0
 10
33.47564159020817
 20
813.4099417035379
 30
0.0
 10
66.79015880771522
 20
817.691915188427
 30
0.0
 10
99.5776523188365
 20
825.0134742016655
 30
0.0
 10
131.4813752525483
 20
835.5528061598981
 30
0.0
 10
162.0776531205088
 20
849.4767302735692
 30
0.0
 10
190.7319400023484
 20
867.0507238805969
 30
0.0
 10
217.1500800055442
 20
887.8470889410003
 30
0.0
 10
240.6106819550955
 20
911.9395059104848
 30
0.0
 10
260.8236804681114
 20
938.8115532598478
 30
0.0
 10
277.1614148709418
 20
968.2301861973522
 30
0.0
 10
288.8354785711094
 20
999.7824537587897
 30
0.0
 10
296.5069580530149
 20
1032.496735520252
 30
0.0
 10
301.2204172737879
 20
1065.744567981184
 30
0.0
 10
303.4885925554013
 20
1099.250117349677
 30
0.0
 10
303.5625184038549
 20
1132.804600302605
 30
0.0
 10
302.188231642082
 20
1166.38380618852
 30
0.0
 10
297.8301060900962
 20
1188.417635787244
 30
0.0
 10
294.4234012388156
 20
1199.079620613278
 30
0.0
 10
291.0988989215553
 20
1209.553309309
 30
0.0
 10
284.3467597139029
 20
1230.46836879026
 30
0.0
 10
273.6946333735545
 20
1261.66751055707
 30
0.0
 10
262.4376534215849
 20
1292.653850304081
 30
0.0
 10
250.4967401150429
 20
1323.384147416282
 30
0.0
 10
237.7691718618485
 20
1353.796502207837
 30
0.0
 10
224.2304854058752
 20
1383.860414892859
 30
0.0
 10
214.3831938481021
 20
1403.513067303147
 30
0.0
 10
209.3190931994727
 20
1413.265005882788
 30
0.0
 10
208.2840399630009
 20
1415.267784570822
 30
0.0
 10
206.2243054661344
 20
1419.278813616112
 30
0.0
 10
203.2618160468451
 20
1425.359604742991
 30
0.0
 10
200.5126847374381
 20
1431.540146051158
 30
0.0
 10
198.1124647439287
 20
1437.869880768709
 30
0.0
 10
196.2858449557175
 20
1444.383611489202
 30
0.0
 10
195.3531624956963
 20
1451.137074543336
 30
0.0
 10
196.5009902386305
 20
1457.877609160072
 30
0.0
 10
199.4532300284195
 20
1464.001389292089
 30
0.0
 10
202.3945194656594
 20
1470.082645981975
 30
0.0
 10
205.8490549967723
 20
1475.910226317354
 30
0.0
 10
209.809713647825
 20
1481.397124646805
 30
0.0
 10
216.5007142223699
 20
1488.358935939059
 30
0.0
 10
217.9233312202382
 20
1490.107957340786
 30
0.0
  0
SPLINE
  5
5A8EC
330
1F
100
AcDbEntity
  8
Default
100
AcDbSpline
210
0.0
220
0.0
230
1.0
 70
     8
 71
     3
 72
    12
 73
     8
 74
     0
 42
0.000000001
 43
0.0000000001
 40
0.0
 40
0.0
 40
0.0
 40
0.0
 40
1.918305221504867
 40
3.868777778011241
 40
7.624449324857683
 40
11.42846767657462
 40
15.35241906764609
 40
15.35241906764609
 40
15.35241906764609
 40
15.35241906764609
 10
-0.0828377842331065
 20
1315.655099610494
 30
0.0
 10
16.15723837438463
 20
1315.668579000698
 30
0.0
 10
48.91948674151399
 20
1312.498398171758
 30
0.0
 10
111.0460726622773
 20
1293.852638486243
 30
0.0
 10
179.1157315229834
 20
1247.759096803873
 30
0.0
 10
232.5695270039946
 20
1164.200825081674
 30
0.0
 10
244.3923747664744
 20
1098.622930958978
 30
0.0
 10
244.3918324069205
 20
1065.415411305339
 30
0.0
  0
SPLINE
  5
5A8ED
330
1F
100
AcDbEntity
  8
Default
100
AcDbSpline
210
0.0
220
0.0
230
1.0
 70
     8
 71
     3
 72
    12
 73
     8
 74
     0
 42
0.000000001
 43
0.0000000001
 40
-14.89017236839833
 40
-14.89017236839833
 40
-14.89017236839833
 40
-14.89017236839833
 40
-11.21816917573749
 40
-7.516682162771167
 40
-3.774519558109396
 40
-1.88935509827327
 40
0.0
 40
0.0
 40
0.0
 40
0.0
 10
244.3918324069205
 20
1065.415411305339
 30
0.0
 10
244.4001651544063
 20
1034.321614779879
 30
0.0
 10
231.5184790891221
 20
971.908850549966
 30
0.0
 10
176.8575300798297
 20
892.9955558248641
 30
0.0
 10
109.2145757557341
 20
849.3869571632879
 30
0.0
 10
47.87187742751166
 20
831.4113687044866
 30
0.0
 10
15.91237269244129
 20
828.3376277704721
 30
0.0
 10
-0.0828388309632828
 20
828.3359064912021
 30
0.0
  0
SPLINE
  5
5A8F0
330
1F
100
AcDbEntity
  8
Default
100
AcDbSpline
210
0.0
220
0.0
230
1.0
 70
    12
 71
     2
 72
     6
 73
     3
 74
     0
 42
0.000000001
 43
0.0000000001
 40
0.0
 40
0.0
 40
0.0
 40
0.0853474550214741
 40
0.0853474550214741
 40
0.0853474550214741
 10
-351.9748679900763
 20
1129.978847725584
 30
0.0
 41
1.0
 10
-353.0565584474639
 20
1130.054727125838
 30
0.0
 41
0.9993970637774639
 10
-354.1409068851603
 20
1130.055355332201
 30
0.0
 41
1.0
  0
SPLINE
  5
5A8F1
330
1F
100
AcDbEntity
  8
Default
100
AcDbSpline
210
0.0
220
0.0
230
1.0
 70
     8
 71
     3
 72
    12
 73
     8
 74
     0
 42
0.000000001
 43
0.0000000001
 40
0.0
 40
0.0
 40
0.0
 40
0.0
 40
0.1510110321465192
 40
0.3037660471064116
 40
0.5900965017365678
 40
0.8249401141264362
 40
1.014583801502342
 40
1.014583801502342
 40
1.014583801502342
 40
1.014583801502342
 10
-351.084688884082
 20
1109.490478800979
 30
0.0
 10
-352.3577428893145
 20
1109.365606753041
 30
0.0
 10
-354.9307591872671
 20
1109.268330379329
 30
0.0
 10
-359.9205337898816
 20
1109.705512238097
 30
0.0
 10
-365.4613729675361
 20
1111.2410015855
 30
0.0
 10
-370.5630839847104
 20
1114.663596414788
 30
0.0
 10
-372.2075949508503
 20
1118.062554217677
 30
0.0
 10
-372.1757565667535
 20
1119.697063096895
 30
0.0
  0
SPLINE
  5
5A8F2
330
1F
100
AcDbEntity
  8
Default
100
AcDbSpline
210
0.0
220
0.0
230
1.0
 70
     8
 71
     3
 72
    12
 73
     8
 74
     0
 42
0.000000001
 43
0.0000000001
 40
-1.014583801502342
 40
-1.014583801502342
 40
-1.014583801502342
 40
-1.014583801502342
 40
-0.8249401141264362
 40
-0.5900965017365678
 40
-0.3037660471064116
 40
-0.1510110321465192
 40
0.0
 40
0.0
 40
0.0
 40
0.0
 10
-372.1757565667535
 20
1119.697063096895
 30
0.0
 10
-372.2075949508503
 20
1121.331571976118
 30
0.0
 10
-370.5630839847104
 20
1124.730529779006
 30
0.0
 10
-365.4613729675361
 20
1128.153124608294
 30
0.0
 10
-359.9205337898816
 20
1129.688613955697
 30
0.0
 10
-354.9307591872671
 20
1130.125795814465
 30
0.0
 10
-352.3577428893145
 20
1130.028519440753
 30
0.0
 10
-351.084688884082
 20
1129.903647392815
 30
0.0
  0
SPLINE
  5
5A8F3
330
1F
100
AcDbEntity
  8
Default
100
AcDbSpline
210
0.0
220
0.0
230
1.0
 70
    12
 71
     2
 72
     6
 73
     3
 74
     0
 42
0.000000001
 43
0.0000000001
 40
0.0
 40
0.0
 40
0.0
 40
0.1369528492222414
 40
0.1369528492222414
 40
0.1369528492222414
 10
-341.4490283475639
 20
1110.359749200094
 30
0.0
 41
1.0
 10
-343.1879206094377
 20
1110.396059404795
 30
0.0
 41
0.9999966913238282
 10
-344.9278011881938
 20
1110.376967065096
 30
0.0
 41
0.9999959461296658
  0
ARC
  5
5A8F4
330
1F
100
AcDbEntity
  8
Default
100
AcDbCircle
 10
-345.1366490660944
 20
1097.678684403103
 30
0.0
 40
12.7
100
AcDbArc
 50
89.05774477487231
 51
101.5128478264684
  0
SPLINE
  5
5A8F5
330
1F
100
AcDbEntity
  8
Default
100
AcDbSpline
210
0.0
220
0.0
230
1.0
 70
     8
 71
     3
 72
    14
 73
    10
 74
     0
 42
0.000000001
 43
0.0000000001
 40
0.2772630823298201
 40
0.2772630823298201
 40
0.2772630823298201
 40
0.2772630823298201
 40
1.0
 40
2.0
 40
3.0
 40
4.0
 40
5.0
 40
6.0
 40
7.0
 40
7.0
 40
7.0
 40
7.0
 10
-347.6714124072164
 20
1110.123160077254
 30
0.0
 10
-348.6811560139536
 20
1109.917489613885
 30
0.0
 10
-351.1100507753795
 20
1109.534807146889
 30
0.0
 10
-355.0001765166667
 20
1109.414376371105
 30
0.0
 10
-359.2616948844075
 20
1109.871941970019
 30
0.0
 10
-363.4208380871964
 20
1110.926787816536
 30
0.0
 10
-367.3290734743309
 20
1112.717192520633
 30
0.0
 10
-370.6554444966018
 20
1115.513862260306
 30
0.0
 10
-371.8040376653694
 20
1118.257302169614
 30
0.0
 10
-371.7911470204122
 20
1119.697075709524
 30
0.0
  0
SPLINE
  5
5A8F6
330
1F
100
AcDbEntity
  8
Default
100
AcDbSpline
210
0.0
220
0.0
230
1.0
 70
     8
 71
     3
 72
    14
 73
    10
 74
     0
 42
0.000000001
 43
0.0000000001
 40
-7.0
 40
-7.0
 40
-7.0
 40
-7.0
 40
-6.0
 40
-5.0
 40
-4.0
 40
-3.0
 40
-2.0
 40
-1.0
 40
-0.2482205602640466
 40
-0.2482205602640466
 40
-0.2482205602640466
 40
-0.2482205602640466
 10
-371.7911470204122
 20
1119.697075709524
 30
0.0
 10
-371.8040376653694
 20
1121.136849249428
 30
0.0
 10
-370.6554444966018
 20
1123.880289158738
 30
0.0
 10
-367.3290734743309
 20
1126.676958898412
 30
0.0
 10
-363.4208380871964
 20
1128.467363602509
 30
0.0
 10
-359.2616948844075
 20
1129.522209449025
 30
0.0
 10
-355.0001765166667
 20
1129.979775047939
 30
0.0
 10
-351.0685561080313
 20
1129.858059677439
 30
0.0
 10
-348.5992708707631
 20
1129.463671902411
 30
0.0
 10
-347.5497305589047
 20
1129.245979280533
 30
0.0
  0
ARC
  5
5A8F7
330
1F
100
AcDbEntity
  8
Default
100
AcDbCircle
 10
-344.9704320812957
 20
1141.681300722436
 30
0.0
 40
12.7
100
AcDbArc
 50
258.28203212184
 51
271.022420192049
  0
SPLINE
  5
5A8F8
330
1F
100
AcDbEntity
  8
Default
100
AcDbSpline
210
0.0
220
0.0
230
1.0
 70
    12
 71
     2
 72
     6
 73
     3
 74
     0
 42
0.000000001
 43
0.0000000001
 40
-0.1297405451143296
 40
-0.1297405451143296
 40
-0.1297405451143296
 40
0.0
 40
0.0
 40
0.0
 10
-344.7438177051731
 20
1128.983322697391
 30
0.0
 41
0.9999960316975588
 10
-343.0963746407319
 20
1129.012723778533
 30
0.0
 41
0.999996865512317
 10
-341.4490283475639
 20
1129.047122391048
 30
0.0
 41
1.0
  0
SPLINE
  5
5A8F9
330
1F
100
AcDbEntity
  8
Default
100
AcDbSpline
210
0.0
220
0.0
230
1.0
 70
     8
 71
     3
 72
    22
 73
    18
 74
     0
 42
0.000000001
 43
0.0000000001
 40
0.0
 40
0.0
 40
0.0
 40
0.0
 40
0.2588469591229587
 40
0.6477254461891114
 40
1.024641027840087
 40
1.817983982162573
 40
2.582167143679937
 40
4.062052734317923
 40
7.850412104674
 40
9.497260537102542
 40
10.543391206404
 40
10.8432833113025
 40
12.15829953678302
 40
13.34949093133962
 40
14.77372714428499
 40
17.25709974516987
 40
21.82793658798906
 40
21.82793658798906
 40
21.82793658798906
 40
21.82793658798906
 10
-196.6441309668184
 20
1456.287339596251
 30
0.0
 10
-196.4408226582959
 20
1454.08955660249
 30
0.0
 10
-197.4246518362556
 20
1448.642350613705
 30
0.0
 10
-200.5872883076404
 20
1440.551356540624
 30
0.0
 10
-206.284861634816
 20
1428.638766221515
 30
0.0
 10
-214.1075238940825
 20
1414.244381877534
 30
0.0
 10
-225.3705937067675
 20
1391.120284824328
 30
0.0
 10
-246.9943294613254
 20
1344.84718661554
 30
0.0
 10
-269.3219420092241
 20
1290.694943594981
 30
0.0
 10
-289.1297186235929
 20
1239.529399846861
 30
0.0
 10
-298.0227533010216
 20
1215.799867227042
 30
0.0
 10
-305.6780683587235
 20
1194.597327091886
 30
0.0
 10
-310.2123485877596
 20
1171.142546276993
 30
0.0
 10
-311.9610600829542
 20
1137.906663526386
 30
0.0
 10
-311.5008641004747
 20
1094.695235638372
 30
0.0
 10
-302.3683038643717
 20
1023.291241356635
 30
0.0
 10
-279.6676354260376
 20
966.9787896691397
 30
0.0
 10
-257.667188430783
 20
935.0346171270595
 30
0.0
  0
SPLINE
  5
5A8FA
330
1F
100
AcDbEntity
  8
Default
100
AcDbSpline
210
0.0
220
0.0
230
1.0
 70
     8
 71
     3
 72
    19
 73
    15
 74
     0
 42
0.000000001
 43
0.0000000001
 40
-12.0
 40
-12.0
 40
-12.0
 40
-12.0
 40
-11.0
 40
-10.0
 40
-9.0
 40
-8.0
 40
-7.0
 40
-6.0
 40
-5.0
 40
-4.0
 40
-3.0
 40
-2.0
 40
-1.0
 40
0.0
 40
0.0
 40
0.0
 40
0.0
 10
-223.2773922824122
 20
1500.023491637045
 30
0.0
 10
-220.0823414620131
 20
1505.387211826905
 30
0.0
 10
-207.2606570986386
 20
1509.45477455991
 30
0.0
 10
-189.1452450844149
 20
1514.041258853371
 30
0.0
 10
-170.3603959279603
 20
1517.446820123403
 30
0.0
 10
-151.639705609497
 20
1520.536764332834
 30
0.0
 10
-132.8020842968321
 20
1523.065029361633
 30
0.0
 10
-113.9198778237182
 20
1525.150279792482
 30
0.0
 10
-94.99315126330065
 20
1526.810192288767
 30
0.0
 10
-76.0377157690159
 20
1528.088060266591
 30
0.0
 10
-57.06202970757977
 20
1529.018703279768
 30
0.0
 10
-38.07383231705126
 20
1529.638120442114
 30
0.0
 10
-19.07877633560883
 20
1529.982118799149
 30
0.0
 10
-6.41358207514304
 20
1530.051721550668
 30
0.0
 10
-0.0810105166488029
 20
1530.052539083861
 30
0.0
  0
SPLINE
  5
5A8FB
330
1F
100
AcDbEntity
  8
Default
100
AcDbSpline
210
0.0
220
0.0
230
1.0
 70
    12
 71
     2
 72
     6
 73
     3
 74
     0
 42
0.000000001
 43
0.0000000001
 40
-6.233889429224446
 40
-6.233889429224446
 40
-6.233889429224446
 40
0.0
 40
0.0
 40
0.0
 10
-0.0810105166488029
 20
1543.45577619118
 30
0.0
 41
1.0
 10
-79.42481277234719
 20
1543.603160809804
 30
0.0
 41
0.996730330589404
 10
-157.755954124666
 20
1530.968839481242
 30
0.0
 41
1.0
  0
SPLINE
  5
5A8FC
330
1F
100
AcDbEntity
  8
Default
100
AcDbSpline
210
0.0
220
0.0
230
1.0
 70
     8
 71
     3
 72
    12
 73
     8
 74
     0
 42
0.000000001
 43
0.0000000001
 40
0.0
 40
0.0
 40
0.0
 40
0.0
 40
0.8495817757806477
 40
1.391422022197968
 40
2.191064820612614
 40
2.689385262996221
 40
3.111933853859593
 40
3.111933853859593
 40
3.111933853859593
 40
3.111933853859593
 10
-157.755954124666
 20
1530.968839481242
 30
0.0
 10
-164.8625855266868
 20
1529.696932602749
 30
0.0
 10
-176.4559668018405
 20
1527.919965878455
 30
0.0
 10
-194.6647031738389
 20
1524.073927833104
 30
0.0
 10
-209.6649948969857
 20
1520.020700771123
 30
0.0
 10
-222.5041034553683
 20
1512.277634900644
 30
0.0
 10
-224.4269380662185
 20
1503.680018447003
 30
0.0
 10
-223.3156669553387
 20
1500.163087019808
 30
0.0
  0
SPLINE
  5
5A8FD
330
1F
100
AcDbEntity
  8
Default
100
AcDbSpline
210
0.0
220
0.0
230
1.0
 70
    12
 71
     2
 72
     6
 73
     3
 74
     0
 42
0.000000001
 43
0.0000000001
 40
0.0
 40
0.0
 40
0.0
 40
0.443505275079806
 40
0.443505275079806
 40
0.443505275079806
 10
-223.3156669553387
 20
1500.163087019808
 30
0.0
 41
1.0
 10
-221.6901794746477
 20
1494.536980088518
 30
0.0
 41
0.9799943751373794
 10
-218.0877060923044
 20
1490.107957340786
 30
0.0
 41
1.0
  0
SPLINE
  5
5A8FE
330
1F
100
AcDbEntity
  8
Default
100
AcDbSpline
210
0.0
220
0.0
230
1.0
 70
    12
 71
     2
 72
     6
 73
     3
 74
     0
 42
0.000000001
 43
0.0000000001
 40
-5.654573080352872
 40
-5.654573080352872
 40
-5.654573080352872
 40
0.0
 40
0.0
 40
0.0
 10
-143.0639320516961
 20
1533.33695951016
 30
0.0
 41
1.0
 10
-72.04965459541881
 20
1545.016293311963
 30
0.0
 41
0.9967681786255456
 10
-0.0810105166488029
 20
1545.172352721043
 30
0.0
 41
1.0
  0
SPLINE
  5
5A8FF
330
1F
100
AcDbEntity
  8
Default
100
AcDbSpline
210
0.0
220
0.0
230
1.0
 70
    12
 71
     2
 72
     6
 73
     3
 74
     0
 42
0.000000001
 43
0.0000000001
 40
-1.102413928352738
 40
-1.102413928352738
 40
-1.102413928352738
 40
0.0
 40
0.0
 40
0.0
 10
-311.7091789943947
 20
1129.385786328132
 30
0.0
 41
0.9999999993925147
 10
-325.718027918148
 20
1129.230554078853
 30
0.0
 41
0.9999999996616539
 10
-339.7279099157054
 20
1129.075482313414
 30
0.0
 41
1.0
  0
SPLINE
  5
5A900
330
1F
100
AcDbEntity
  8
Default
100
AcDbSpline
210
0.0
220
0.0
230
1.0
 70
     8
 71
     3
 72
    14
 73
    10
 74
     0
 42
0.000000001
 43
0.0000000001
 40
0.0
 40
0.0
 40
0.0
 40
0.0
 40
1.0
 40
2.0
 40
3.0
 40
4.0
 40
5.0
 40
6.0
 40
7.0
 40
7.0
 40
7.0
 40
7.0
 10
-339.7279099157054
 20
1129.075482313414
 30
0.0
 10
-341.5136724870495
 20
1129.048815139855
 30
0.0
 10
-344.8826254241426
 20
1128.533269648849
 30
0.0
 10
-349.5150055876179
 20
1126.354334289377
 30
0.0
 10
-352.9392060738678
 20
1122.305702132109
 30
0.0
 10
-352.8534222908961
 20
1116.890740522546
 30
0.0
 10
-349.3489509305868
 20
1112.924368728627
 30
0.0
 10
-344.6908633341186
 20
1110.805484611237
 30
0.0
 10
-341.3167958624613
 20
1110.325220966441
 30
0.0
 10
-339.6293872901474
 20
1110.324462950984
 30
0.0
  0
SPLINE
  5
5A901
330
1F
100
AcDbEntity
  8
Default
100
AcDbSpline
210
0.0
220
0.0
230
1.0
 70
    12
 71
     2
 72
     6
 73
     3
 74
     0
 42
0.000000001
 43
0.0000000001
 40
0.0
 40
0.0
 40
0.0
 40
1.112498698414412
 40
1.112498698414412
 40
1.112498698414412
 10
-339.6293872901474
 20
1110.324462950984
 30
0.0
 41
1.0
 10
-325.5015126038011
 20
1110.168687454263
 30
0.0
 41
0.9999999996585591
 10
-311.3736405349659
 20
1110.012674746215
 30
0.0
 41
0.9999999993875963
  0
SPLINE
  5
5A902
330
1F
100
AcDbEntity
  8
Default
100
AcDbSpline
210
0.0
220
0.0
230
1.0
 70
     8
 71
     3
 72
    47
 73
    43
 74
     0
 42
0.000000001
 43
0.0000000001
 40
36.00001859489052
 40
36.00001859489052
 40
36.00001859489052
 40
36.00001859489052
 40
37.0
 40
38.0
 40
39.0
 40
40.0
 40
41.0
 40
42.0
 40
43.0
 40
44.0
 40
45.0
 40
46.0
 40
47.0
 40
48.0
 40
49.0
 40
50.0
 40
51.0
 40
52.0
 40
53.0
 40
53.0
 40
53.0
 40
54.0
 40
55.0
 40
56.0
 40
57.0
 40
58.0
 40
59.0
 40
60.0
 40
60.0
 40
60.0
 40
61.0
 40
62.0
 40
63.0
 40
64.0
 40
65.0
 40
66.0
 40
67.0
 40
68.0
 40
69.0
 40
70.0
 40
71.0
 40
72.0
 40
72.0
 40
72.0
 40
72.0
 10
-0.0821874360331094
 20
812.5133546983189
 30
0.0
 10
-11.26731691883196
 20
812.4944289786316
 30
0.0
 10
-33.64001646227439
 20
813.4099417035379
 30
0.0
 10
-66.95453367978143
 20
817.691915188427
 30
0.0
 10
-99.74202719090271
 20
825.0134742016655
 30
0.0
 10
-131.6457501246145
 20
835.5528061598981
 30
0.0
 10
-162.242027992575
 20
849.4767302735692
 30
0.0
 10
-190.8963148744146
 20
867.0507238805969
 30
0.0
 10
-217.3144548776104
 20
887.8470889410003
 30
0.0
 10
-240.7750568271617
 20
911.9395059104848
 30
0.0
 10
-260.9880553401776
 20
938.8115532598478
 30
0.0
 10
-277.325789743008
 20
968.2301861973522
 30
0.0
 10
-288.9998534431756
 20
999.7824537587897
 30
0.0
 10
-296.671332925081
 20
1032.496735520252
 30
0.0
 10
-301.3847921458542
 20
1065.744567981184
 30
0.0
 10
-303.6529674274675
 20
1099.250117349677
 30
0.0
 10
-303.7268932759212
 20
1132.804600302605
 30
0.0
 10
-302.3526065141482
 20
1166.38380618852
 30
0.0
 10
-297.9944809621624
 20
1188.417635787244
 30
0.0
 10
-294.5877761108818
 20
1199.079620613278
 30
0.0
 10
-291.2632737936215
 20
1209.553309309
 30
0.0
 10
-284.5111345859691
 20
1230.46836879026
 30
0.0
 10
-273.8590082456208
 20
1261.66751055707
 30
0.0
 10
-262.6020282936511
 20
1292.653850304081
 30
0.0
 10
-250.6611149871091
 20
1323.384147416282
 30
0.0
 10
-237.9335467339147
 20
1353.796502207837
 30
0.0
 10
-224.3948602779415
 20
1383.860414892859
 30
0.0
 10
-214.5475687201683
 20
1403.513067303147
 30
0.0
 10
-209.4834680715389
 20
1413.265005882788
 30
0.0
 10
-208.4484148350671
 20
1415.267784570822
 30
0.0
 10
-206.3886803382006
 20
1419.278813616112
 30
0.0
 10
-203.4261909189113
 20
1425.359604742991
 30
0.0
 10
-200.6770596095043
 20
1431.540146051158
 30
0.0
 10
-198.2768396159949
 20
1437.869880768709
 30
0.0
 10
-196.4502198277837
 20
1444.383611489202
 30
0.0
 10
-195.5175373677625
 20
1451.137074543336
 30
0.0
 10
-196.6653651106967
 20
1457.877609160072
 30
0.0
 10
-199.6176049004857
 20
1464.001389292089
 30
0.0
 10
-202.5588943377256
 20
1470.082645981975
 30
0.0
 10
-206.0134298688386
 20
1475.910226317354
 30
0.0
 10
-209.9740885198912
 20
1481.397124646805
 30
0.0
 10
-216.6650890944361
 20
1488.358935939059
 30
0.0
 10
-218.0877060923044
 20
1490.107957340786
 30
0.0
  0
SPLINE
  5
5A903
330
1F
100
AcDbEntity
  8
Default
100
AcDbSpline
210
0.0
220
0.0
230
1.0
 70
     8
 71
     3
 72
    12
 73
     8
 74
     0
 42
0.000000001
 43
0.0000000001
 40
0.0
 40
0.0
 40
0.0
 40
0.0
 40
1.918305221504867
 40
3.868777778011241
 40
7.624449324857683
 40
11.42846767657462
 40
15.35241906764609
 40
15.35241906764609
 40
15.35241906764609
 40
15.35241906764609
 10
-0.0815370878331123
 20
1315.655099610494
 30
0.0
 10
-16.32161324645085
 20
1315.668579000698
 30
0.0
 10
-49.08386161358021
 20
1312.498398171758
 30
0.0
 10
-111.2104475343435
 20
1293.852638486243
 30
0.0
 10
-179.2801063950496
 20
1247.759096803873
 30
0.0
 10
-232.7339018760608
 20
1164.200825081674
 30
0.0
 10
-244.5567496385406
 20
1098.622930958978
 30
0.0
 10
-244.5562072789867
 20
1065.415411305339
 30
0.0
  0
SPLINE
  5
5A904
330
1F
100
AcDbEntity
  8
Default
100
AcDbSpline
210
0.0
220
0.0
230
1.0
 70
     8
 71
     3
 72
    12
 73
     8
 74
     0
 42
0.000000001
 43
0.0000000001
 40
-14.89017236839833
 40
-14.89017236839833
 40
-14.89017236839833
 40
-14.89017236839833
 40
-11.21816917573749
 40
-7.516682162771167
 40
-3.774519558109396
 40
-1.88935509827327
 40
0.0
 40
0.0
 40
0.0
 40
0.0
 10
-244.5562072789867
 20
1065.415411305339
 30
0.0
 10
-244.5645400264725
 20
1034.321614779879
 30
0.0
 10
-231.6828539611884
 20
971.908850549966
 30
0.0
 10
-177.021904951896
 20
892.9955558248641
 30
0.0
 10
-109.3789506278003
 20
849.3869571632879
 30
0.0
 10
-48.03625229957788
 20
831.4113687044866
 30
0.0
 10
-16.07674756450751
 20
828.3376277704721
 30
0.0
 10
-0.081536041102936
 20
828.3359064912021
 30
0.0
  0
SPLINE
  5
5A907
330
1F
100
AcDbEntity
  8
Default
100
AcDbSpline
210
0.0
220
0.0
230
1.0
 70
     8
 71
     3
 72
    12
 73
     8
 74
     0
 42
0.000000001
 43
0.0000000001
 40
0.0
 40
0.0
 40
0.0
 40
0.0
 40
0.1510110321465192
 40
0.3037660471064116
 40
0.5900965017365678
 40
0.8249401141264362
 40
1.014583801502342
 40
1.014583801502342
 40
1.014583801502342
 40
1.014583801502342
 10
-10.28877173194951
 20
-768.6945613570771
 30
0.0
 10
-10.41364377988748
 20
-767.4215073518483
 30
0.0
 10
-10.51092015359927
 20
-764.8484910538956
 30
0.0
 10
-10.0737382948314
 20
-759.8587164512776
 30
0.0
 10
-8.538248947428201
 20
-754.3178772736194
 30
0.0
 10
-5.115654118140355
 20
-749.2161662564488
 30
0.0
 10
-1.716696315251738
 20
-747.5716552903088
 30
0.0
 10
-0.0821874360331094
 20
-747.6034936744092
 30
0.0
  0
SPLINE
  5
5A908
330
1F
100
AcDbEntity
  8
Default
100
AcDbSpline
210
0.0
220
0.0
230
1.0
 70
     8
 71
     3
 72
    12
 73
     8
 74
     0
 42
0.000000001
 43
0.0000000001
 40
-1.014583801502342
 40
-1.014583801502342
 40
-1.014583801502342
 40
-1.014583801502342
 40
-0.8249401141264362
 40
-0.5900965017365678
 40
-0.3037660471064116
 40
-0.1510110321465192
 40
0.0
 40
0.0
 40
0.0
 40
0.0
 10
-0.0821874360331094
 20
-747.6034936744092
 30
0.0
 10
1.552321443189157
 20
-747.5716552903088
 30
0.0
 10
4.951279246077774
 20
-749.2161662564488
 30
0.0
 10
8.37387407536562
 20
-754.3178772736194
 30
0.0
 10
9.909363422768819
 20
-759.8587164512776
 30
0.0
 10
10.34654528153669
 20
-764.8484910538956
 30
0.0
 10
10.2492689078249
 20
-767.4215073518483
 30
0.0
 10
10.12439685988329
 20
-768.6945613570771
 30
0.0
  0
SPLINE
  5
5A909
330
1F
100
AcDbEntity
  8
Default
100
AcDbSpline
210
0.0
220
0.0
230
1.0
 70
    12
 71
     2
 72
     6
 73
     3
 74
     0
 42
0.000000001
 43
0.0000000001
 40
0.0
 40
0.0
 40
0.0
 40
0.1369528492222414
 40
0.1369528492222414
 40
0.1369528492222414
 10
-9.419501332834897
 20
-778.3302218935952
 30
0.0
 41
1.0
 10
-9.383191128133603
 20
-776.5913296317178
 30
0.0
 41
0.9999966913238282
 10
-9.402283467832148
 20
-774.8514490529689
 30
0.0
 41
0.9999959461296658
  0
ARC
  5
5A90A
330
1F
100
AcDbEntity
  8
Default
100
AcDbCircle
 10
-22.10056612982544
 20
-774.6426011750684
 30
0.0
 40
12.7
100
AcDbArc
 50
359.0577447748722
 51
11.51284782646743
  0
SPLINE
  5
5A90B
330
1F
100
AcDbEntity
  8
Default
100
AcDbSpline
210
0.0
220
0.0
230
1.0
 70
     8
 71
     3
 72
    14
 73
    10
 74
     0
 42
0.000000001
 43
0.0000000001
 40
0.2772630823298201
 40
0.2772630823298201
 40
0.2772630823298201
 40
0.2772630823298201
 40
1.0
 40
2.0
 40
3.0
 40
4.0
 40
5.0
 40
6.0
 40
7.0
 40
7.0
 40
7.0
 40
7.0
 10
-9.656090455674984
 20
-772.1078378339464
 30
0.0
 10
-9.861760919043717
 20
-771.0980942272092
 30
0.0
 10
-10.24444338603962
 20
-768.6691994657796
 30
0.0
 10
-10.36487416182308
 20
-764.7790737244961
 30
0.0
 10
-9.907308562909292
 20
-760.5175553567517
 30
0.0
 10
-8.852462716392892
 20
-756.3584121539626
 30
0.0
 10
-7.062058012295437
 20
-752.4501767668319
 30
0.0
 10
-4.265388272622203
 20
-749.1238057445573
 30
0.0
 10
-1.521948363315004
 20
-747.9752125757897
 30
0.0
 10
-0.0821748234079678
 20
-747.988103220747
 30
0.0
  0
SPLINE
  5
5A90C
330
1F
100
AcDbEntity
  8
Default
100
AcDbSpline
210
0.0
220
0.0
230
1.0
 70
     8
 71
     3
 72
    14
 73
    10
 74
     0
 42
0.000000001
 43
0.0000000001
 40
-7.0
 40
-7.0
 40
-7.0
 40
-7.0
 40
-6.0
 40
-5.0
 40
-4.0
 40
-3.0
 40
-2.0
 40
-1.0
 40
-0.2482205602640466
 40
-0.2482205602640466
 40
-0.2482205602640466
 40
-0.2482205602640466
 10
-0.0821748234079678
 20
-747.988103220747
 30
0.0
 10
1.357598716502707
 20
-747.9752125757897
 30
0.0
 10
4.101038625809906
 20
-749.1238057445573
 30
0.0
 10
6.89770836548314
 20
-752.4501767668319
 30
0.0
 10
8.688113069580595
 20
-756.3584121539626
 30
0.0
 10
9.742958916096995
 20
-760.5175553567517
 30
0.0
 10
10.20052451501078
 20
-764.7790737244961
 30
0.0
 10
10.07880914451061
 20
-768.7106941331315
 30
0.0
 10
9.684421369482606
 20
-771.179979370396
 30
0.0
 10
9.46672874760452
 20
-772.2295196822581
 30
0.0
  0
ARC
  5
5A90D
330
1F
100
AcDbEntity
  8
Default
100
AcDbCircle
 10
21.90205018950701
 20
-774.8088181598598
 30
0.0
 40
12.7
100
AcDbArc
 50
168.2820321218405
 51
181.022420192036
  0
SPLINE
  5
5A90E
330
1F
100
AcDbEntity
  8
Default
100
AcDbSpline
210
0.0
220
0.0
230
1.0
 70
    12
 71
     2
 72
     6
 73
     3
 74
     0
 42
0.000000001
 43
0.0000000001
 40
-0.1297405451143296
 40
-0.1297405451143296
 40
-0.1297405451143296
 40
0.0
 40
0.0
 40
0.0
 10
9.204072164463013
 20
-775.035432535986
 30
0.0
 41
0.9999960316975588
 10
9.233473245604272
 20
-776.6828756004309
 30
0.0
 41
0.999996865512317
 10
9.267871858119633
 20
-778.3302218935952
 30
0.0
 41
1.0
  0
SPLINE
  5
5A90F
330
1F
100
AcDbEntity
  8
Default
100
AcDbSpline
210
0.0
220
0.0
230
1.0
 70
    12
 71
     2
 72
     6
 73
     3
 74
     0
 42
0.000000001
 43
0.0000000001
 40
0.0
 40
0.0
 40
0.0
 40
0.0853474550214741
 40
0.0853474550214741
 40
0.0853474550214741
 10
10.1995971926558
 20
-767.8043822510828
 30
0.0
 41
1.0
 10
10.27547659290985
 20
-766.7226917936988
 30
0.0
 41
0.9993970637774639
 10
10.27610479927216
 20
-765.6383433560024
 30
0.0
 41
1.0
  0
SPLINE
  5
5A910
330
1F
100
AcDbEntity
  8
Default
100
AcDbSpline
210
0.0
220
0.0
230
1.0
 70
    12
 71
     2
 72
     6
 73
     3
 74
     0
 42
0.000000001
 43
0.0000000001
 40
0.0
 40
0.0
 40
0.0
 40
0.0853474550214741
 40
0.0853474550214741
 40
0.0853474550214741
 10
351.8104931180101
 20
-1129.978847725584
 30
0.0
 41
1.0
 10
352.8921835753977
 20
-1130.054727125838
 30
0.0
 41
0.9993970637774639
 10
353.9765320130941
 20
-1130.055355332201
 30
0.0
 41
1.0
  0
SPLINE
  5
5A911
330
1F
100
AcDbEntity
  8
Default
100
AcDbSpline
210
0.0
220
0.0
230
1.0
 70
     8
 71
     3
 72
    12
 73
     8
 74
     0
 42
0.000000001
 43
0.0000000001
 40
0.0
 40
0.0
 40
0.0
 40
0.0
 40
0.1510110321465192
 40
0.3037660471064116
 40
0.5900965017365678
 40
0.8249401141264362
 40
1.014583801502342
 40
1.014583801502342
 40
1.014583801502342
 40
1.014583801502342
 10
350.9203140120157
 20
-1109.490478800979
 30
0.0
 10
352.1933680172483
 20
-1109.365606753041
 30
0.0
 10
354.7663843152009
 20
-1109.268330379329
 30
0.0
 10
359.7561589178154
 20
-1109.705512238097
 30
0.0
 10
365.2969980954699
 20
-1111.2410015855
 30
0.0
 10
370.3987091126442
 20
-1114.663596414788
 30
0.0
 10
372.0432200787841
 20
-1118.062554217677
 30
0.0
 10
372.0113816946873
 20
-1119.697063096895
 30
0.0
  0
SPLINE
  5
5A912
330
1F
100
AcDbEntity
  8
Default
100
AcDbSpline
210
0.0
220
0.0
230
1.0
 70
     8
 71
     3
 72
    12
 73
     8
 74
     0
 42
0.000000001
 43
0.0000000001
 40
-1.014583801502342
 40
-1.014583801502342
 40
-1.014583801502342
 40
-1.014583801502342
 40
-0.8249401141264362
 40
-0.5900965017365678
 40
-0.3037660471064116
 40
-0.1510110321465192
 40
0.0
 40
0.0
 40
0.0
 40
0.0
 10
372.0113816946873
 20
-1119.697063096895
 30
0.0
 10
372.0432200787841
 20
-1121.331571976118
 30
0.0
 10
370.3987091126442
 20
-1124.730529779006
 30
0.0
 10
365.2969980954699
 20
-1128.153124608294
 30
0.0
 10
359.7561589178154
 20
-1129.688613955697
 30
0.0
 10
354.7663843152009
 20
-1130.125795814465
 30
0.0
 10
352.1933680172483
 20
-1130.028519440753
 30
0.0
 10
350.9203140120157
 20
-1129.903647392815
 30
0.0
  0
SPLINE
  5
5A913
330
1F
100
AcDbEntity
  8
Default
100
AcDbSpline
210
0.0
220
0.0
230
1.0
 70
    12
 71
     2
 72
     6
 73
     3
 74
     0
 42
0.000000001
 43
0.0000000001
 40
0.0
 40
0.0
 40
0.0
 40
0.1369528492222414
 40
0.1369528492222414
 40
0.1369528492222414
 10
341.2846534754976
 20
-1110.359749200094
 30
0.0
 41
1.0
 10
343.0235457373715
 20
-1110.396059404795
 30
0.0
 41
0.9999966913238282
 10
344.7634263161276
 20
-1110.376967065096
 30
0.0
 41
0.9999959461296658
  0
ARC
  5
5A914
330
1F
100
AcDbEntity
  8
Default
100
AcDbCircle
 10
344.9722741940282
 20
-1097.678684403103
 30
0.0
 40
12.7
100
AcDbArc
 50
269.0577447748723
 51
281.5128478264684
  0
SPLINE
  5
5A915
330
1F
100
AcDbEntity
  8
Default
100
AcDbSpline
210
0.0
220
0.0
230
1.0
 70
     8
 71
     3
 72
    14
 73
    10
 74
     0
 42
0.000000001
 43
0.0000000001
 40
0.2772630823298201
 40
0.2772630823298201
 40
0.2772630823298201
 40
0.2772630823298201
 40
1.0
 40
2.0
 40
3.0
 40
4.0
 40
5.0
 40
6.0
 40
7.0
 40
7.0
 40
7.0
 40
7.0
 10
347.5070375351502
 20
-1110.123160077254
 30
0.0
 10
348.5167811418873
 20
-1109.917489613885
 30
0.0
 10
350.9456759033132
 20
-1109.534807146889
 30
0.0
 10
354.8358016446004
 20
-1109.414376371105
 30
0.0
 10
359.0973200123412
 20
-1109.871941970019
 30
0.0
 10
363.2564632151302
 20
-1110.926787816536
 30
0.0
 10
367.1646986022647
 20
-1112.717192520633
 30
0.0
 10
370.4910696245356
 20
-1115.513862260306
 30
0.0
 10
371.6396627933032
 20
-1118.257302169614
 30
0.0
 10
371.6267721483459
 20
-1119.697075709524
 30
0.0
  0
SPLINE
  5
5A916
330
1F
100
AcDbEntity
  8
Default
100
AcDbSpline
210
0.0
220
0.0
230
1.0
 70
     8
 71
     3
 72
    14
 73
    10
 74
     0
 42
0.000000001
 43
0.0000000001
 40
-7.0
 40
-7.0
 40
-7.0
 40
-7.0
 40
-6.0
 40
-5.0
 40
-4.0
 40
-3.0
 40
-2.0
 40
-1.0
 40
-0.2482205602640466
 40
-0.2482205602640466
 40
-0.2482205602640466
 40
-0.2482205602640466
 10
371.6267721483459
 20
-1119.697075709524
 30
0.0
 10
371.6396627933032
 20
-1121.136849249428
 30
0.0
 10
370.4910696245356
 20
-1123.880289158738
 30
0.0
 10
367.1646986022647
 20
-1126.676958898412
 30
0.0
 10
363.2564632151302
 20
-1128.467363602509
 30
0.0
 10
359.0973200123412
 20
-1129.522209449025
 30
0.0
 10
354.8358016446004
 20
-1129.979775047939
 30
0.0
 10
350.9041812359651
 20
-1129.858059677439
 30
0.0
 10
348.4348959986969
 20
-1129.463671902411
 30
0.0
 10
347.3853556868385
 20
-1129.245979280533
 30
0.0
  0
ARC
  5
5A917
330
1F
100
AcDbEntity
  8
Default
100
AcDbCircle
 10
344.8060572092295
 20
-1141.681300722436
 30
0.0
 40
12.7
100
AcDbArc
 50
78.28203212183995
 51
91.02242019203599
  0
SPLINE
  5
5A918
330
1F
100
AcDbEntity
  8
Default
100
AcDbSpline
210
0.0
220
0.0
230
1.0
 70
    12
 71
     2
 72
     6
 73
     3
 74
     0
 42
0.000000001
 43
0.0000000001
 40
-0.1297405451143296
 40
-0.1297405451143296
 40
-0.1297405451143296
 40
0.0
 40
0.0
 40
0.0
 10
344.5794428331069
 20
-1128.983322697391
 30
0.0
 41
0.9999960316975588
 10
342.9319997686657
 20
-1129.012723778533
 30
0.0
 41
0.999996865512317
 10
341.2846534754976
 20
-1129.047122391048
 30
0.0
 41
1.0
  0
SPLINE
  5
5A919
330
1F
100
AcDbEntity
  8
Default
100
AcDbSpline
210
0.0
220
0.0
230
1.0
 70
    12
 71
     2
 72
     6
 73
     3
 74
     0
 42
0.000000001
 43
0.0000000001
 40
0.0
 40
0.0
 40
0.0
 40
0.0587632096241838
 40
0.0587632096241838
 40
0.0587632096241838
 10
1.394462849839783
 20
-748.1110689765903
 30
0.0
 41
1.0
 10
0.6680744114096342
 20
-747.9233671921522
 30
0.0
 41
0.9921107855315545
 10
-0.0821728050573256
 20
-747.922254737334
 30
0.0
 41
1.0
  0
SPLINE
  5
5A91A
330
1F
100
AcDbEntity
  8
Default
100
AcDbSpline
210
0.0
220
0.0
230
1.0
 70
    24
 71
     2
 72
     6
 73
     3
 74
     0
 42
0.000000001
 43
0.0000000001
 40
0.0
 40
0.0
 40
0.0
 40
0.0114467396849787
 40
0.0114467396849787
 40
0.0114467396849787
 10
-0.0821875797041685
 20
-747.9222547373121
 30
0.0
 10
-0.0821875141805322
 20
-747.7768811433145
 30
0.0
 10
-0.0821874486605339
 20
-747.6315075493133
 30
0.0
  0
SPLINE
  5
5A91B
330
1F
100
AcDbEntity
  8
Default
100
AcDbSpline
210
0.0
220
0.0
230
1.0
 70
    12
 71
     2
 72
     6
 73
     3
 74
     0
 42
0.000000001
 43
0.0000000001
 40
0.0
 40
0.0
 40
0.0
 40
0.0586712320260919
 40
0.0586712320260919
 40
0.0586712320260919
 10
-0.0821875797041685
 20
-747.9222547373121
 30
0.0
 41
1.0
 10
-0.8312486320132848
 20
-747.923359159826
 30
0.0
 41
0.9921343149382712
 10
-1.556560534641448
 20
-748.110485651114
 30
0.0
 41
1.0
  0
SPLINE
  5
5A91C
330
1F
100
AcDbEntity
  8
Default
100
AcDbSpline
210
0.0
220
0.0
230
1.0
 70
     8
 71
     3
 72
    22
 73
    18
 74
     0
 42
0.000000001
 43
0.0000000001
 40
0.0
 40
0.0
 40
0.0
 40
0.0
 40
0.2588469591229587
 40
0.6477254461891114
 40
1.024641027840087
 40
1.817983982162573
 40
2.582167143679937
 40
4.062052734317923
 40
7.850412104674
 40
9.497260537102542
 40
10.543391206404
 40
10.8432833113025
 40
12.15829953678302
 40
13.34949093133962
 40
14.77372714428499
 40
17.25709974516987
 40
21.82793658798906
 40
21.82793658798906
 40
21.82793658798906
 40
21.82793658798906
 10
196.4797560947522
 20
-1456.287339596251
 30
0.0
 10
196.2764477862297
 20
-1454.08955660249
 30
0.0
 10
197.2602769641894
 20
-1448.642350613705
 30
0.0
 10
200.4229134355742
 20
-1440.551356540624
 30
0.0
 10
206.1204867627498
 20
-1428.638766221515
 30
0.0
 10
213.9431490220163
 20
-1414.244381877534
 30
0.0
 10
225.2062188347013
 20
-1391.120284824328
 30
0.0
 10
246.8299545892592
 20
-1344.84718661554
 30
0.0
 10
269.1575671371579
 20
-1290.694943594981
 30
0.0
 10
288.9653437515267
 20
-1239.529399846861
 30
0.0
 10
297.8583784289554
 20
-1215.799867227042
 30
0.0
 10
305.5136934866573
 20
-1194.597327091886
 30
0.0
 10
310.0479737156934
 20
-1171.142546276993
 30
0.0
 10
311.796685210888
 20
-1137.906663526386
 30
0.0
 10
311.3364892284085
 20
-1094.695235638372
 30
0.0
 10
302.2039289923055
 20
-1023.291241356635
 30
0.0
 10
279.5032605539713
 20
-966.9787896691397
 30
0.0
 10
257.5028135587167
 20
-935.0346171270595
 30
0.0
  0
SPLINE
  5
5A91D
330
1F
100
AcDbEntity
  8
Default
100
AcDbSpline
210
0.0
220
0.0
230
1.0
 70
     8
 71
     3
 72
    19
 73
    15
 74
     0
 42
0.000000001
 43
0.0000000001
 40
-12.0
 40
-12.0
 40
-12.0
 40
-12.0
 40
-11.0
 40
-10.0
 40
-9.0
 40
-8.0
 40
-7.0
 40
-6.0
 40
-5.0
 40
-4.0
 40
-3.0
 40
-2.0
 40
-1.0
 40
0.0
 40
0.0
 40
0.0
 40
0.0
 10
223.1130174103459
 20
-1500.023491637045
 30
0.0
 10
219.9179665899469
 20
-1505.387211826905
 30
0.0
 10
207.0962822265724
 20
-1509.45477455991
 30
0.0
 10
188.9808702123487
 20
-1514.041258853371
 30
0.0
 10
170.1960210558941
 20
-1517.446820123403
 30
0.0
 10
151.4753307374308
 20
-1520.536764332834
 30
0.0
 10
132.6377094247659
 20
-1523.065029361633
 30
0.0
 10
113.755502951652
 20
-1525.150279792482
 30
0.0
 10
94.82877639123444
 20
-1526.810192288767
 30
0.0
 10
75.87334089694969
 20
-1528.088060266591
 30
0.0
 10
56.89765483551354
 20
-1529.018703279768
 30
0.0
 10
37.90945744498504
 20
-1529.638120442114
 30
0.0
 10
18.91440146354262
 20
-1529.982118799149
 30
0.0
 10
6.249207203076821
 20
-1530.051721550668
 30
0.0
 10
-0.083364355417416
 20
-1530.052539083861
 30
0.0
  0
SPLINE
  5
5A91E
330
1F
100
AcDbEntity
  8
Default
100
AcDbSpline
210
0.0
220
0.0
230
1.0
 70
    12
 71
     2
 72
     6
 73
     3
 74
     0
 42
0.000000001
 43
0.0000000001
 40
-6.233889429224446
 40
-6.233889429224446
 40
-6.233889429224446
 40
0.0
 40
0.0
 40
0.0
 10
-0.083364355417416
 20
-1543.45577619118
 30
0.0
 41
1.0
 10
79.26043790028098
 20
-1543.603160809804
 30
0.0
 41
0.996730330589404
 10
157.5915792525998
 20
-1530.968839481242
 30
0.0
 41
1.0
  0
SPLINE
  5
5A91F
330
1F
100
AcDbEntity
  8
Default
100
AcDbSpline
210
0.0
220
0.0
230
1.0
 70
     8
 71
     3
 72
    12
 73
     8
 74
     0
 42
0.000000001
 43
0.0000000001
 40
0.0
 40
0.0
 40
0.0
 40
0.0
 40
0.8495817757806477
 40
1.391422022197968
 40
2.191064820612614
 40
2.689385262996221
 40
3.111933853859593
 40
3.111933853859593
 40
3.111933853859593
 40
3.111933853859593
 10
157.5915792525998
 20
-1530.968839481242
 30
0.0
 10
164.6982106546206
 20
-1529.696932602749
 30
0.0
 10
176.2915919297743
 20
-1527.919965878455
 30
0.0
 10
194.5003283017727
 20
-1524.073927833104
 30
0.0
 10
209.5006200249195
 20
-1520.020700771123
 30
0.0
 10
222.3397285833021
 20
-1512.277634900644
 30
0.0
 10
224.2625631941523
 20
-1503.680018447003
 30
0.0
 10
223.1512920832724
 20
-1500.163087019808
 30
0.0
  0
SPLINE
  5
5A920
330
1F
100
AcDbEntity
  8
Default
100
AcDbSpline
210
0.0
220
0.0
230
1.0
 70
    12
 71
     2
 72
     6
 73
     3
 74
     0
 42
0.000000001
 43
0.0000000001
 40
0.0
 40
0.0
 40
0.0
 40
0.443505275079806
 40
0.443505275079806
 40
0.443505275079806
 10
223.1512920832724
 20
-1500.163087019808
 30
0.0
 41
1.0
 10
221.5258046025815
 20
-1494.536980088518
 30
0.0
 41
0.9799943751373794
 10
217.9233312202382
 20
-1490.107957340786
 30
0.0
 41
1.0
  0
SPLINE
  5
5A921
330
1F
100
AcDbEntity
  8
Default
100
AcDbSpline
210
0.0
220
0.0
230
1.0
 70
    12
 71
     2
 72
     6
 73
     3
 74
     0
 42
0.000000001
 43
0.0000000001
 40
-5.654573080352872
 40
-5.654573080352872
 40
-5.654573080352872
 40
0.0
 40
0.0
 40
0.0
 10
142.8995571796299
 20
-1533.33695951016
 30
0.0
 41
1.0
 10
71.88527972335259
 20
-1545.016293311963
 30
0.0
 41
0.9967681786255456
 10
-0.083364355417416
 20
-1545.172352721043
 30
0.0
 41
1.0
  0
SPLINE
  5
5A922
330
1F
100
AcDbEntity
  8
Default
100
AcDbSpline
210
0.0
220
0.0
230
1.0
 70
    12
 71
     2
 72
     6
 73
     3
 74
     0
 42
0.000000001
 43
0.0000000001
 40
-1.102413928352738
 40
-1.102413928352738
 40
-1.102413928352738
 40
0.0
 40
0.0
 40
0.0
 10
311.5448041223285
 20
-1129.385786328132
 30
0.0
 41
0.9999999993925147
 10
325.5536530460818
 20
-1129.230554078853
 30
0.0
 41
0.9999999996616539
 10
339.5635350436391
 20
-1129.075482313414
 30
0.0
 41
1.0
  0
SPLINE
  5
5A923
330
1F
100
AcDbEntity
  8
Default
100
AcDbSpline
210
0.0
220
0.0
230
1.0
 70
     8
 71
     3
 72
    14
 73
    10
 74
     0
 42
0.000000001
 43
0.0000000001
 40
0.0
 40
0.0
 40
0.0
 40
0.0
 40
1.0
 40
2.0
 40
3.0
 40
4.0
 40
5.0
 40
6.0
 40
7.0
 40
7.0
 40
7.0
 40
7.0
 10
339.5635350436391
 20
-1129.075482313414
 30
0.0
 10
341.3492976149833
 20
-1129.048815139855
 30
0.0
 10
344.7182505520764
 20
-1128.533269648849
 30
0.0
 10
349.3506307155517
 20
-1126.354334289377
 30
0.0
 10
352.7748312018016
 20
-1122.305702132109
 30
0.0
 10
352.6890474188299
 20
-1116.890740522546
 30
0.0
 10
349.1845760585206
 20
-1112.924368728627
 30
0.0
 10
344.5264884620524
 20
-1110.805484611237
 30
0.0
 10
341.1524209903951
 20
-1110.325220966441
 30
0.0
 10
339.4650124180812
 20
-1110.324462950984
 30
0.0
  0
SPLINE
  5
5A924
330
1F
100
AcDbEntity
  8
Default
100
AcDbSpline
210
0.0
220
0.0
230
1.0
 70
    12
 71
     2
 72
     6
 73
     3
 74
     0
 42
0.000000001
 43
0.0000000001
 40
0.0
 40
0.0
 40
0.0
 40
1.112498698414412
 40
1.112498698414412
 40
1.112498698414412
 10
339.4650124180812
 20
-1110.324462950984
 30
0.0
 41
1.0
 10
325.3371377317348
 20
-1110.168687454263
 30
0.0
 41
0.9999999996585591
 10
311.2092656628997
 20
-1110.012674746215
 30
0.0
 41
0.9999999993875963
  0
SPLINE
  5
5A925
330
1F
100
AcDbEntity
  8
Default
100
AcDbSpline
210
0.0
220
0.0
230
1.0
 70
    12
 71
     2
 72
     6
 73
     3
 74
     0
 42
0.000000001
 43
0.0000000001
 40
-1.281345128275034
 40
-1.281345128275034
 40
-1.281345128275034
 40
0.0
 40
0.0
 40
0.0
 10
9.656931063833781
 20
-812.6175557849148
 30
0.0
 41
0.9999999993069707
 10
9.476473018443812
 20
-796.3351458766867
 30
0.0
 41
0.9999999996067375
 10
9.296231780485413
 20
-780.0513403254537
 30
0.0
 41
1.0
  0
SPLINE
  5
5A926
330
1F
100
AcDbEntity
  8
Default
100
AcDbSpline
210
0.0
220
0.0
230
1.0
 70
     8
 71
     3
 72
    14
 73
    10
 74
     0
 42
0.000000001
 43
0.0000000001
 40
0.0
 40
0.0
 40
0.0
 40
0.0
 40
1.0
 40
2.0
 40
3.0
 40
4.0
 40
5.0
 40
6.0
 40
7.0
 40
7.0
 40
7.0
 40
7.0
 10
9.296231780485413
 20
-780.0513403254537
 30
0.0
 10
9.269564606926451
 20
-778.2655777541097
 30
0.0
 10
8.754019115917344
 20
-774.8966248170201
 30
0.0
 10
6.575083756448748
 20
-770.2642446535413
 30
0.0
 10
2.526451599180745
 20
-766.8400441672913
 30
0.0
 10
-2.888510010383015
 20
-766.925827950263
 30
0.0
 10
-6.854881804297747
 20
-770.4302993105686
 30
0.0
 10
-8.97376592169121
 20
-775.0883869070405
 30
0.0
 10
-9.454029566487861
 20
-778.4624543786978
 30
0.0
 10
-9.454787581943946
 20
-780.1498629510117
 30
0.0
  0
SPLINE
  5
5A927
330
1F
100
AcDbEntity
  8
Default
100
AcDbSpline
210
0.0
220
0.0
230
1.0
 70
    12
 71
     2
 72
     6
 73
     3
 74
     0
 42
0.000000001
 43
0.0000000001
 40
0.0
 40
0.0
 40
0.0
 40
1.278324852146924
 40
1.278324852146924
 40
1.278324852146924
 10
-9.454787581943946
 20
-780.1498629510117
 30
0.0
 41
1.0
 10
-9.633782567837897
 20
-796.3836017825581
 30
0.0
 41
0.9999999996076647
 10
-9.813090751631079
 20
-812.6173371577227
 30
0.0
 41
0.9999999993083845
  0
SPLINE
  5
5A928
330
1F
100
AcDbEntity
  8
Default
100
AcDbSpline
210
0.0
220
0.0
230
1.0
 70
     8
 71
     3
 72
    47
 73
    43
 74
     0
 42
0.000000001
 43
0.0000000001
 40
36.00001859489052
 40
36.00001859489052
 40
36.00001859489052
 40
36.00001859489052
 40
37.0
 40
38.0
 40
39.0
 40
40.0
 40
41.0
 40
42.0
 40
43.0
 40
44.0
 40
45.0
 40
46.0
 40
47.0
 40
48.0
 40
49.0
 40
50.0
 40
51.0
 40
52.0
 40
53.0
 40
53.0
 40
53.0
 40
54.0
 40
55.0
 40
56.0
 40
57.0
 40
58.0
 40
59.0
 40
60.0
 40
60.0
 40
60.0
 40
61.0
 40
62.0
 40
63.0
 40
64.0
 40
65.0
 40
66.0
 40
67.0
 40
68.0
 40
69.0
 40
70.0
 40
71.0
 40
72.0
 40
72.0
 40
72.0
 40
72.0
 10
-0.0821874360331094
 20
-812.5133546983189
 30
0.0
 10
11.10294204676574
 20
-812.4944289786316
 30
0.0
 10
33.47564159020817
 20
-813.4099417035379
 30
0.0
 10
66.79015880771522
 20
-817.691915188427
 30
0.0
 10
99.5776523188365
 20
-825.0134742016655
 30
0.0
 10
131.4813752525483
 20
-835.5528061598981
 30
0.0
 10
162.0776531205088
 20
-849.4767302735692
 30
0.0
 10
190.7319400023484
 20
-867.0507238805969
 30
0.0
 10
217.1500800055442
 20
-887.8470889410003
 30
0.0
 10
240.6106819550955
 20
-911.9395059104848
 30
0.0
 10
260.8236804681114
 20
-938.8115532598478
 30
0.0
 10
277.1614148709418
 20
-968.2301861973522
 30
0.0
 10
288.8354785711094
 20
-999.7824537587897
 30
0.0
 10
296.5069580530149
 20
-1032.496735520252
 30
0.0
 10
301.2204172737879
 20
-1065.744567981184
 30
0.0
 10
303.4885925554013
 20
-1099.250117349677
 30
0.0
 10
303.5625184038549
 20
-1132.804600302605
 30
0.0
 10
302.188231642082
 20
-1166.38380618852
 30
0.0
 10
297.8301060900962
 20
-1188.417635787244
 30
0.0
 10
294.4234012388156
 20
-1199.079620613278
 30
0.0
 10
291.0988989215553
 20
-1209.553309309
 30
0.0
 10
284.3467597139029
 20
-1230.46836879026
 30
0.0
 10
273.6946333735545
 20
-1261.66751055707
 30
0.0
 10
262.4376534215849
 20
-1292.653850304081
 30
0.0
 10
250.4967401150429
 20
-1323.384147416282
 30
0.0
 10
237.7691718618485
 20
-1353.796502207837
 30
0.0
 10
224.2304854058752
 20
-1383.860414892859
 30
0.0
 10
214.3831938481021
 20
-1403.513067303147
 30
0.0
 10
209.3190931994727
 20
-1413.265005882788
 30
0.0
 10
208.2840399630009
 20
-1415.267784570822
 30
0.0
 10
206.2243054661344
 20
-1419.278813616112
 30
0.0
 10
203.2618160468451
 20
-1425.359604742991
 30
0.0
 10
200.5126847374381
 20
-1431.540146051158
 30
0.0
 10
198.1124647439287
 20
-1437.869880768709
 30
0.0
 10
196.2858449557175
 20
-1444.383611489202
 30
0.0
 10
195.3531624956963
 20
-1451.137074543336
 30
0.0
 10
196.5009902386305
 20
-1457.877609160072
 30
0.0
 10
199.4532300284195
 20
-1464.001389292089
 30
0.0
 10
202.3945194656594
 20
-1470.082645981975
 30
0.0
 10
205.8490549967723
 20
-1475.910226317354
 30
0.0
 10
209.809713647825
 20
-1481.397124646805
 30
0.0
 10
216.5007142223699
 20
-1488.358935939059
 30
0.0
 10
217.9233312202382
 20
-1490.107957340786
 30
0.0
  0
SPLINE
  5
5A929
330
1F
100
AcDbEntity
  8
Default
100
AcDbSpline
210
0.0
220
0.0
230
1.0
 70
     8
 71
     3
 72
    12
 73
     8
 74
     0
 42
0.000000001
 43
0.0000000001
 40
0.0
 40
0.0
 40
0.0
 40
0.0
 40
1.918305221504867
 40
3.868777778011241
 40
7.624449324857683
 40
11.42846767657462
 40
15.35241906764609
 40
15.35241906764609
 40
15.35241906764609
 40
15.35241906764609
 10
-0.0828377842331065
 20
-1315.655099610494
 30
0.0
 10
16.15723837438463
 20
-1315.668579000698
 30
0.0
 10
48.91948674151399
 20
-1312.498398171758
 30
0.0
 10
111.0460726622773
 20
-1293.852638486243
 30
0.0
 10
179.1157315229834
 20
-1247.759096803873
 30
0.0
 10
232.5695270039946
 20
-1164.200825081674
 30
0.0
 10
244.3923747664744
 20
-1098.622930958978
 30
0.0
 10
244.3918324069205
 20
-1065.415411305339
 30
0.0
  0
SPLINE
  5
5A92A
330
1F
100
AcDbEntity
  8
Default
100
AcDbSpline
210
0.0
220
0.0
230
1.0
 70
     8
 71
     3
 72
    12
 73
     8
 74
     0
 42
0.000000001
 43
0.0000000001
 40
-14.89017236839833
 40
-14.89017236839833
 40
-14.89017236839833
 40
-14.89017236839833
 40
-11.21816917573749
 40
-7.516682162771167
 40
-3.774519558109396
 40
-1.88935509827327
 40
0.0
 40
0.0
 40
0.0
 40
0.0
 10
244.3918324069205
 20
-1065.415411305339
 30
0.0
 10
244.4001651544063
 20
-1034.321614779879
 30
0.0
 10
231.5184790891221
 20
-971.908850549966
 30
0.0
 10
176.8575300798297
 20
-892.9955558248641
 30
0.0
 10
109.2145757557341
 20
-849.3869571632879
 30
0.0
 10
47.87187742751166
 20
-831.4113687044866
 30
0.0
 10
15.91237269244129
 20
-828.3376277704721
 30
0.0
 10
-0.0828388309632828
 20
-828.3359064912021
 30
0.0
  0
SPLINE
  5
5A92B
330
1F
100
AcDbEntity
  8
Default
100
AcDbSpline
210
0.0
220
0.0
230
1.0
 70
    12
 71
     2
 72
     6
 73
     3
 74
     0
 42
0.000000001
 43
0.0000000001
 40
0.0
 40
0.0
 40
0.0
 40
0.0853474550214741
 40
0.0853474550214741
 40
0.0853474550214741
 10
-351.9748679900763
 20
-1129.978847725584
 30
0.0
 41
1.0
 10
-353.0565584474639
 20
-1130.054727125838
 30
0.0
 41
0.9993970637774639
 10
-354.1409068851603
 20
-1130.055355332201
 30
0.0
 41
1.0
  0
SPLINE
  5
5A92C
330
1F
100
AcDbEntity
  8
Default
100
AcDbSpline
210
0.0
220
0.0
230
1.0
 70
     8
 71
     3
 72
    12
 73
     8
 74
     0
 42
0.000000001
 43
0.0000000001
 40
0.0
 40
0.0
 40
0.0
 40
0.0
 40
0.1510110321465192
 40
0.3037660471064116
 40
0.5900965017365678
 40
0.8249401141264362
 40
1.014583801502342
 40
1.014583801502342
 40
1.014583801502342
 40
1.014583801502342
 10
-351.084688884082
 20
-1109.490478800979
 30
0.0
 10
-352.3577428893145
 20
-1109.365606753041
 30
0.0
 10
-354.9307591872671
 20
-1109.268330379329
 30
0.0
 10
-359.9205337898816
 20
-1109.705512238097
 30
0.0
 10
-365.4613729675361
 20
-1111.2410015855
 30
0.0
 10
-370.5630839847104
 20
-1114.663596414788
 30
0.0
 10
-372.2075949508503
 20
-1118.062554217677
 30
0.0
 10
-372.1757565667535
 20
-1119.697063096895
 30
0.0
  0
SPLINE
  5
5A92D
330
1F
100
AcDbEntity
  8
Default
100
AcDbSpline
210
0.0
220
0.0
230
1.0
 70
     8
 71
     3
 72
    12
 73
     8
 74
     0
 42
0.000000001
 43
0.0000000001
 40
-1.014583801502342
 40
-1.014583801502342
 40
-1.014583801502342
 40
-1.014583801502342
 40
-0.8249401141264362
 40
-0.5900965017365678
 40
-0.3037660471064116
 40
-0.1510110321465192
 40
0.0
 40
0.0
 40
0.0
 40
0.0
 10
-372.1757565667535
 20
-1119.697063096895
 30
0.0
 10
-372.2075949508503
 20
-1121.331571976118
 30
0.0
 10
-370.5630839847104
 20
-1124.730529779006
 30
0.0
 10
-365.4613729675361
 20
-1128.153124608294
 30
0.0
 10
-359.9205337898816
 20
-1129.688613955697
 30
0.0
 10
-354.9307591872671
 20
-1130.125795814465
 30
0.0
 10
-352.3577428893145
 20
-1130.028519440753
 30
0.0
 10
-351.084688884082
 20
-1129.903647392815
 30
0.0
  0
SPLINE
  5
5A92E
330
1F
100
AcDbEntity
  8
Default
100
AcDbSpline
210
0.0
220
0.0
230
1.0
 70
    12
 71
     2
 72
     6
 73
     3
 74
     0
 42
0.000000001
 43
0.0000000001
 40
0.0
 40
0.0
 40
0.0
 40
0.1369528492222414
 40
0.1369528492222414
 40
0.1369528492222414
 10
-341.4490283475639
 20
-1110.359749200094
 30
0.0
 41
1.0
 10
-343.1879206094377
 20
-1110.396059404795
 30
0.0
 41
0.9999966913238282
 10
-344.9278011881938
 20
-1110.376967065096
 30
0.0
 41
0.9999959461296658
  0
ARC
  5
5A92F
330
1F
100
AcDbEntity
  8
Default
100
AcDbCircle
 10
-345.1366490660944
 20
-1097.678684403103
 30
0.0
 40
12.7
100
AcDbArc
 50
258.4871521735315
 51
270.9422552251277
  0
SPLINE
  5
5A930
330
1F
100
AcDbEntity
  8
Default
100
AcDbSpline
210
0.0
220
0.0
230
1.0
 70
     8
 71
     3
 72
    14
 73
    10
 74
     0
 42
0.000000001
 43
0.0000000001
 40
0.2772630823298201
 40
0.2772630823298201
 40
0.2772630823298201
 40
0.2772630823298201
 40
1.0
 40
2.0
 40
3.0
 40
4.0
 40
5.0
 40
6.0
 40
7.0
 40
7.0
 40
7.0
 40
7.0
 10
-347.6714124072164
 20
-1110.123160077254
 30
0.0
 10
-348.6811560139536
 20
-1109.917489613885
 30
0.0
 10
-351.1100507753795
 20
-1109.534807146889
 30
0.0
 10
-355.0001765166667
 20
-1109.414376371105
 30
0.0
 10
-359.2616948844075
 20
-1109.871941970019
 30
0.0
 10
-363.4208380871964
 20
-1110.926787816536
 30
0.0
 10
-367.3290734743309
 20
-1112.717192520633
 30
0.0
 10
-370.6554444966018
 20
-1115.513862260306
 30
0.0
 10
-371.8040376653694
 20
-1118.257302169614
 30
0.0
 10
-371.7911470204122
 20
-1119.697075709524
 30
0.0
  0
SPLINE
  5
5A931
330
1F
100
AcDbEntity
  8
Default
100
AcDbSpline
210
0.0
220
0.0
230
1.0
 70
     8
 71
     3
 72
    14
 73
    10
 74
     0
 42
0.000000001
 43
0.0000000001
 40
-7.0
 40
-7.0
 40
-7.0
 40
-7.0
 40
-6.0
 40
-5.0
 40
-4.0
 40
-3.0
 40
-2.0
 40
-1.0
 40
-0.2482205602640466
 40
-0.2482205602640466
 40
-0.2482205602640466
 40
-0.2482205602640466
 10
-371.7911470204122
 20
-1119.697075709524
 30
0.0
 10
-371.8040376653694
 20
-1121.136849249428
 30
0.0
 10
-370.6554444966018
 20
-1123.880289158738
 30
0.0
 10
-367.3290734743309
 20
-1126.676958898412
 30
0.0
 10
-363.4208380871964
 20
-1128.467363602509
 30
0.0
 10
-359.2616948844075
 20
-1129.522209449025
 30
0.0
 10
-355.0001765166667
 20
-1129.979775047939
 30
0.0
 10
-351.0685561080313
 20
-1129.858059677439
 30
0.0
 10
-348.5992708707631
 20
-1129.463671902411
 30
0.0
 10
-347.5497305589047
 20
-1129.245979280533
 30
0.0
  0
ARC
  5
5A932
330
1F
100
AcDbEntity
  8
Default
100
AcDbCircle
 10
-344.9704320812957
 20
-1141.681300722436
 30
0.0
 40
12.7
100
AcDbArc
 50
88.977579807951
 51
101.71796787816
  0
SPLINE
  5
5A933
330
1F
100
AcDbEntity
  8
Default
100
AcDbSpline
210
0.0
220
0.0
230
1.0
 70
    12
 71
     2
 72
     6
 73
     3
 74
     0
 42
0.000000001
 43
0.0000000001
 40
-0.1297405451143296
 40
-0.1297405451143296
 40
-0.1297405451143296
 40
0.0
 40
0.0
 40
0.0
 10
-344.7438177051731
 20
-1128.983322697391
 30
0.0
 41
0.9999960316975588
 10
-343.0963746407319
 20
-1129.012723778533
 30
0.0
 41
0.999996865512317
 10
-341.4490283475639
 20
-1129.047122391048
 30
0.0
 41
1.0
  0
SPLINE
  5
5A934
330
1F
100
AcDbEntity
  8
Default
100
AcDbSpline
210
0.0
220
0.0
230
1.0
 70
     8
 71
     3
 72
    22
 73
    18
 74
     0
 42
0.000000001
 43
0.0000000001
 40
0.0
 40
0.0
 40
0.0
 40
0.0
 40
0.2588469591229587
 40
0.6477254461891114
 40
1.024641027840087
 40
1.817983982162573
 40
2.582167143679937
 40
4.062052734317923
 40
7.850412104674
 40
9.497260537102542
 40
10.543391206404
 40
10.8432833113025
 40
12.15829953678302
 40
13.34949093133962
 40
14.77372714428499
 40
17.25709974516987
 40
21.82793658798906
 40
21.82793658798906
 40
21.82793658798906
 40
21.82793658798906
 10
-196.6441309668184
 20
-1456.287339596251
 30
0.0
 10
-196.4408226582959
 20
-1454.08955660249
 30
0.0
 10
-197.4246518362556
 20
-1448.642350613705
 30
0.0
 10
-200.5872883076404
 20
-1440.551356540624
 30
0.0
 10
-206.284861634816
 20
-1428.638766221515
 30
0.0
 10
-214.1075238940825
 20
-1414.244381877534
 30
0.0
 10
-225.3705937067675
 20
-1391.120284824328
 30
0.0
 10
-246.9943294613254
 20
-1344.84718661554
 30
0.0
 10
-269.3219420092241
 20
-1290.694943594981
 30
0.0
 10
-289.1297186235929
 20
-1239.529399846861
 30
0.0
 10
-298.0227533010216
 20
-1215.799867227042
 30
0.0
 10
-305.6780683587235
 20
-1194.597327091886
 30
0.0
 10
-310.2123485877596
 20
-1171.142546276993
 30
0.0
 10
-311.9610600829542
 20
-1137.906663526386
 30
0.0
 10
-311.5008641004747
 20
-1094.695235638372
 30
0.0
 10
-302.3683038643717
 20
-1023.291241356635
 30
0.0
 10
-279.6676354260376
 20
-966.9787896691397
 30
0.0
 10
-257.667188430783
 20
-935.0346171270595
 30
0.0
  0
SPLINE
  5
5A935
330
1F
100
AcDbEntity
  8
Default
100
AcDbSpline
210
0.0
220
0.0
230
1.0
 70
     8
 71
     3
 72
    19
 73
    15
 74
     0
 42
0.000000001
 43
0.0000000001
 40
-12.0
 40
-12.0
 40
-12.0
 40
-12.0
 40
-11.0
 40
-10.0
 40
-9.0
 40
-8.0
 40
-7.0
 40
-6.0
 40
-5.0
 40
-4.0
 40
-3.0
 40
-2.0
 40
-1.0
 40
0.0
 40
0.0
 40
0.0
 40
0.0
 10
-223.2773922824122
 20
-1500.023491637045
 30
0.0
 10
-220.0823414620131
 20
-1505.387211826905
 30
0.0
 10
-207.2606570986386
 20
-1509.45477455991
 30
0.0
 10
-189.1452450844149
 20
-1514.041258853371
 30
0.0
 10
-170.3603959279603
 20
-1517.446820123403
 30
0.0
 10
-151.639705609497
 20
-1520.536764332834
 30
0.0
 10
-132.8020842968321
 20
-1523.065029361633
 30
0.0
 10
-113.9198778237182
 20
-1525.150279792482
 30
0.0
 10
-94.99315126330065
 20
-1526.810192288767
 30
0.0
 10
-76.0377157690159
 20
-1528.088060266591
 30
0.0
 10
-57.06202970757977
 20
-1529.018703279768
 30
0.0
 10
-38.07383231705126
 20
-1529.638120442114
 30
0.0
 10
-19.07877633560883
 20
-1529.982118799149
 30
0.0
 10
-6.41358207514304
 20
-1530.051721550668
 30
0.0
 10
-0.0810105166488029
 20
-1530.052539083861
 30
0.0
  0
SPLINE
  5
5A936
330
1F
100
AcDbEntity
  8
Default
100
AcDbSpline
210
0.0
220
0.0
230
1.0
 70
    12
 71
     2
 72
     6
 73
     3
 74
     0
 42
0.000000001
 43
0.0000000001
 40
-6.233889429224446
 40
-6.233889429224446
 40
-6.233889429224446
 40
0.0
 40
0.0
 40
0.0
 10
-0.0810105166488029
 20
-1543.45577619118
 30
0.0
 41
1.0
 10
-79.42481277234719
 20
-1543.603160809804
 30
0.0
 41
0.996730330589404
 10
-157.755954124666
 20
-1530.968839481242
 30
0.0
 41
1.0
  0
SPLINE
  5
5A937
330
1F
100
AcDbEntity
  8
Default
100
AcDbSpline
210
0.0
220
0.0
230
1.0
 70
     8
 71
     3
 72
    12
 73
     8
 74
     0
 42
0.000000001
 43
0.0000000001
 40
0.0
 40
0.0
 40
0.0
 40
0.0
 40
0.8495817757806477
 40
1.391422022197968
 40
2.191064820612614
 40
2.689385262996221
 40
3.111933853859593
 40
3.111933853859593
 40
3.111933853859593
 40
3.111933853859593
 10
-157.755954124666
 20
-1530.968839481242
 30
0.0
 10
-164.8625855266868
 20
-1529.696932602749
 30
0.0
 10
-176.4559668018405
 20
-1527.919965878455
 30
0.0
 10
-194.6647031738389
 20
-1524.073927833104
 30
0.0
 10
-209.6649948969857
 20
-1520.020700771123
 30
0.0
 10
-222.5041034553683
 20
-1512.277634900644
 30
0.0
 10
-224.4269380662185
 20
-1503.680018447003
 30
0.0
 10
-223.3156669553387
 20
-1500.163087019808
 30
0.0
  0
SPLINE
  5
5A938
330
1F
100
AcDbEntity
  8
Default
100
AcDbSpline
210
0.0
220
0.0
230
1.0
 70
    12
 71
     2
 72
     6
 73
     3
 74
     0
 42
0.000000001
 43
0.0000000001
 40
0.0
 40
0.0
 40
0.0
 40
0.443505275079806
 40
0.443505275079806
 40
0.443505275079806
 10
-223.3156669553387
 20
-1500.163087019808
 30
0.0
 41
1.0
 10
-221.6901794746477
 20
-1494.536980088518
 30
0.0
 41
0.9799943751373794
 10
-218.0877060923044
 20
-1490.107957340786
 30
0.0
 41
1.0
  0
SPLINE
  5
5A939
330
1F
100
AcDbEntity
  8
Default
100
AcDbSpline
210
0.0
220
0.0
230
1.0
 70
    12
 71
     2
 72
     6
 73
     3
 74
     0
 42
0.000000001
 43
0.0000000001
 40
-5.654573080352872
 40
-5.654573080352872
 40
-5.654573080352872
 40
0.0
 40
0.0
 40
0.0
 10
-143.0639320516961
 20
-1533.33695951016
 30
0.0
 41
1.0
 10
-72.04965459541881
 20
-1545.016293311963
 30
0.0
 41
0.9967681786255456
 10
-0.0810105166488029
 20
-1545.172352721043
 30
0.0
 41
1.0
  0
SPLINE
  5
5A93A
330
1F
100
AcDbEntity
  8
Default
100
AcDbSpline
210
0.0
220
0.0
230
1.0
 70
    12
 71
     2
 72
     6
 73
     3
 74
     0
 42
0.000000001
 43
0.0000000001
 40
-1.102413928352738
 40
-1.102413928352738
 40
-1.102413928352738
 40
0.0
 40
0.0
 40
0.0
 10
-311.7091789943947
 20
-1129.385786328132
 30
0.0
 41
0.9999999993925147
 10
-325.718027918148
 20
-1129.230554078853
 30
0.0
 41
0.9999999996616539
 10
-339.7279099157054
 20
-1129.075482313414
 30
0.0
 41
1.0
  0
SPLINE
  5
5A93B
330
1F
100
AcDbEntity
  8
Default
100
AcDbSpline
210
0.0
220
0.0
230
1.0
 70
     8
 71
     3
 72
    14
 73
    10
 74
     0
 42
0.000000001
 43
0.0000000001
 40
0.0
 40
0.0
 40
0.0
 40
0.0
 40
1.0
 40
2.0
 40
3.0
 40
4.0
 40
5.0
 40
6.0
 40
7.0
 40
7.0
 40
7.0
 40
7.0
 10
-339.7279099157054
 20
-1129.075482313414
 30
0.0
 10
-341.5136724870495
 20
-1129.048815139855
 30
0.0
 10
-344.8826254241426
 20
-1128.533269648849
 30
0.0
 10
-349.5150055876179
 20
-1126.354334289377
 30
0.0
 10
-352.9392060738678
 20
-1122.305702132109
 30
0.0
 10
-352.8534222908961
 20
-1116.890740522546
 30
0.0
 10
-349.3489509305868
 20
-1112.924368728627
 30
0.0
 10
-344.6908633341186
 20
-1110.805484611237
 30
0.0
 10
-341.3167958624613
 20
-1110.325220966441
 30
0.0
 10
-339.6293872901474
 20
-1110.324462950984
 30
0.0
  0
SPLINE
  5
5A93C
330
1F
100
AcDbEntity
  8
Default
100
AcDbSpline
210
0.0
220
0.0
230
1.0
 70
    12
 71
     2
 72
     6
 73
     3
 74
     0
 42
0.000000001
 43
0.0000000001
 40
0.0
 40
0.0
 40
0.0
 40
1.112498698414412
 40
1.112498698414412
 40
1.112498698414412
 10
-339.6293872901474
 20
-1110.324462950984
 30
0.0
 41
1.0
 10
-325.5015126038011
 20
-1110.168687454263
 30
0.0
 41
0.9999999996585591
 10
-311.3736405349659
 20
-1110.012674746215
 30
0.0
 41
0.9999999993875963
  0
SPLINE
  5
5A93D
330
1F
100
AcDbEntity
  8
Default
100
AcDbSpline
210
0.0
220
0.0
230
1.0
 70
     8
 71
     3
 72
    47
 73
    43
 74
     0
 42
0.000000001
 43
0.0000000001
 40
36.00001859489052
 40
36.00001859489052
 40
36.00001859489052
 40
36.00001859489052
 40
37.0
 40
38.0
 40
39.0
 40
40.0
 40
41.0
 40
42.0
 40
43.0
 40
44.0
 40
45.0
 40
46.0
 40
47.0
 40
48.0
 40
49.0
 40
50.0
 40
51.0
 40
52.0
 40
53.0
 40
53.0
 40
53.0
 40
54.0
 40
55.0
 40
56.0
 40
57.0
 40
58.0
 40
59.0
 40
60.0
 40
60.0
 40
60.0
 40
61.0
 40
62.0
 40
63.0
 40
64.0
 40
65.0
 40
66.0
 40
67.0
 40
68.0
 40
69.0
 40
70.0
 40
71.0
 40
72.0
 40
72.0
 40
72.0
 40
72.0
 10
-0.0821874360331094
 20
-812.5133546983189
 30
0.0
 10
-11.26731691883196
 20
-812.4944289786316
 30
0.0
 10
-33.64001646227439
 20
-813.4099417035379
 30
0.0
 10
-66.95453367978143
 20
-817.691915188427
 30
0.0
 10
-99.74202719090271
 20
-825.0134742016655
 30
0.0
 10
-131.6457501246145
 20
-835.5528061598981
 30
0.0
 10
-162.242027992575
 20
-849.4767302735692
 30
0.0
 10
-190.8963148744146
 20
-867.0507238805969
 30
0.0
 10
-217.3144548776104
 20
-887.8470889410003
 30
0.0
 10
-240.7750568271617
 20
-911.9395059104848
 30
0.0
 10
-260.9880553401776
 20
-938.8115532598478
 30
0.0
 10
-277.325789743008
 20
-968.2301861973522
 30
0.0
 10
-288.9998534431756
 20
-999.7824537587897
 30
0.0
 10
-296.671332925081
 20
-1032.496735520252
 30
0.0
 10
-301.3847921458542
 20
-1065.744567981184
 30
0.0
 10
-303.6529674274675
 20
-1099.250117349677
 30
0.0
 10
-303.7268932759212
 20
-1132.804600302605
 30
0.0
 10
-302.3526065141482
 20
-1166.38380618852
 30
0.0
 10
-297.9944809621624
 20
-1188.417635787244
 30
0.0
 10
-294.5877761108818
 20
-1199.079620613278
 30
0.0
 10
-291.2632737936215
 20
-1209.553309309
 30
0.0
 10
-284.5111345859691
 20
-1230.46836879026
 30
0.0
 10
-273.8590082456208
 20
-1261.66751055707
 30
0.0
 10
-262.6020282936511
 20
-1292.653850304081
 30
0.0
 10
-250.6611149871091
 20
-1323.384147416282
 30
0.0
 10
-237.9335467339147
 20
-1353.796502207837
 30
0.0
 10
-224.3948602779415
 20
-1383.860414892859
 30
0.0
 10
-214.5475687201683
 20
-1403.513067303147
 30
0.0
 10
-209.4834680715389
 20
-1413.265005882788
 30
0.0
 10
-208.4484148350671
 20
-1415.267784570822
 30
0.0
 10
-206.3886803382006
 20
-1419.278813616112
 30
0.0
 10
-203.4261909189113
 20
-1425.359604742991
 30
0.0
 10
-200.6770596095043
 20
-1431.540146051158
 30
0.0
 10
-198.2768396159949
 20
-1437.869880768709
 30
0.0
 10
-196.4502198277837
 20
-1444.383611489202
 30
0.0
 10
-195.5175373677625
 20
-1451.137074543336
 30
0.0
 10
-196.6653651106967
 20
-1457.877609160072
 30
0.0
 10
-199.6176049004857
 20
-1464.001389292089
 30
0.0
 10
-202.5588943377256
 20
-1470.082645981975
 30
0.0
 10
-206.0134298688386
 20
-1475.910226317354
 30
0.0
 10
-209.9740885198912
 20
-1481.397124646805
 30
0.0
 10
-216.6650890944361
 20
-1488.358935939059
 30
0.0
 10
-218.0877060923044
 20
-1490.107957340786
 30
0.0
  0
SPLINE
  5
5A93E
330
1F
100
AcDbEntity
  8
Default
100
AcDbSpline
210
0.0
220
0.0
230
1.0
 70
     8
 71
     3
 72
    12
 73
     8
 74
     0
 42
0.000000001
 43
0.0000000001
 40
0.0
 40
0.0
 40
0.0
 40
0.0
 40
1.918305221504867
 40
3.868777778011241
 40
7.624449324857683
 40
11.42846767657462
 40
15.35241906764609
 40
15.35241906764609
 40
15.35241906764609
 40
15.35241906764609
 10
-0.0815370878331123
 20
-1315.655099610494
 30
0.0
 10
-16.32161324645085
 20
-1315.668579000698
 30
0.0
 10
-49.08386161358021
 20
-1312.498398171758
 30
0.0
 10
-111.2104475343435
 20
-1293.852638486243
 30
0.0
 10
-179.2801063950496
 20
-1247.759096803873
 30
0.0
 10
-232.7339018760608
 20
-1164.200825081674
 30
0.0
 10
-244.5567496385406
 20
-1098.622930958978
 30
0.0
 10
-244.5562072789867
 20
-1065.415411305339
 30
0.0
  0
SPLINE
  5
5A93F
330
1F
100
AcDbEntity
  8
Default
100
AcDbSpline
210
0.0
220
0.0
230
1.0
 70
     8
 71
     3
 72
    12
 73
     8
 74
     0
 42
0.000000001
 43
0.0000000001
 40
-14.89017236839833
 40
-14.89017236839833
 40
-14.89017236839833
 40
-14.89017236839833
 40
-11.21816917573749
 40
-7.516682162771167
 40
-3.774519558109396
 40
-1.88935509827327
 40
0.0
 40
0.0
 40
0.0
 40
0.0
 10
-244.5562072789867
 20
-1065.415411305339
 30
0.0
 10
-244.5645400264725
 20
-1034.321614779879
 30
0.0
 10
-231.6828539611884
 20
-971.908850549966
 30
0.0
 10
-177.021904951896
 20
-892.9955558248641
 30
0.0
 10
-109.3789506278003
 20
-849.3869571632879
 30
0.0
 10
-48.03625229957788
 20
-831.4113687044866
 30
0.0
 10
-16.07674756450751
 20
-828.3376277704721
 30
0.0
 10
-0.081536041102936
 20
-828.3359064912021
 30
0.0
  0
SPLINE
  5
5A940
330
1F
100
AcDbEntity
  8
Default
100
AcDbSpline
210
0.0
220
0.0
230
1.0
 70
     8
 71
     3
 72
    12
 73
     8
 74
     0
 42
0.000000001
 43
0.0000000001
 40
0.0
 40
0.0
 40
0.0
 40
0.0
 40
0.1510110321465192
 40
0.3037660471064116
 40
0.5900965017365678
 40
0.8249401141264362
 40
1.014583801502342
 40
1.014583801502342
 40
1.014583801502342
 40
1.014583801502342
 10
768.6945613570771
 20
-10.28877173194968
 30
0.0
 10
767.4215073518483
 20
-10.41364377988765
 30
0.0
 10
764.8484910538956
 20
-10.51092015359944
 30
0.0
 10
759.8587164512776
 20
-10.07373829483157
 30
0.0
 10
754.3178772736194
 20
-8.538248947428368
 30
0.0
 10
749.2161662564488
 20
-5.115654118140521
 30
0.0
 10
747.5716552903088
 20
-1.716696315251904
 30
0.0
 10
747.6034936744092
 20
-0.0821874360332754
 30
0.0
  0
SPLINE
  5
5A941
330
1F
100
AcDbEntity
  8
Default
100
AcDbSpline
210
0.0
220
0.0
230
1.0
 70
     8
 71
     3
 72
    12
 73
     8
 74
     0
 42
0.000000001
 43
0.0000000001
 40
-1.014583801502342
 40
-1.014583801502342
 40
-1.014583801502342
 40
-1.014583801502342
 40
-0.8249401141264362
 40
-0.5900965017365678
 40
-0.3037660471064116
 40
-0.1510110321465192
 40
0.0
 40
0.0
 40
0.0
 40
0.0
 10
747.6034936744092
 20
-0.0821874360332754
 30
0.0
 10
747.5716552903088
 20
1.552321443188991
 30
0.0
 10
749.2161662564488
 20
4.951279246077608
 30
0.0
 10
754.3178772736194
 20
8.373874075365453
 30
0.0
 10
759.8587164512776
 20
9.909363422768651
 30
0.0
 10
764.8484910538956
 20
10.34654528153652
 30
0.0
 10
767.4215073518483
 20
10.24926890782473
 30
0.0
 10
768.6945613570771
 20
10.12439685988312
 30
0.0
  0
SPLINE
  5
5A942
330
1F
100
AcDbEntity
  8
Default
100
AcDbSpline
210
0.0
220
0.0
230
1.0
 70
    12
 71
     2
 72
     6
 73
     3
 74
     0
 42
0.000000001
 43
0.0000000001
 40
0.0
 40
0.0
 40
0.0
 40
0.1369528492222414
 40
0.1369528492222414
 40
0.1369528492222414
 10
778.3302218935952
 20
-9.41950133283507
 30
0.0
 41
1.0
 10
776.5913296317178
 20
-9.383191128133775
 30
0.0
 41
0.9999966913238282
 10
774.8514490529689
 20
-9.402283467832321
 30
0.0
 41
0.9999959461296658
  0
ARC
  5
5A943
330
1F
100
AcDbEntity
  8
Default
100
AcDbCircle
 10
774.6426011750684
 20
-22.10056612982561
 30
0.0
 40
12.7
100
AcDbArc
 50
89.05774477487218
 51
101.5128478264674
  0
SPLINE
  5
5A944
330
1F
100
AcDbEntity
  8
Default
100
AcDbSpline
210
0.0
220
0.0
230
1.0
 70
     8
 71
     3
 72
    14
 73
    10
 74
     0
 42
0.000000001
 43
0.0000000001
 40
0.2772630823298201
 40
0.2772630823298201
 40
0.2772630823298201
 40
0.2772630823298201
 40
1.0
 40
2.0
 40
3.0
 40
4.0
 40
5.0
 40
6.0
 40
7.0
 40
7.0
 40
7.0
 40
7.0
 10
772.1078378339464
 20
-9.656090455675157
 30
0.0
 10
771.0980942272092
 20
-9.861760919043888
 30
0.0
 10
768.6691994657796
 20
-10.24444338603979
 30
0.0
 10
764.7790737244961
 20
-10.36487416182325
 30
0.0
 10
760.5175553567517
 20
-9.907308562909461
 30
0.0
 10
756.3584121539626
 20
-8.852462716393061
 30
0.0
 10
752.4501767668319
 20
-7.062058012295604
 30
0.0
 10
749.1238057445573
 20
-4.265388272622369
 30
0.0
 10
747.9752125757897
 20
-1.52194836331517
 30
0.0
 10
747.988103220747
 20
-0.0821748234081339
 30
0.0
  0
SPLINE
  5
5A945
330
1F
100
AcDbEntity
  8
Default
100
AcDbSpline
210
0.0
220
0.0
230
1.0
 70
     8
 71
     3
 72
    14
 73
    10
 74
     0
 42
0.000000001
 43
0.0000000001
 40
-7.0
 40
-7.0
 40
-7.0
 40
-7.0
 40
-6.0
 40
-5.0
 40
-4.0
 40
-3.0
 40
-2.0
 40
-1.0
 40
-0.2482205602640466
 40
-0.2482205602640466
 40
-0.2482205602640466
 40
-0.2482205602640466
 10
747.988103220747
 20
-0.0821748234081339
 30
0.0
 10
747.9752125757897
 20
1.357598716502541
 30
0.0
 10
749.1238057445573
 20
4.101038625809739
 30
0.0
 10
752.4501767668319
 20
6.897708365482973
 30
0.0
 10
756.3584121539626
 20
8.688113069580426
 30
0.0
 10
760.5175553567517
 20
9.742958916096826
 30
0.0
 10
764.7790737244961
 20
10.20052451501061
 30
0.0
 10
768.7106941331315
 20
10.07880914451044
 30
0.0
 10
771.179979370396
 20
9.684421369482436
 30
0.0
 10
772.2295196822581
 20
9.466728747604348
 30
0.0
  0
ARC
  5
5A946
330
1F
100
AcDbEntity
  8
Default
100
AcDbCircle
 10
774.8088181598598
 20
21.90205018950684
 30
0.0
 40
12.7
100
AcDbArc
 50
258.2820321218404
 51
271.022420192036
  0
SPLINE
  5
5A947
330
1F
100
AcDbEntity
  8
Default
100
AcDbSpline
210
0.0
220
0.0
230
1.0
 70
    12
 71
     2
 72
     6
 73
     3
 74
     0
 42
0.000000001
 43
0.0000000001
 40
-0.1297405451143296
 40
-0.1297405451143296
 40
-0.1297405451143296
 40
0.0
 40
0.0
 40
0.0
 10
775.035432535986
 20
9.204072164462841
 30
0.0
 41
0.9999960316975588
 10
776.6828756004309
 20
9.2334732456041
 30
0.0
 41
0.999996865512317
 10
778.3302218935952
 20
9.267871858119461
 30
0.0
 41
1.0
  0
SPLINE
  5
5A948
330
1F
100
AcDbEntity
  8
Default
100
AcDbSpline
210
0.0
220
0.0
230
1.0
 70
    12
 71
     2
 72
     6
 73
     3
 74
     0
 42
0.000000001
 43
0.0000000001
 40
0.0
 40
0.0
 40
0.0
 40
0.0853474550214741
 40
0.0853474550214741
 40
0.0853474550214741
 10
767.8043822510828
 20
10.19959719265563
 30
0.0
 41
1.0
 10
766.7226917936988
 20
10.27547659290968
 30
0.0
 41
0.9993970637774639
 10
765.6383433560024
 20
10.27610479927199
 30
0.0
 41
1.0
  0
SPLINE
  5
5A949
330
1F
100
AcDbEntity
  8
Default
100
AcDbSpline
210
0.0
220
0.0
230
1.0
 70
    12
 71
     2
 72
     6
 73
     3
 74
     0
 42
0.000000001
 43
0.0000000001
 40
0.0
 40
0.0
 40
0.0
 40
0.0853474550214741
 40
0.0853474550214741
 40
0.0853474550214741
 10
1129.978847725584
 20
351.8104931180098
 30
0.0
 41
1.0
 10
1130.054727125838
 20
352.8921835753974
 30
0.0
 41
0.9993970637774639
 10
1130.055355332201
 20
353.9765320130939
 30
0.0
 41
1.0
  0
SPLINE
  5
5A94A
330
1F
100
AcDbEntity
  8
Default
100
AcDbSpline
210
0.0
220
0.0
230
1.0
 70
     8
 71
     3
 72
    12
 73
     8
 74
     0
 42
0.000000001
 43
0.0000000001
 40
0.0
 40
0.0
 40
0.0
 40
0.0
 40
0.1510110321465192
 40
0.3037660471064116
 40
0.5900965017365678
 40
0.8249401141264362
 40
1.014583801502342
 40
1.014583801502342
 40
1.014583801502342
 40
1.014583801502342
 10
1109.490478800979
 20
350.9203140120155
 30
0.0
 10
1109.365606753041
 20
352.1933680172481
 30
0.0
 10
1109.268330379329
 20
354.7663843152006
 30
0.0
 10
1109.705512238097
 20
359.7561589178151
 30
0.0
 10
1111.2410015855
 20
365.2969980954697
 30
0.0
 10
1114.663596414788
 20
370.3987091126439
 30
0.0
 10
1118.062554217677
 20
372.0432200787838
 30
0.0
 10
1119.697063096895
 20
372.0113816946871
 30
0.0
  0
SPLINE
  5
5A94B
330
1F
100
AcDbEntity
  8
Default
100
AcDbSpline
210
0.0
220
0.0
230
1.0
 70
     8
 71
     3
 72
    12
 73
     8
 74
     0
 42
0.000000001
 43
0.0000000001
 40
-1.014583801502342
 40
-1.014583801502342
 40
-1.014583801502342
 40
-1.014583801502342
 40
-0.8249401141264362
 40
-0.5900965017365678
 40
-0.3037660471064116
 40
-0.1510110321465192
 40
0.0
 40
0.0
 40
0.0
 40
0.0
 10
1119.697063096895
 20
372.0113816946871
 30
0.0
 10
1121.331571976118
 20
372.0432200787838
 30
0.0
 10
1124.730529779006
 20
370.3987091126439
 30
0.0
 10
1128.153124608294
 20
365.2969980954697
 30
0.0
 10
1129.688613955697
 20
359.7561589178151
 30
0.0
 10
1130.125795814465
 20
354.7663843152006
 30
0.0
 10
1130.028519440753
 20
352.1933680172481
 30
0.0
 10
1129.903647392815
 20
350.9203140120155
 30
0.0
  0
SPLINE
  5
5A94C
330
1F
100
AcDbEntity
  8
Default
100
AcDbSpline
210
0.0
220
0.0
230
1.0
 70
    12
 71
     2
 72
     6
 73
     3
 74
     0
 42
0.000000001
 43
0.0000000001
 40
0.0
 40
0.0
 40
0.0
 40
0.1369528492222414
 40
0.1369528492222414
 40
0.1369528492222414
 10
1110.359749200094
 20
341.2846534754974
 30
0.0
 41
1.0
 10
1110.396059404795
 20
343.0235457373712
 30
0.0
 41
0.9999966913238282
 10
1110.376967065096
 20
344.7634263161274
 30
0.0
 41
0.9999959461296658
  0
ARC
  5
5A94D
330
1F
100
AcDbEntity
  8
Default
100
AcDbCircle
 10
1097.678684403103
 20
344.9722741940279
 30
0.0
 40
12.7
100
AcDbArc
 50
359.0577447748723
 51
11.51284782646836
  0
SPLINE
  5
5A94E
330
1F
100
AcDbEntity
  8
Default
100
AcDbSpline
210
0.0
220
0.0
230
1.0
 70
     8
 71
     3
 72
    14
 73
    10
 74
     0
 42
0.000000001
 43
0.0000000001
 40
0.2772630823298201
 40
0.2772630823298201
 40
0.2772630823298201
 40
0.2772630823298201
 40
1.0
 40
2.0
 40
3.0
 40
4.0
 40
5.0
 40
6.0
 40
7.0
 40
7.0
 40
7.0
 40
7.0
 10
1110.123160077254
 20
347.50703753515
 30
0.0
 10
1109.917489613885
 20
348.5167811418871
 30
0.0
 10
1109.534807146889
 20
350.945675903313
 30
0.0
 10
1109.414376371105
 20
354.8358016446002
 30
0.0
 10
1109.871941970019
 20
359.097320012341
 30
0.0
 10
1110.926787816536
 20
363.25646321513
 30
0.0
 10
1112.717192520633
 20
367.1646986022645
 30
0.0
 10
1115.513862260306
 20
370.4910696245354
 30
0.0
 10
1118.257302169614
 20
371.639662793303
 30
0.0
 10
1119.697075709524
 20
371.6267721483457
 30
0.0
  0
SPLINE
  5
5A94F
330
1F
100
AcDbEntity
  8
Default
100
AcDbSpline
210
0.0
220
0.0
230
1.0
 70
     8
 71
     3
 72
    14
 73
    10
 74
     0
 42
0.000000001
 43
0.0000000001
 40
-7.0
 40
-7.0
 40
-7.0
 40
-7.0
 40
-6.0
 40
-5.0
 40
-4.0
 40
-3.0
 40
-2.0
 40
-1.0
 40
-0.2482205602640466
 40
-0.2482205602640466
 40
-0.2482205602640466
 40
-0.2482205602640466
 10
1119.697075709524
 20
371.6267721483457
 30
0.0
 10
1121.136849249428
 20
371.639662793303
 30
0.0
 10
1123.880289158738
 20
370.4910696245354
 30
0.0
 10
1126.676958898412
 20
367.1646986022645
 30
0.0
 10
1128.467363602509
 20
363.25646321513
 30
0.0
 10
1129.522209449025
 20
359.097320012341
 30
0.0
 10
1129.979775047939
 20
354.8358016446002
 30
0.0
 10
1129.858059677439
 20
350.9041812359649
 30
0.0
 10
1129.463671902411
 20
348.4348959986967
 30
0.0
 10
1129.245979280533
 20
347.3853556868383
 30
0.0
  0
ARC
  5
5A950
330
1F
100
AcDbEntity
  8
Default
100
AcDbCircle
 10
1141.681300722436
 20
344.8060572092292
 30
0.0
 40
12.7
100
AcDbArc
 50
168.2820321218399
 51
181.022420192036
  0
SPLINE
  5
5A951
330
1F
100
AcDbEntity
  8
Default
100
AcDbSpline
210
0.0
220
0.0
230
1.0
 70
    12
 71
     2
 72
     6
 73
     3
 74
     0
 42
0.000000001
 43
0.0000000001
 40
-0.1297405451143296
 40
-0.1297405451143296
 40
-0.1297405451143296
 40
0.0
 40
0.0
 40
0.0
 10
1128.983322697391
 20
344.5794428331067
 30
0.0
 41
0.9999960316975588
 10
1129.012723778533
 20
342.9319997686655
 30
0.0
 41
0.999996865512317
 10
1129.047122391048
 20
341.2846534754974
 30
0.0
 41
1.0
  0
SPLINE
  5
5A952
330
1F
100
AcDbEntity
  8
Default
100
AcDbSpline
210
0.0
220
0.0
230
1.0
 70
    12
 71
     2
 72
     6
 73
     3
 74
     0
 42
0.000000001
 43
0.0000000001
 40
0.0
 40
0.0
 40
0.0
 40
0.0587632096241838
 40
0.0587632096241838
 40
0.0587632096241838
 10
748.1110689765903
 20
1.394462849839617
 30
0.0
 41
1.0
 10
747.9233671921522
 20
0.6680744114094681
 30
0.0
 41
0.9921107855315545
 10
747.922254737334
 20
-0.0821728050574917
 30
0.0
 41
1.0
  0
SPLINE
  5
5A953
330
1F
100
AcDbEntity
  8
Default
100
AcDbSpline
210
0.0
220
0.0
230
1.0
 70
    24
 71
     2
 72
     6
 73
     3
 74
     0
 42
0.000000001
 43
0.0000000001
 40
0.0
 40
0.0
 40
0.0
 40
0.0114467396849787
 40
0.0114467396849787
 40
0.0114467396849787
 10
747.9222547373121
 20
-0.0821875797043345
 30
0.0
 10
747.7768811433145
 20
-0.0821875141806982
 30
0.0
 10
747.6315075493133
 20
-0.0821874486606999
 30
0.0
  0
SPLINE
  5
5A954
330
1F
100
AcDbEntity
  8
Default
100
AcDbSpline
210
0.0
220
0.0
230
1.0
 70
    12
 71
     2
 72
     6
 73
     3
 74
     0
 42
0.000000001
 43
0.0000000001
 40
0.0
 40
0.0
 40
0.0
 40
0.0586712320260919
 40
0.0586712320260919
 40
0.0586712320260919
 10
747.9222547373121
 20
-0.0821875797043345
 30
0.0
 41
1.0
 10
747.923359159826
 20
-0.8312486320134508
 30
0.0
 41
0.9921343149382712
 10
748.110485651114
 20
-1.556560534641614
 30
0.0
 41
1.0
  0
SPLINE
  5
5A955
330
1F
100
AcDbEntity
  8
Default
100
AcDbSpline
210
0.0
220
0.0
230
1.0
 70
     8
 71
     3
 72
    22
 73
    18
 74
     0
 42
0.000000001
 43
0.0000000001
 40
0.0
 40
0.0
 40
0.0
 40
0.0
 40
0.2588469591229587
 40
0.6477254461891114
 40
1.024641027840087
 40
1.817983982162573
 40
2.582167143679937
 40
4.062052734317923
 40
7.850412104674
 40
9.497260537102542
 40
10.543391206404
 40
10.8432833113025
 40
12.15829953678302
 40
13.34949093133962
 40
14.77372714428499
 40
17.25709974516987
 40
21.82793658798906
 40
21.82793658798906
 40
21.82793658798906
 40
21.82793658798906
 10
1456.287339596251
 20
196.4797560947519
 30
0.0
 10
1454.08955660249
 20
196.2764477862294
 30
0.0
 10
1448.642350613705
 20
197.2602769641891
 30
0.0
 10
1440.551356540624
 20
200.4229134355739
 30
0.0
 10
1428.638766221515
 20
206.1204867627495
 30
0.0
 10
1414.244381877534
 20
213.943149022016
 30
0.0
 10
1391.120284824328
 20
225.206218834701
 30
0.0
 10
1344.84718661554
 20
246.8299545892588
 30
0.0
 10
1290.694943594981
 20
269.1575671371576
 30
0.0
 10
1239.529399846861
 20
288.9653437515264
 30
0.0
 10
1215.799867227042
 20
297.8583784289551
 30
0.0
 10
1194.597327091886
 20
305.513693486657
 30
0.0
 10
1171.142546276993
 20
310.0479737156931
 30
0.0
 10
1137.906663526386
 20
311.7966852108878
 30
0.0
 10
1094.695235638372
 20
311.3364892284082
 30
0.0
 10
1023.291241356636
 20
302.2039289923053
 30
0.0
 10
966.9787896691399
 20
279.5032605539711
 30
0.0
 10
935.0346171270597
 20
257.5028135587165
 30
0.0
  0
SPLINE
  5
5A956
330
1F
100
AcDbEntity
  8
Default
100
AcDbSpline
210
0.0
220
0.0
230
1.0
 70
     8
 71
     3
 72
    19
 73
    15
 74
     0
 42
0.000000001
 43
0.0000000001
 40
-12.0
 40
-12.0
 40
-12.0
 40
-12.0
 40
-11.0
 40
-10.0
 40
-9.0
 40
-8.0
 40
-7.0
 40
-6.0
 40
-5.0
 40
-4.0
 40
-3.0
 40
-2.0
 40
-1.0
 40
0.0
 40
0.0
 40
0.0
 40
0.0
 10
1500.023491637045
 20
223.1130174103456
 30
0.0
 10
1505.387211826905
 20
219.9179665899466
 30
0.0
 10
1509.45477455991
 20
207.0962822265721
 30
0.0
 10
1514.041258853371
 20
188.9808702123483
 30
0.0
 10
1517.446820123403
 20
170.1960210558937
 30
0.0
 10
1520.536764332834
 20
151.4753307374304
 30
0.0
 10
1523.065029361633
 20
132.6377094247656
 30
0.0
 10
1525.150279792482
 20
113.7555029516517
 30
0.0
 10
1526.810192288767
 20
94.8287763912341
 30
0.0
 10
1528.088060266591
 20
75.87334089694934
 30
0.0
 10
1529.018703279768
 20
56.89765483551321
 30
0.0
 10
1529.638120442114
 20
37.9094574449847
 30
0.0
 10
1529.982118799149
 20
18.91440146354227
 30
0.0
 10
1530.051721550668
 20
6.249207203076481
 30
0.0
 10
1530.052539083861
 20
-0.0833643554177557
 30
0.0
  0
SPLINE
  5
5A957
330
1F
100
AcDbEntity
  8
Default
100
AcDbSpline
210
0.0
220
0.0
230
1.0
 70
    12
 71
     2
 72
     6
 73
     3
 74
     0
 42
0.000000001
 43
0.0000000001
 40
-6.233889429224446
 40
-6.233889429224446
 40
-6.233889429224446
 40
0.0
 40
0.0
 40
0.0
 10
1543.45577619118
 20
-0.0833643554177587
 30
0.0
 41
1.0
 10
1543.603160809804
 20
79.26043790028064
 30
0.0
 41
0.996730330589404
 10
1530.968839481242
 20
157.5915792525994
 30
0.0
 41
1.0
  0
SPLINE
  5
5A958
330
1F
100
AcDbEntity
  8
Default
100
AcDbSpline
210
0.0
220
0.0
230
1.0
 70
     8
 71
     3
 72
    12
 73
     8
 74
     0
 42
0.000000001
 43
0.0000000001
 40
0.0
 40
0.0
 40
0.0
 40
0.0
 40
0.8495817757806477
 40
1.391422022197968
 40
2.191064820612614
 40
2.689385262996221
 40
3.111933853859593
 40
3.111933853859593
 40
3.111933853859593
 40
3.111933853859593
 10
1530.968839481242
 20
157.5915792525994
 30
0.0
 10
1529.696932602749
 20
164.6982106546203
 30
0.0
 10
1527.919965878455
 20
176.2915919297739
 30
0.0
 10
1524.073927833104
 20
194.5003283017723
 30
0.0
 10
1520.020700771123
 20
209.5006200249192
 30
0.0
 10
1512.277634900644
 20
222.3397285833017
 30
0.0
 10
1503.680018447003
 20
224.262563194152
 30
0.0
 10
1500.163087019808
 20
223.1512920832721
 30
0.0
  0
SPLINE
  5
5A959
330
1F
100
AcDbEntity
  8
Default
100
AcDbSpline
210
0.0
220
0.0
230
1.0
 70
    12
 71
     2
 72
     6
 73
     3
 74
     0
 42
0.000000001
 43
0.0000000001
 40
0.0
 40
0.0
 40
0.0
 40
0.443505275079806
 40
0.443505275079806
 40
0.443505275079806
 10
1500.163087019808
 20
223.1512920832721
 30
0.0
 41
1.0
 10
1494.536980088518
 20
221.5258046025812
 30
0.0
 41
0.9799943751373794
 10
1490.107957340786
 20
217.9233312202379
 30
0.0
 41
1.0
  0
SPLINE
  5
5A95A
330
1F
100
AcDbEntity
  8
Default
100
AcDbSpline
210
0.0
220
0.0
230
1.0
 70
    12
 71
     2
 72
     6
 73
     3
 74
     0
 42
0.000000001
 43
0.0000000001
 40
-5.654573080352872
 40
-5.654573080352872
 40
-5.654573080352872
 40
0.0
 40
0.0
 40
0.0
 10
1533.33695951016
 20
142.8995571796296
 30
0.0
 41
1.0
 10
1545.016293311963
 20
71.88527972335226
 30
0.0
 41
0.9967681786255456
 10
1545.172352721043
 20
-0.0833643554177591
 30
0.0
 41
1.0
  0
SPLINE
  5
5A95B
330
1F
100
AcDbEntity
  8
Default
100
AcDbSpline
210
0.0
220
0.0
230
1.0
 70
    12
 71
     2
 72
     6
 73
     3
 74
     0
 42
0.000000001
 43
0.0000000001
 40
-1.102413928352738
 40
-1.102413928352738
 40
-1.102413928352738
 40
0.0
 40
0.0
 40
0.0
 10
1129.385786328132
 20
311.5448041223283
 30
0.0
 41
0.9999999993925147
 10
1129.230554078853
 20
325.5536530460815
 30
0.0
 41
0.9999999996616539
 10
1129.075482313414
 20
339.5635350436389
 30
0.0
 41
1.0
  0
SPLINE
  5
5A95C
330
1F
100
AcDbEntity
  8
Default
100
AcDbSpline
210
0.0
220
0.0
230
1.0
 70
     8
 71
     3
 72
    14
 73
    10
 74
     0
 42
0.000000001
 43
0.0000000001
 40
0.0
 40
0.0
 40
0.0
 40
0.0
 40
1.0
 40
2.0
 40
3.0
 40
4.0
 40
5.0
 40
6.0
 40
7.0
 40
7.0
 40
7.0
 40
7.0
 10
1129.075482313414
 20
339.5635350436389
 30
0.0
 10
1129.048815139855
 20
341.349297614983
 30
0.0
 10
1128.533269648849
 20
344.7182505520761
 30
0.0
 10
1126.354334289377
 20
349.3506307155515
 30
0.0
 10
1122.305702132109
 20
352.7748312018013
 30
0.0
 10
1116.890740522546
 20
352.6890474188296
 30
0.0
 10
1112.924368728627
 20
349.1845760585204
 30
0.0
 10
1110.805484611237
 20
344.5264884620522
 30
0.0
 10
1110.325220966441
 20
341.1524209903948
 30
0.0
 10
1110.324462950984
 20
339.465012418081
 30
0.0
  0
SPLINE
  5
5A95D
330
1F
100
AcDbEntity
  8
Default
100
AcDbSpline
210
0.0
220
0.0
230
1.0
 70
    12
 71
     2
 72
     6
 73
     3
 74
     0
 42
0.000000001
 43
0.0000000001
 40
0.0
 40
0.0
 40
0.0
 40
1.112498698414412
 40
1.112498698414412
 40
1.112498698414412
 10
1110.324462950984
 20
339.465012418081
 30
0.0
 41
1.0
 10
1110.168687454263
 20
325.3371377317346
 30
0.0
 41
0.9999999996585591
 10
1110.012674746215
 20
311.2092656628995
 30
0.0
 41
0.9999999993875963
  0
SPLINE
  5
5A95E
330
1F
100
AcDbEntity
  8
Default
100
AcDbSpline
210
0.0
220
0.0
230
1.0
 70
    12
 71
     2
 72
     6
 73
     3
 74
     0
 42
0.000000001
 43
0.0000000001
 40
-1.281345128275034
 40
-1.281345128275034
 40
-1.281345128275034
 40
0.0
 40
0.0
 40
0.0
 10
812.6175557849148
 20
9.656931063833599
 30
0.0
 41
0.9999999993069707
 10
796.3351458766867
 20
9.476473018443634
 30
0.0
 41
0.9999999996067375
 10
780.0513403254537
 20
9.296231780485239
 30
0.0
 41
1.0
  0
SPLINE
  5
5A95F
330
1F
100
AcDbEntity
  8
Default
100
AcDbSpline
210
0.0
220
0.0
230
1.0
 70
     8
 71
     3
 72
    14
 73
    10
 74
     0
 42
0.000000001
 43
0.0000000001
 40
0.0
 40
0.0
 40
0.0
 40
0.0
 40
1.0
 40
2.0
 40
3.0
 40
4.0
 40
5.0
 40
6.0
 40
7.0
 40
7.0
 40
7.0
 40
7.0
 10
780.0513403254537
 20
9.296231780485239
 30
0.0
 10
778.2655777541097
 20
9.269564606926278
 30
0.0
 10
774.8966248170201
 20
8.754019115917172
 30
0.0
 10
770.2642446535413
 20
6.575083756448576
 30
0.0
 10
766.8400441672913
 20
2.526451599180575
 30
0.0
 10
766.925827950263
 20
-2.888510010383185
 30
0.0
 10
770.4302993105686
 20
-6.854881804297918
 30
0.0
 10
775.0883869070405
 20
-8.973765921691382
 30
0.0
 10
778.4624543786978
 20
-9.454029566488033
 30
0.0
 10
780.1498629510117
 20
-9.45478758194412
 30
0.0
  0
SPLINE
  5
5A960
330
1F
100
AcDbEntity
  8
Default
100
AcDbSpline
210
0.0
220
0.0
230
1.0
 70
    12
 71
     2
 72
     6
 73
     3
 74
     0
 42
0.000000001
 43
0.0000000001
 40
0.0
 40
0.0
 40
0.0
 40
1.278324852146924
 40
1.278324852146924
 40
1.278324852146924
 10
780.1498629510117
 20
-9.45478758194412
 30
0.0
 41
1.0
 10
796.3836017825581
 20
-9.633782567838075
 30
0.0
 41
0.9999999996076647
 10
812.6173371577227
 20
-9.813090751631261
 30
0.0
 41
0.9999999993083845
  0
SPLINE
  5
5A961
330
1F
100
AcDbEntity
  8
Default
100
AcDbSpline
210
0.0
220
0.0
230
1.0
 70
     8
 71
     3
 72
    47
 73
    43
 74
     0
 42
0.000000001
 43
0.0000000001
 40
36.00001859489052
 40
36.00001859489052
 40
36.00001859489052
 40
36.00001859489052
 40
37.0
 40
38.0
 40
39.0
 40
40.0
 40
41.0
 40
42.0
 40
43.0
 40
44.0
 40
45.0
 40
46.0
 40
47.0
 40
48.0
 40
49.0
 40
50.0
 40
51.0
 40
52.0
 40
53.0
 40
53.0
 40
53.0
 40
54.0
 40
55.0
 40
56.0
 40
57.0
 40
58.0
 40
59.0
 40
60.0
 40
60.0
 40
60.0
 40
61.0
 40
62.0
 40
63.0
 40
64.0
 40
65.0
 40
66.0
 40
67.0
 40
68.0
 40
69.0
 40
70.0
 40
71.0
 40
72.0
 40
72.0
 40
72.0
 40
72.0
 10
812.5133546983189
 20
-0.0821874360332898
 30
0.0
 10
812.4944289786316
 20
11.10294204676556
 30
0.0
 10
813.4099417035379
 20
33.47564159020799
 30
0.0
 10
817.691915188427
 20
66.79015880771503
 30
0.0
 10
825.0134742016655
 20
99.57765231883632
 30
0.0
 10
835.5528061598981
 20
131.4813752525481
 30
0.0
 10
849.4767302735692
 20
162.0776531205086
 30
0.0
 10
867.0507238805969
 20
190.7319400023482
 30
0.0
 10
887.8470889410003
 20
217.150080005544
 30
0.0
 10
911.9395059104848
 20
240.6106819550953
 30
0.0
 10
938.8115532598479
 20
260.8236804681112
 30
0.0
 10
968.2301861973522
 20
277.1614148709416
 30
0.0
 10
999.7824537587897
 20
288.8354785711092
 30
0.0
 10
1032.496735520252
 20
296.5069580530146
 30
0.0
 10
1065.744567981184
 20
301.2204172737877
 30
0.0
 10
1099.250117349677
 20
303.4885925554011
 30
0.0
 10
1132.804600302605
 20
303.5625184038547
 30
0.0
 10
1166.38380618852
 20
302.1882316420817
 30
0.0
 10
1188.417635787244
 20
297.830106090096
 30
0.0
 10
1199.079620613278
 20
294.4234012388153
 30
0.0
 10
1209.553309309
 20
291.098898921555
 30
0.0
 10
1230.46836879026
 20
284.3467597139026
 30
0.0
 10
1261.66751055707
 20
273.6946333735543
 30
0.0
 10
1292.653850304081
 20
262.4376534215846
 30
0.0
 10
1323.384147416282
 20
250.4967401150427
 30
0.0
 10
1353.796502207837
 20
237.7691718618482
 30
0.0
 10
1383.860414892859
 20
224.2304854058749
 30
0.0
 10
1403.513067303147
 20
214.3831938481018
 30
0.0
 10
1413.265005882788
 20
209.3190931994724
 30
0.0
 10
1415.267784570822
 20
208.2840399630006
 30
0.0
 10
1419.278813616112
 20
206.2243054661341
 30
0.0
 10
1425.359604742991
 20
203.2618160468448
 30
0.0
 10
1431.540146051158
 20
200.5126847374378
 30
0.0
 10
1437.869880768709
 20
198.1124647439284
 30
0.0
 10
1444.383611489202
 20
196.2858449557172
 30
0.0
 10
1451.137074543336
 20
195.353162495696
 30
0.0
 10
1457.877609160072
 20
196.5009902386302
 30
0.0
 10
1464.001389292089
 20
199.4532300284192
 30
0.0
 10
1470.082645981975
 20
202.3945194656591
 30
0.0
 10
1475.910226317354
 20
205.849054996772
 30
0.0
 10
1481.397124646805
 20
209.8097136478247
 30
0.0
 10
1488.358935939059
 20
216.5007142223696
 30
0.0
 10
1490.107957340786
 20
217.9233312202379
 30
0.0
  0
SPLINE
  5
5A962
330
1F
100
AcDbEntity
  8
Default
100
AcDbSpline
210
0.0
220
0.0
230
1.0
 70
     8
 71
     3
 72
    12
 73
     8
 74
     0
 42
0.000000001
 43
0.0000000001
 40
0.0
 40
0.0
 40
0.0
 40
0.0
 40
1.918305221504867
 40
3.868777778011241
 40
7.624449324857683
 40
11.42846767657462
 40
15.35241906764609
 40
15.35241906764609
 40
15.35241906764609
 40
15.35241906764609
 10
1315.655099610494
 20
-0.0828377842333986
 30
0.0
 10
1315.668579000698
 20
16.15723837438434
 30
0.0
 10
1312.498398171758
 20
48.9194867415137
 30
0.0
 10
1293.852638486243
 20
111.046072662277
 30
0.0
 10
1247.759096803873
 20
179.1157315229831
 30
0.0
 10
1164.200825081674
 20
232.5695270039943
 30
0.0
 10
1098.622930958978
 20
244.3923747664741
 30
0.0
 10
1065.415411305339
 20
244.3918324069202
 30
0.0
  0
SPLINE
  5
5A963
330
1F
100
AcDbEntity
  8
Default
100
AcDbSpline
210
0.0
220
0.0
230
1.0
 70
     8
 71
     3
 72
    12
 73
     8
 74
     0
 42
0.000000001
 43
0.0000000001
 40
-14.89017236839833
 40
-14.89017236839833
 40
-14.89017236839833
 40
-14.89017236839833
 40
-11.21816917573749
 40
-7.516682162771167
 40
-3.774519558109396
 40
-1.88935509827327
 40
0.0
 40
0.0
 40
0.0
 40
0.0
 10
1065.415411305339
 20
244.3918324069202
 30
0.0
 10
1034.321614779879
 20
244.4001651544061
 30
0.0
 10
971.908850549966
 20
231.5184790891219
 30
0.0
 10
892.9955558248641
 20
176.8575300798295
 30
0.0
 10
849.3869571632879
 20
109.2145757557339
 30
0.0
 10
831.4113687044866
 20
47.87187742751148
 30
0.0
 10
828.3376277704721
 20
15.91237269244111
 30
0.0
 10
828.3359064912021
 20
-0.0828388309634668
 30
0.0
  0
SPLINE
  5
5A964
330
1F
100
AcDbEntity
  8
Default
100
AcDbSpline
210
0.0
220
0.0
230
1.0
 70
    12
 71
     2
 72
     6
 73
     3
 74
     0
 42
0.000000001
 43
0.0000000001
 40
0.0
 40
0.0
 40
0.0
 40
0.0853474550214741
 40
0.0853474550214741
 40
0.0853474550214741
 10
1129.978847725584
 20
-351.9748679900765
 30
0.0
 41
1.0
 10
1130.054727125838
 20
-353.0565584474641
 30
0.0
 41
0.9993970637774639
 10
1130.055355332201
 20
-354.1409068851606
 30
0.0
 41
1.0
  0
SPLINE
  5
5A965
330
1F
100
AcDbEntity
  8
Default
100
AcDbSpline
210
0.0
220
0.0
230
1.0
 70
     8
 71
     3
 72
    12
 73
     8
 74
     0
 42
0.000000001
 43
0.0000000001
 40
0.0
 40
0.0
 40
0.0
 40
0.0
 40
0.1510110321465192
 40
0.3037660471064116
 40
0.5900965017365678
 40
0.8249401141264362
 40
1.014583801502342
 40
1.014583801502342
 40
1.014583801502342
 40
1.014583801502342
 10
1109.490478800979
 20
-351.0846888840822
 30
0.0
 10
1109.365606753041
 20
-352.3577428893148
 30
0.0
 10
1109.268330379329
 20
-354.9307591872673
 30
0.0
 10
1109.705512238097
 20
-359.9205337898818
 30
0.0
 10
1111.2410015855
 20
-365.4613729675364
 30
0.0
 10
1114.663596414788
 20
-370.5630839847106
 30
0.0
 10
1118.062554217677
 20
-372.2075949508505
 30
0.0
 10
1119.697063096895
 20
-372.1757565667538
 30
0.0
  0
SPLINE
  5
5A966
330
1F
100
AcDbEntity
  8
Default
100
AcDbSpline
210
0.0
220
0.0
230
1.0
 70
     8
 71
     3
 72
    12
 73
     8
 74
     0
 42
0.000000001
 43
0.0000000001
 40
-1.014583801502342
 40
-1.014583801502342
 40
-1.014583801502342
 40
-1.014583801502342
 40
-0.8249401141264362
 40
-0.5900965017365678
 40
-0.3037660471064116
 40
-0.1510110321465192
 40
0.0
 40
0.0
 40
0.0
 40
0.0
 10
1119.697063096895
 20
-372.1757565667538
 30
0.0
 10
1121.331571976118
 20
-372.2075949508505
 30
0.0
 10
1124.730529779006
 20
-370.5630839847106
 30
0.0
 10
1128.153124608294
 20
-365.4613729675364
 30
0.0
 10
1129.688613955697
 20
-359.9205337898818
 30
0.0
 10
1130.125795814465
 20
-354.9307591872673
 30
0.0
 10
1130.028519440753
 20
-352.3577428893148
 30
0.0
 10
1129.903647392815
 20
-351.0846888840822
 30
0.0
  0
SPLINE
  5
5A967
330
1F
100
AcDbEntity
  8
Default
100
AcDbSpline
210
0.0
220
0.0
230
1.0
 70
    12
 71
     2
 72
     6
 73
     3
 74
     0
 42
0.000000001
 43
0.0000000001
 40
0.0
 40
0.0
 40
0.0
 40
0.1369528492222414
 40
0.1369528492222414
 40
0.1369528492222414
 10
1110.359749200094
 20
-341.4490283475641
 30
0.0
 41
1.0
 10
1110.396059404795
 20
-343.1879206094379
 30
0.0
 41
0.9999966913238282
 10
1110.376967065096
 20
-344.927801188194
 30
0.0
 41
0.9999959461296658
  0
ARC
  5
5A968
330
1F
100
AcDbEntity
  8
Default
100
AcDbCircle
 10
1097.678684403103
 20
-345.1366490660946
 30
0.0
 40
12.7
100
AcDbArc
 50
348.4871521735316
 51
0.9422552251276819
  0
SPLINE
  5
5A969
330
1F
100
AcDbEntity
  8
Default
100
AcDbSpline
210
0.0
220
0.0
230
1.0
 70
     8
 71
     3
 72
    14
 73
    10
 74
     0
 42
0.000000001
 43
0.0000000001
 40
0.2772630823298201
 40
0.2772630823298201
 40
0.2772630823298201
 40
0.2772630823298201
 40
1.0
 40
2.0
 40
3.0
 40
4.0
 40
5.0
 40
6.0
 40
7.0
 40
7.0
 40
7.0
 40
7.0
 10
1110.123160077254
 20
-347.6714124072166
 30
0.0
 10
1109.917489613885
 20
-348.6811560139538
 30
0.0
 10
1109.534807146889
 20
-351.1100507753797
 30
0.0
 10
1109.414376371105
 20
-355.0001765166669
 30
0.0
 10
1109.871941970019
 20
-359.2616948844077
 30
0.0
 10
1110.926787816536
 20
-363.4208380871967
 30
0.0
 10
1112.717192520633
 20
-367.3290734743312
 30
0.0
 10
1115.513862260306
 20
-370.6554444966021
 30
0.0
 10
1118.257302169614
 20
-371.8040376653696
 30
0.0
 10
1119.697075709524
 20
-371.7911470204124
 30
0.0
  0
SPLINE
  5
5A96A
330
1F
100
AcDbEntity
  8
Default
100
AcDbSpline
210
0.0
220
0.0
230
1.0
 70
     8
 71
     3
 72
    14
 73
    10
 74
     0
 42
0.000000001
 43
0.0000000001
 40
-7.0
 40
-7.0
 40
-7.0
 40
-7.0
 40
-6.0
 40
-5.0
 40
-4.0
 40
-3.0
 40
-2.0
 40
-1.0
 40
-0.2482205602640466
 40
-0.2482205602640466
 40
-0.2482205602640466
 40
-0.2482205602640466
 10
1119.697075709524
 20
-371.7911470204124
 30
0.0
 10
1121.136849249428
 20
-371.8040376653696
 30
0.0
 10
1123.880289158738
 20
-370.6554444966021
 30
0.0
 10
1126.676958898412
 20
-367.3290734743312
 30
0.0
 10
1128.467363602509
 20
-363.4208380871967
 30
0.0
 10
1129.522209449025
 20
-359.2616948844077
 30
0.0
 10
1129.979775047939
 20
-355.0001765166669
 30
0.0
 10
1129.858059677439
 20
-351.0685561080316
 30
0.0
 10
1129.463671902411
 20
-348.5992708707633
 30
0.0
 10
1129.245979280533
 20
-347.5497305589049
 30
0.0
  0
ARC
  5
5A96B
330
1F
100
AcDbEntity
  8
Default
100
AcDbCircle
 10
1141.681300722436
 20
-344.9704320812959
 30
0.0
 40
12.7
100
AcDbArc
 50
178.977579807951
 51
191.71796787816
  0
SPLINE
  5
5A96C
330
1F
100
AcDbEntity
  8
Default
100
AcDbSpline
210
0.0
220
0.0
230
1.0
 70
    12
 71
     2
 72
     6
 73
     3
 74
     0
 42
0.000000001
 43
0.0000000001
 40
-0.1297405451143296
 40
-0.1297405451143296
 40
-0.1297405451143296
 40
0.0
 40
0.0
 40
0.0
 10
1128.983322697391
 20
-344.7438177051733
 30
0.0
 41
0.9999960316975588
 10
1129.012723778533
 20
-343.0963746407322
 30
0.0
 41
0.999996865512317
 10
1129.047122391048
 20
-341.4490283475641
 30
0.0
 41
1.0
  0
SPLINE
  5
5A96D
330
1F
100
AcDbEntity
  8
Default
100
AcDbSpline
210
0.0
220
0.0
230
1.0
 70
     8
 71
     3
 72
    22
 73
    18
 74
     0
 42
0.000000001
 43
0.0000000001
 40
0.0
 40
0.0
 40
0.0
 40
0.0
 40
0.2588469591229587
 40
0.6477254461891114
 40
1.024641027840087
 40
1.817983982162573
 40
2.582167143679937
 40
4.062052734317923
 40
7.850412104674
 40
9.497260537102542
 40
10.543391206404
 40
10.8432833113025
 40
12.15829953678302
 40
13.34949093133962
 40
14.77372714428499
 40
17.25709974516987
 40
21.82793658798906
 40
21.82793658798906
 40
21.82793658798906
 40
21.82793658798906
 10
1456.287339596251
 20
-196.6441309668187
 30
0.0
 10
1454.08955660249
 20
-196.4408226582962
 30
0.0
 10
1448.642350613705
 20
-197.4246518362559
 30
0.0
 10
1440.551356540624
 20
-200.5872883076407
 30
0.0
 10
1428.638766221515
 20
-206.2848616348163
 30
0.0
 10
1414.244381877534
 20
-214.1075238940828
 30
0.0
 10
1391.120284824328
 20
-225.3705937067678
 30
0.0
 10
1344.84718661554
 20
-246.9943294613257
 30
0.0
 10
1290.694943594981
 20
-269.3219420092244
 30
0.0
 10
1239.529399846861
 20
-289.1297186235932
 30
0.0
 10
1215.799867227042
 20
-298.0227533010218
 30
0.0
 10
1194.597327091886
 20
-305.6780683587238
 30
0.0
 10
1171.142546276993
 20
-310.2123485877599
 30
0.0
 10
1137.906663526386
 20
-311.9610600829544
 30
0.0
 10
1094.695235638372
 20
-311.5008641004749
 30
0.0
 10
1023.291241356635
 20
-302.3683038643719
 30
0.0
 10
966.9787896691397
 20
-279.6676354260378
 30
0.0
 10
935.0346171270595
 20
-257.6671884307832
 30
0.0
  0
SPLINE
  5
5A96E
330
1F
100
AcDbEntity
  8
Default
100
AcDbSpline
210
0.0
220
0.0
230
1.0
 70
     8
 71
     3
 72
    19
 73
    15
 74
     0
 42
0.000000001
 43
0.0000000001
 40
-12.0
 40
-12.0
 40
-12.0
 40
-12.0
 40
-11.0
 40
-10.0
 40
-9.0
 40
-8.0
 40
-7.0
 40
-6.0
 40
-5.0
 40
-4.0
 40
-3.0
 40
-2.0
 40
-1.0
 40
0.0
 40
0.0
 40
0.0
 40
0.0
 10
1500.023491637045
 20
-223.2773922824125
 30
0.0
 10
1505.387211826905
 20
-220.0823414620135
 30
0.0
 10
1509.45477455991
 20
-207.260657098639
 30
0.0
 10
1514.041258853371
 20
-189.1452450844152
 30
0.0
 10
1517.446820123403
 20
-170.3603959279606
 30
0.0
 10
1520.536764332834
 20
-151.6397056094973
 30
0.0
 10
1523.065029361633
 20
-132.8020842968325
 30
0.0
 10
1525.150279792482
 20
-113.9198778237186
 30
0.0
 10
1526.810192288767
 20
-94.99315126330101
 30
0.0
 10
1528.088060266591
 20
-76.03771576901625
 30
0.0
 10
1529.018703279768
 20
-57.06202970758011
 30
0.0
 10
1529.638120442114
 20
-38.0738323170516
 30
0.0
 10
1529.982118799149
 20
-19.07877633560918
 30
0.0
 10
1530.051721550668
 20
-6.41358207514338
 30
0.0
 10
1530.052539083861
 20
-0.0810105166491426
 30
0.0
  0
SPLINE
  5
5A96F
330
1F
100
AcDbEntity
  8
Default
100
AcDbSpline
210
0.0
220
0.0
230
1.0
 70
    12
 71
     2
 72
     6
 73
     3
 74
     0
 42
0.000000001
 43
0.0000000001
 40
-6.233889429224446
 40
-6.233889429224446
 40
-6.233889429224446
 40
0.0
 40
0.0
 40
0.0
 10
1543.45577619118
 20
-0.0810105166491456
 30
0.0
 41
1.0
 10
1543.603160809804
 20
-79.42481277234754
 30
0.0
 41
0.996730330589404
 10
1530.968839481242
 20
-157.7559541246663
 30
0.0
 41
1.0
  0
SPLINE
  5
5A970
330
1F
100
AcDbEntity
  8
Default
100
AcDbSpline
210
0.0
220
0.0
230
1.0
 70
     8
 71
     3
 72
    12
 73
     8
 74
     0
 42
0.000000001
 43
0.0000000001
 40
0.0
 40
0.0
 40
0.0
 40
0.0
 40
0.8495817757806477
 40
1.391422022197968
 40
2.191064820612614
 40
2.689385262996221
 40
3.111933853859593
 40
3.111933853859593
 40
3.111933853859593
 40
3.111933853859593
 10
1530.968839481242
 20
-157.7559541246663
 30
0.0
 10
1529.696932602749
 20
-164.8625855266872
 30
0.0
 10
1527.919965878455
 20
-176.4559668018408
 30
0.0
 10
1524.073927833104
 20
-194.6647031738392
 30
0.0
 10
1520.020700771123
 20
-209.6649948969861
 30
0.0
 10
1512.277634900644
 20
-222.5041034553687
 30
0.0
 10
1503.680018447003
 20
-224.4269380662189
 30
0.0
 10
1500.163087019808
 20
-223.315666955339
 30
0.0
  0
SPLINE
  5
5A971
330
1F
100
AcDbEntity
  8
Default
100
AcDbSpline
210
0.0
220
0.0
230
1.0
 70
    12
 71
     2
 72
     6
 73
     3
 74
     0
 42
0.000000001
 43
0.0000000001
 40
0.0
 40
0.0
 40
0.0
 40
0.443505275079806
 40
0.443505275079806
 40
0.443505275079806
 10
1500.163087019808
 20
-223.315666955339
 30
0.0
 41
1.0
 10
1494.536980088518
 20
-221.6901794746481
 30
0.0
 41
0.9799943751373794
 10
1490.107957340786
 20
-218.0877060923048
 30
0.0
 41
1.0
  0
SPLINE
  5
5A972
330
1F
100
AcDbEntity
  8
Default
100
AcDbSpline
210
0.0
220
0.0
230
1.0
 70
    12
 71
     2
 72
     6
 73
     3
 74
     0
 42
0.000000001
 43
0.0000000001
 40
-5.654573080352872
 40
-5.654573080352872
 40
-5.654573080352872
 40
0.0
 40
0.0
 40
0.0
 10
1533.33695951016
 20
-143.0639320516965
 30
0.0
 41
1.0
 10
1545.016293311963
 20
-72.04965459541916
 30
0.0
 41
0.9967681786255456
 10
1545.172352721043
 20
-0.081010516649146
 30
0.0
 41
1.0
  0
SPLINE
  5
5A973
330
1F
100
AcDbEntity
  8
Default
100
AcDbSpline
210
0.0
220
0.0
230
1.0
 70
    12
 71
     2
 72
     6
 73
     3
 74
     0
 42
0.000000001
 43
0.0000000001
 40
-1.102413928352738
 40
-1.102413928352738
 40
-1.102413928352738
 40
0.0
 40
0.0
 40
0.0
 10
1129.385786328132
 20
-311.709178994395
 30
0.0
 41
0.9999999993925147
 10
1129.230554078853
 20
-325.7180279181482
 30
0.0
 41
0.9999999996616539
 10
1129.075482313414
 20
-339.7279099157056
 30
0.0
 41
1.0
  0
SPLINE
  5
5A974
330
1F
100
AcDbEntity
  8
Default
100
AcDbSpline
210
0.0
220
0.0
230
1.0
 70
     8
 71
     3
 72
    14
 73
    10
 74
     0
 42
0.000000001
 43
0.0000000001
 40
0.0
 40
0.0
 40
0.0
 40
0.0
 40
1.0
 40
2.0
 40
3.0
 40
4.0
 40
5.0
 40
6.0
 40
7.0
 40
7.0
 40
7.0
 40
7.0
 10
1129.075482313414
 20
-339.7279099157056
 30
0.0
 10
1129.048815139855
 20
-341.5136724870497
 30
0.0
 10
1128.533269648849
 20
-344.8826254241428
 30
0.0
 10
1126.354334289377
 20
-349.5150055876181
 30
0.0
 10
1122.305702132109
 20
-352.939206073868
 30
0.0
 10
1116.890740522546
 20
-352.8534222908963
 30
0.0
 10
1112.924368728627
 20
-349.3489509305871
 30
0.0
 10
1110.805484611237
 20
-344.6908633341188
 30
0.0
 10
1110.325220966441
 20
-341.3167958624615
 30
0.0
 10
1110.324462950984
 20
-339.6293872901476
 30
0.0
  0
SPLINE
  5
5A975
330
1F
100
AcDbEntity
  8
Default
100
AcDbSpline
210
0.0
220
0.0
230
1.0
 70
    12
 71
     2
 72
     6
 73
     3
 74
     0
 42
0.000000001
 43
0.0000000001
 40
0.0
 40
0.0
 40
0.0
 40
1.112498698414412
 40
1.112498698414412
 40
1.112498698414412
 10
1110.324462950984
 20
-339.6293872901476
 30
0.0
 41
1.0
 10
1110.168687454263
 20
-325.5015126038013
 30
0.0
 41
0.9999999996585591
 10
1110.012674746215
 20
-311.3736405349662
 30
0.0
 41
0.9999999993875963
  0
SPLINE
  5
5A976
330
1F
100
AcDbEntity
  8
Default
100
AcDbSpline
210
0.0
220
0.0
230
1.0
 70
     8
 71
     3
 72
    47
 73
    43
 74
     0
 42
0.000000001
 43
0.0000000001
 40
36.00001859489052
 40
36.00001859489052
 40
36.00001859489052
 40
36.00001859489052
 40
37.0
 40
38.0
 40
39.0
 40
40.0
 40
41.0
 40
42.0
 40
43.0
 40
44.0
 40
45.0
 40
46.0
 40
47.0
 40
48.0
 40
49.0
 40
50.0
 40
51.0
 40
52.0
 40
53.0
 40
53.0
 40
53.0
 40
54.0
 40
55.0
 40
56.0
 40
57.0
 40
58.0
 40
59.0
 40
60.0
 40
60.0
 40
60.0
 40
61.0
 40
62.0
 40
63.0
 40
64.0
 40
65.0
 40
66.0
 40
67.0
 40
68.0
 40
69.0
 40
70.0
 40
71.0
 40
72.0
 40
72.0
 40
72.0
 40
72.0
 10
812.5133546983189
 20
-0.0821874360332898
 30
0.0
 10
812.4944289786316
 20
-11.26731691883215
 30
0.0
 10
813.4099417035379
 20
-33.64001646227457
 30
0.0
 10
817.691915188427
 20
-66.95453367978162
 30
0.0
 10
825.0134742016655
 20
-99.74202719090291
 30
0.0
 10
835.5528061598981
 20
-131.6457501246147
 30
0.0
 10
849.4767302735692
 20
-162.2420279925752
 30
0.0
 10
867.0507238805969
 20
-190.8963148744148
 30
0.0
 10
887.8470889410003
 20
-217.3144548776106
 30
0.0
 10
911.9395059104848
 20
-240.775056827162
 30
0.0
 10
938.8115532598478
 20
-260.9880553401779
 30
0.0
 10
968.230186197352
 20
-277.3257897430083
 30
0.0
 10
999.7824537587895
 20
-288.9998534431759
 30
0.0
 10
1032.496735520252
 20
-296.6713329250813
 30
0.0
 10
1065.744567981184
 20
-301.3847921458544
 30
0.0
 10
1099.250117349677
 20
-303.6529674274677
 30
0.0
 10
1132.804600302605
 20
-303.7268932759214
 30
0.0
 10
1166.38380618852
 20
-302.3526065141485
 30
0.0
 10
1188.417635787244
 20
-297.9944809621628
 30
0.0
 10
1199.079620613278
 20
-294.5877761108821
 30
0.0
 10
1209.553309309
 20
-291.2632737936217
 30
0.0
 10
1230.46836879026
 20
-284.5111345859694
 30
0.0
 10
1261.66751055707
 20
-273.8590082456211
 30
0.0
 10
1292.653850304081
 20
-262.6020282936514
 30
0.0
 10
1323.384147416282
 20
-250.6611149871095
 30
0.0
 10
1353.796502207837
 20
-237.933546733915
 30
0.0
 10
1383.860414892859
 20
-224.3948602779418
 30
0.0
 10
1403.513067303147
 20
-214.5475687201686
 30
0.0
 10
1413.265005882788
 20
-209.4834680715393
 30
0.0
 10
1415.267784570822
 20
-208.4484148350674
 30
0.0
 10
1419.278813616112
 20
-206.3886803382009
 30
0.0
 10
1425.359604742991
 20
-203.4261909189116
 30
0.0
 10
1431.540146051158
 20
-200.6770596095047
 30
0.0
 10
1437.869880768709
 20
-198.2768396159952
 30
0.0
 10
1444.383611489202
 20
-196.450219827784
 30
0.0
 10
1451.137074543336
 20
-195.5175373677628
 30
0.0
 10
1457.877609160072
 20
-196.665365110697
 30
0.0
 10
1464.001389292089
 20
-199.617604900486
 30
0.0
 10
1470.082645981975
 20
-202.5588943377259
 30
0.0
 10
1475.910226317354
 20
-206.0134298688389
 30
0.0
 10
1481.397124646805
 20
-209.9740885198916
 30
0.0
 10
1488.358935939059
 20
-216.6650890944364
 30
0.0
 10
1490.107957340786
 20
-218.0877060923048
 30
0.0
  0
SPLINE
  5
5A977
330
1F
100
AcDbEntity
  8
Default
100
AcDbSpline
210
0.0
220
0.0
230
1.0
 70
     8
 71
     3
 72
    12
 73
     8
 74
     0
 42
0.000000001
 43
0.0000000001
 40
0.0
 40
0.0
 40
0.0
 40
0.0
 40
1.918305221504867
 40
3.868777778011241
 40
7.624449324857683
 40
11.42846767657462
 40
15.35241906764609
 40
15.35241906764609
 40
15.35241906764609
 40
15.35241906764609
 10
1315.655099610494
 20
-0.0815370878334045
 30
0.0
 10
1315.668579000698
 20
-16.32161324645114
 30
0.0
 10
1312.498398171758
 20
-49.0838616135805
 30
0.0
 10
1293.852638486243
 20
-111.2104475343438
 30
0.0
 10
1247.759096803873
 20
-179.2801063950499
 30
0.0
 10
1164.200825081674
 20
-232.7339018760611
 30
0.0
 10
1098.622930958978
 20
-244.5567496385409
 30
0.0
 10
1065.415411305339
 20
-244.5562072789869
 30
0.0
  0
SPLINE
  5
5A978
330
1F
100
AcDbEntity
  8
Default
100
AcDbSpline
210
0.0
220
0.0
230
1.0
 70
     8
 71
     3
 72
    12
 73
     8
 74
     0
 42
0.000000001
 43
0.0000000001
 40
-14.89017236839833
 40
-14.89017236839833
 40
-14.89017236839833
 40
-14.89017236839833
 40
-11.21816917573749
 40
-7.516682162771167
 40
-3.774519558109396
 40
-1.88935509827327
 40
0.0
 40
0.0
 40
0.0
 40
0.0
 10
1065.415411305339
 20
-244.5562072789869
 30
0.0
 10
1034.321614779879
 20
-244.5645400264727
 30
0.0
 10
971.908850549966
 20
-231.6828539611886
 30
0.0
 10
892.9955558248641
 20
-177.0219049518962
 30
0.0
 10
849.3869571632879
 20
-109.3789506278005
 30
0.0
 10
831.4113687044866
 20
-48.03625229957806
 30
0.0
 10
828.3376277704721
 20
-16.0767475645077
 30
0.0
 10
828.3359064912021
 20
-0.0815360411031199
 30
0.0
  0
SPLINE
  5
5A979
330
1F
100
AcDbEntity
  8
Default
100
AcDbSpline
210
0.0
220
0.0
230
1.0
 70
     8
 71
     3
 72
    12
 73
     8
 74
     0
 42
0.000000001
 43
0.0000000001
 40
0.0
 40
0.0
 40
0.0
 40
0.0
 40
0.1510110321465192
 40
0.3037660471064116
 40
0.5900965017365678
 40
0.8249401141264362
 40
1.014583801502342
 40
1.014583801502342
 40
1.014583801502342
 40
1.014583801502342
 10
-768.6945613570771
 20
-10.28877173194934
 30
0.0
 10
-767.4215073518483
 20
-10.41364377988731
 30
0.0
 10
-764.8484910538956
 20
-10.5109201535991
 30
0.0
 10
-759.8587164512776
 20
-10.07373829483123
 30
0.0
 10
-754.3178772736194
 20
-8.538248947428034
 30
0.0
 10
-749.2161662564488
 20
-5.115654118140189
 30
0.0
 10
-747.5716552903088
 20
-1.716696315251572
 30
0.0
 10
-747.6034936744092
 20
-0.0821874360329434
 30
0.0
  0
SPLINE
  5
5A97A
330
1F
100
AcDbEntity
  8
Default
100
AcDbSpline
210
0.0
220
0.0
230
1.0
 70
     8
 71
     3
 72
    12
 73
     8
 74
     0
 42
0.000000001
 43
0.0000000001
 40
-1.014583801502342
 40
-1.014583801502342
 40
-1.014583801502342
 40
-1.014583801502342
 40
-0.8249401141264362
 40
-0.5900965017365678
 40
-0.3037660471064116
 40
-0.1510110321465192
 40
0.0
 40
0.0
 40
0.0
 40
0.0
 10
-747.6034936744092
 20
-0.0821874360329434
 30
0.0
 10
-747.5716552903088
 20
1.552321443189323
 30
0.0
 10
-749.2161662564488
 20
4.95127924607794
 30
0.0
 10
-754.3178772736194
 20
8.373874075365787
 30
0.0
 10
-759.8587164512776
 20
9.909363422768988
 30
0.0
 10
-764.8484910538956
 20
10.34654528153686
 30
0.0
 10
-767.4215073518483
 20
10.24926890782507
 30
0.0
 10
-768.6945613570771
 20
10.12439685988346
 30
0.0
  0
SPLINE
  5
5A97B
330
1F
100
AcDbEntity
  8
Default
100
AcDbSpline
210
0.0
220
0.0
230
1.0
 70
    12
 71
     2
 72
     6
 73
     3
 74
     0
 42
0.000000001
 43
0.0000000001
 40
0.0
 40
0.0
 40
0.0
 40
0.1369528492222414
 40
0.1369528492222414
 40
0.1369528492222414
 10
-778.3302218935952
 20
-9.419501332834725
 30
0.0
 41
1.0
 10
-776.5913296317178
 20
-9.383191128133431
 30
0.0
 41
0.9999966913238282
 10
-774.8514490529689
 20
-9.402283467831976
 30
0.0
 41
0.9999959461296658
  0
ARC
  5
5A97C
330
1F
100
AcDbEntity
  8
Default
100
AcDbCircle
 10
-774.6426011750684
 20
-22.10056612982527
 30
0.0
 40
12.7
100
AcDbArc
 50
78.48715217353255
 51
90.94225522512779
  0
SPLINE
  5
5A97D
330
1F
100
AcDbEntity
  8
Default
100
AcDbSpline
210
0.0
220
0.0
230
1.0
 70
     8
 71
     3
 72
    14
 73
    10
 74
     0
 42
0.000000001
 43
0.0000000001
 40
0.2772630823298201
 40
0.2772630823298201
 40
0.2772630823298201
 40
0.2772630823298201
 40
1.0
 40
2.0
 40
3.0
 40
4.0
 40
5.0
 40
6.0
 40
7.0
 40
7.0
 40
7.0
 40
7.0
 10
-772.1078378339464
 20
-9.656090455674812
 30
0.0
 10
-771.0980942272092
 20
-9.861760919043547
 30
0.0
 10
-768.6691994657796
 20
-10.24444338603945
 30
0.0
 10
-764.7790737244961
 20
-10.36487416182291
 30
0.0
 10
-760.5175553567517
 20
-9.907308562909124
 30
0.0
 10
-756.3584121539626
 20
-8.852462716392723
 30
0.0
 10
-752.4501767668319
 20
-7.06205801229527
 30
0.0
 10
-749.1238057445573
 20
-4.265388272622037
 30
0.0
 10
-747.9752125757897
 20
-1.521948363314838
 30
0.0
 10
-747.988103220747
 20
-0.0821748234078017
 30
0.0
  0
SPLINE
  5
5A97E
330
1F
100
AcDbEntity
  8
Default
100
AcDbSpline
210
0.0
220
0.0
230
1.0
 70
     8
 71
     3
 72
    14
 73
    10
 74
     0
 42
0.000000001
 43
0.0000000001
 40
-7.0
 40
-7.0
 40
-7.0
 40
-7.0
 40
-6.0
 40
-5.0
 40
-4.0
 40
-3.0
 40
-2.0
 40
-1.0
 40
-0.2482205602640466
 40
-0.2482205602640466
 40
-0.2482205602640466
 40
-0.2482205602640466
 10
-747.988103220747
 20
-0.0821748234078017
 30
0.0
 10
-747.9752125757897
 20
1.357598716502873
 30
0.0
 10
-749.1238057445573
 20
4.101038625810072
 30
0.0
 10
-752.4501767668319
 20
6.897708365483307
 30
0.0
 10
-756.3584121539626
 20
8.688113069580763
 30
0.0
 10
-760.5175553567517
 20
9.742958916097164
 30
0.0
 10
-764.7790737244961
 20
10.20052451501095
 30
0.0
 10
-768.7106941331315
 20
10.07880914451078
 30
0.0
 10
-771.179979370396
 20
9.684421369482777
 30
0.0
 10
-772.2295196822581
 20
9.466728747604692
 30
0.0
  0
ARC
  5
5A97F
330
1F
100
AcDbEntity
  8
Default
100
AcDbCircle
 10
-774.8088181598598
 20
21.90205018950718
 30
0.0
 40
12.7
100
AcDbArc
 50
268.9775798079639
 51
281.7179678781595
  0
SPLINE
  5
5A980
330
1F
100
AcDbEntity
  8
Default
100
AcDbSpline
210
0.0
220
0.0
230
1.0
 70
    12
 71
     2
 72
     6
 73
     3
 74
     0
 42
0.000000001
 43
0.0000000001
 40
-0.1297405451143296
 40
-0.1297405451143296
 40
-0.1297405451143296
 40
0.0
 40
0.0
 40
0.0
 10
-775.035432535986
 20
9.204072164463186
 30
0.0
 41
0.9999960316975588
 10
-776.6828756004309
 20
9.233473245604445
 30
0.0
 41
0.999996865512317
 10
-778.3302218935952
 20
9.267871858119805
 30
0.0
 41
1.0
  0
SPLINE
  5
5A981
330
1F
100
AcDbEntity
  8
Default
100
AcDbSpline
210
0.0
220
0.0
230
1.0
 70
    12
 71
     2
 72
     6
 73
     3
 74
     0
 42
0.000000001
 43
0.0000000001
 40
0.0
 40
0.0
 40
0.0
 40
0.0853474550214741
 40
0.0853474550214741
 40
0.0853474550214741
 10
-767.8043822510828
 20
10.19959719265597
 30
0.0
 41
1.0
 10
-766.7226917936988
 20
10.27547659291002
 30
0.0
 41
0.9993970637774639
 10
-765.6383433560024
 20
10.27610479927233
 30
0.0
 41
1.0
  0
SPLINE
  5
5A982
330
1F
100
AcDbEntity
  8
Default
100
AcDbSpline
210
0.0
220
0.0
230
1.0
 70
    12
 71
     2
 72
     6
 73
     3
 74
     0
 42
0.000000001
 43
0.0000000001
 40
0.0
 40
0.0
 40
0.0
 40
0.0853474550214741
 40
0.0853474550214741
 40
0.0853474550214741
 10
-1129.978847725584
 20
351.8104931180103
 30
0.0
 41
1.0
 10
-1130.054727125838
 20
352.8921835753979
 30
0.0
 41
0.9993970637774639
 10
-1130.055355332201
 20
353.9765320130944
 30
0.0
 41
1.0
  0
SPLINE
  5
5A983
330
1F
100
AcDbEntity
  8
Default
100
AcDbSpline
210
0.0
220
0.0
230
1.0
 70
     8
 71
     3
 72
    12
 73
     8
 74
     0
 42
0.000000001
 43
0.0000000001
 40
0.0
 40
0.0
 40
0.0
 40
0.0
 40
0.1510110321465192
 40
0.3037660471064116
 40
0.5900965017365678
 40
0.8249401141264362
 40
1.014583801502342
 40
1.014583801502342
 40
1.014583801502342
 40
1.014583801502342
 10
-1109.490478800979
 20
350.920314012016
 30
0.0
 10
-1109.365606753041
 20
352.1933680172485
 30
0.0
 10
-1109.268330379329
 20
354.7663843152011
 30
0.0
 10
-1109.705512238097
 20
359.7561589178156
 30
0.0
 10
-1111.2410015855
 20
365.2969980954702
 30
0.0
 10
-1114.663596414788
 20
370.3987091126444
 30
0.0
 10
-1118.062554217677
 20
372.0432200787843
 30
0.0
 10
-1119.697063096895
 20
372.0113816946875
 30
0.0
  0
SPLINE
  5
5A984
330
1F
100
AcDbEntity
  8
Default
100
AcDbSpline
210
0.0
220
0.0
230
1.0
 70
     8
 71
     3
 72
    12
 73
     8
 74
     0
 42
0.000000001
 43
0.0000000001
 40
-1.014583801502342
 40
-1.014583801502342
 40
-1.014583801502342
 40
-1.014583801502342
 40
-0.8249401141264362
 40
-0.5900965017365678
 40
-0.3037660471064116
 40
-0.1510110321465192
 40
0.0
 40
0.0
 40
0.0
 40
0.0
 10
-1119.697063096895
 20
372.0113816946875
 30
0.0
 10
-1121.331571976118
 20
372.0432200787843
 30
0.0
 10
-1124.730529779006
 20
370.3987091126444
 30
0.0
 10
-1128.153124608294
 20
365.2969980954702
 30
0.0
 10
-1129.688613955697
 20
359.7561589178156
 30
0.0
 10
-1130.125795814465
 20
354.7663843152011
 30
0.0
 10
-1130.028519440753
 20
352.1933680172485
 30
0.0
 10
-1129.903647392815
 20
350.920314012016
 30
0.0
  0
SPLINE
  5
5A985
330
1F
100
AcDbEntity
  8
Default
100
AcDbSpline
210
0.0
220
0.0
230
1.0
 70
    12
 71
     2
 72
     6
 73
     3
 74
     0
 42
0.000000001
 43
0.0000000001
 40
0.0
 40
0.0
 40
0.0
 40
0.1369528492222414
 40
0.1369528492222414
 40
0.1369528492222414
 10
-1110.359749200094
 20
341.2846534754979
 30
0.0
 41
1.0
 10
-1110.396059404795
 20
343.0235457373717
 30
0.0
 41
0.9999966913238282
 10
-1110.376967065096
 20
344.7634263161278
 30
0.0
 41
0.9999959461296658
  0
ARC
  5
5A986
330
1F
100
AcDbEntity
  8
Default
100
AcDbCircle
 10
-1097.678684403103
 20
344.9722741940284
 30
0.0
 40
12.7
100
AcDbArc
 50
168.4871521735316
 51
180.9422552251277
  0
SPLINE
  5
5A987
330
1F
100
AcDbEntity
  8
Default
100
AcDbSpline
210
0.0
220
0.0
230
1.0
 70
     8
 71
     3
 72
    14
 73
    10
 74
     0
 42
0.000000001
 43
0.0000000001
 40
0.2772630823298201
 40
0.2772630823298201
 40
0.2772630823298201
 40
0.2772630823298201
 40
1.0
 40
2.0
 40
3.0
 40
4.0
 40
5.0
 40
6.0
 40
7.0
 40
7.0
 40
7.0
 40
7.0
 10
-1110.123160077254
 20
347.5070375351504
 30
0.0
 10
-1109.917489613885
 20
348.5167811418876
 30
0.0
 10
-1109.534807146889
 20
350.9456759033135
 30
0.0
 10
-1109.414376371105
 20
354.8358016446007
 30
0.0
 10
-1109.871941970019
 20
359.0973200123415
 30
0.0
 10
-1110.926787816536
 20
363.2564632151304
 30
0.0
 10
-1112.717192520633
 20
367.1646986022649
 30
0.0
 10
-1115.513862260306
 20
370.4910696245359
 30
0.0
 10
-1118.257302169614
 20
371.6396627933034
 30
0.0
 10
-1119.697075709524
 20
371.6267721483462
 30
0.0
  0
SPLINE
  5
5A988
330
1F
100
AcDbEntity
  8
Default
100
AcDbSpline
210
0.0
220
0.0
230
1.0
 70
     8
 71
     3
 72
    14
 73
    10
 74
     0
 42
0.000000001
 43
0.0000000001
 40
-7.0
 40
-7.0
 40
-7.0
 40
-7.0
 40
-6.0
 40
-5.0
 40
-4.0
 40
-3.0
 40
-2.0
 40
-1.0
 40
-0.2482205602640466
 40
-0.2482205602640466
 40
-0.2482205602640466
 40
-0.2482205602640466
 10
-1119.697075709524
 20
371.6267721483462
 30
0.0
 10
-1121.136849249428
 20
371.6396627933034
 30
0.0
 10
-1123.880289158738
 20
370.4910696245359
 30
0.0
 10
-1126.676958898412
 20
367.1646986022649
 30
0.0
 10
-1128.467363602509
 20
363.2564632151304
 30
0.0
 10
-1129.522209449025
 20
359.0973200123415
 30
0.0
 10
-1129.979775047939
 20
354.8358016446007
 30
0.0
 10
-1129.858059677439
 20
350.9041812359653
 30
0.0
 10
-1129.463671902411
 20
348.4348959986971
 30
0.0
 10
-1129.245979280533
 20
347.3853556868387
 30
0.0
  0
ARC
  5
5A989
330
1F
100
AcDbEntity
  8
Default
100
AcDbCircle
 10
-1141.681300722436
 20
344.8060572092297
 30
0.0
 40
12.7
100
AcDbArc
 50
358.977579807964
 51
11.71796787816004
  0
SPLINE
  5
5A98A
330
1F
100
AcDbEntity
  8
Default
100
AcDbSpline
210
0.0
220
0.0
230
1.0
 70
    12
 71
     2
 72
     6
 73
     3
 74
     0
 42
0.000000001
 43
0.0000000001
 40
-0.1297405451143296
 40
-0.1297405451143296
 40
-0.1297405451143296
 40
0.0
 40
0.0
 40
0.0
 10
-1128.983322697391
 20
344.5794428331071
 30
0.0
 41
0.9999960316975588
 10
-1129.012723778533
 20
342.9319997686659
 30
0.0
 41
0.999996865512317
 10
-1129.047122391048
 20
341.2846534754979
 30
0.0
 41
1.0
  0
SPLINE
  5
5A98B
330
1F
100
AcDbEntity
  8
Default
100
AcDbSpline
210
0.0
220
0.0
230
1.0
 70
    12
 71
     2
 72
     6
 73
     3
 74
     0
 42
0.000000001
 43
0.0000000001
 40
0.0
 40
0.0
 40
0.0
 40
0.0587632096241838
 40
0.0587632096241838
 40
0.0587632096241838
 10
-748.1110689765903
 20
1.394462849839949
 30
0.0
 41
1.0
 10
-747.9233671921522
 20
0.6680744114098003
 30
0.0
 41
0.9921107855315545
 10
-747.922254737334
 20
-0.0821728050571596
 30
0.0
 41
1.0
  0
SPLINE
  5
5A98C
330
1F
100
AcDbEntity
  8
Default
100
AcDbSpline
210
0.0
220
0.0
230
1.0
 70
    24
 71
     2
 72
     6
 73
     3
 74
     0
 42
0.000000001
 43
0.0000000001
 40
0.0
 40
0.0
 40
0.0
 40
0.0114467396849787
 40
0.0114467396849787
 40
0.0114467396849787
 10
-747.9222547373121
 20
-0.0821875797040024
 30
0.0
 10
-747.7768811433145
 20
-0.0821875141803661
 30
0.0
 10
-747.6315075493133
 20
-0.0821874486603679
 30
0.0
  0
SPLINE
  5
5A98D
330
1F
100
AcDbEntity
  8
Default
100
AcDbSpline
210
0.0
220
0.0
230
1.0
 70
    12
 71
     2
 72
     6
 73
     3
 74
     0
 42
0.000000001
 43
0.0000000001
 40
0.0
 40
0.0
 40
0.0
 40
0.0586712320260919
 40
0.0586712320260919
 40
0.0586712320260919
 10
-747.9222547373121
 20
-0.0821875797040024
 30
0.0
 41
1.0
 10
-747.923359159826
 20
-0.8312486320131187
 30
0.0
 41
0.9921343149382712
 10
-748.110485651114
 20
-1.556560534641282
 30
0.0
 41
1.0
  0
SPLINE
  5
5A98E
330
1F
100
AcDbEntity
  8
Default
100
AcDbSpline
210
0.0
220
0.0
230
1.0
 70
     8
 71
     3
 72
    22
 73
    18
 74
     0
 42
0.000000001
 43
0.0000000001
 40
0.0
 40
0.0
 40
0.0
 40
0.0
 40
0.2588469591229587
 40
0.6477254461891114
 40
1.024641027840087
 40
1.817983982162573
 40
2.582167143679937
 40
4.062052734317923
 40
7.850412104674
 40
9.497260537102542
 40
10.543391206404
 40
10.8432833113025
 40
12.15829953678302
 40
13.34949093133962
 40
14.77372714428499
 40
17.25709974516987
 40
21.82793658798906
 40
21.82793658798906
 40
21.82793658798906
 40
21.82793658798906
 10
-1456.287339596251
 20
196.4797560947525
 30
0.0
 10
-1454.08955660249
 20
196.27644778623
 30
0.0
 10
-1448.642350613705
 20
197.2602769641897
 30
0.0
 10
-1440.551356540624
 20
200.4229134355745
 30
0.0
 10
-1428.638766221515
 20
206.1204867627501
 30
0.0
 10
-1414.244381877534
 20
213.9431490220166
 30
0.0
 10
-1391.120284824328
 20
225.2062188347016
 30
0.0
 10
-1344.84718661554
 20
246.8299545892595
 30
0.0
 10
-1290.694943594981
 20
269.1575671371582
 30
0.0
 10
-1239.529399846861
 20
288.965343751527
 30
0.0
 10
-1215.799867227042
 20
297.8583784289556
 30
0.0
 10
-1194.597327091886
 20
305.5136934866576
 30
0.0
 10
-1171.142546276993
 20
310.0479737156937
 30
0.0
 10
-1137.906663526386
 20
311.7966852108882
 30
0.0
 10
-1094.695235638372
 20
311.3364892284087
 30
0.0
 10
-1023.291241356635
 20
302.2039289923057
 30
0.0
 10
-966.9787896691397
 20
279.5032605539716
 30
0.0
 10
-935.0346171270595
 20
257.502813558717
 30
0.0
  0
SPLINE
  5
5A98F
330
1F
100
AcDbEntity
  8
Default
100
AcDbSpline
210
0.0
220
0.0
230
1.0
 70
     8
 71
     3
 72
    19
 73
    15
 74
     0
 42
0.000000001
 43
0.0000000001
 40
-12.0
 40
-12.0
 40
-12.0
 40
-12.0
 40
-11.0
 40
-10.0
 40
-9.0
 40
-8.0
 40
-7.0
 40
-6.0
 40
-5.0
 40
-4.0
 40
-3.0
 40
-2.0
 40
-1.0
 40
0.0
 40
0.0
 40
0.0
 40
0.0
 10
-1500.023491637045
 20
223.1130174103463
 30
0.0
 10
-1505.387211826905
 20
219.9179665899472
 30
0.0
 10
-1509.45477455991
 20
207.0962822265727
 30
0.0
 10
-1514.041258853371
 20
188.980870212349
 30
0.0
 10
-1517.446820123403
 20
170.1960210558944
 30
0.0
 10
-1520.536764332834
 20
151.4753307374311
 30
0.0
 10
-1523.065029361633
 20
132.6377094247663
 30
0.0
 10
-1525.150279792482
 20
113.7555029516523
 30
0.0
 10
-1526.810192288767
 20
94.82877639123477
 30
0.0
 10
-1528.088060266591
 20
75.87334089695002
 30
0.0
 10
-1529.018703279768
 20
56.89765483551389
 30
0.0
 10
-1529.638120442114
 20
37.90945744498538
 30
0.0
 10
-1529.982118799149
 20
18.91440146354296
 30
0.0
 10
-1530.051721550668
 20
6.249207203077161
 30
0.0
 10
-1530.052539083861
 20
-0.0833643554170762
 30
0.0
  0
SPLINE
  5
5A990
330
1F
100
AcDbEntity
  8
Default
100
AcDbSpline
210
0.0
220
0.0
230
1.0
 70
    12
 71
     2
 72
     6
 73
     3
 74
     0
 42
0.000000001
 43
0.0000000001
 40
-6.233889429224446
 40
-6.233889429224446
 40
-6.233889429224446
 40
0.0
 40
0.0
 40
0.0
 10
-1543.45577619118
 20
-0.0833643554170732
 30
0.0
 41
1.0
 10
-1543.603160809804
 20
79.26043790028131
 30
0.0
 41
0.996730330589404
 10
-1530.968839481242
 20
157.5915792526001
 30
0.0
 41
1.0
  0
SPLINE
  5
5A991
330
1F
100
AcDbEntity
  8
Default
100
AcDbSpline
210
0.0
220
0.0
230
1.0
 70
     8
 71
     3
 72
    12
 73
     8
 74
     0
 42
0.000000001
 43
0.0000000001
 40
0.0
 40
0.0
 40
0.0
 40
0.0
 40
0.8495817757806477
 40
1.391422022197968
 40
2.191064820612614
 40
2.689385262996221
 40
3.111933853859593
 40
3.111933853859593
 40
3.111933853859593
 40
3.111933853859593
 10
-1530.968839481242
 20
157.5915792526001
 30
0.0
 10
-1529.696932602749
 20
164.698210654621
 30
0.0
 10
-1527.919965878455
 20
176.2915919297746
 30
0.0
 10
-1524.073927833104
 20
194.500328301773
 30
0.0
 10
-1520.020700771123
 20
209.5006200249198
 30
0.0
 10
-1512.277634900644
 20
222.3397285833024
 30
0.0
 10
-1503.680018447003
 20
224.2625631941527
 30
0.0
 10
-1500.163087019808
 20
223.1512920832728
 30
0.0
  0
SPLINE
  5
5A992
330
1F
100
AcDbEntity
  8
Default
100
AcDbSpline
210
0.0
220
0.0
230
1.0
 70
    12
 71
     2
 72
     6
 73
     3
 74
     0
 42
0.000000001
 43
0.0000000001
 40
0.0
 40
0.0
 40
0.0
 40
0.443505275079806
 40
0.443505275079806
 40
0.443505275079806
 10
-1500.163087019808
 20
223.1512920832728
 30
0.0
 41
1.0
 10
-1494.536980088518
 20
221.5258046025819
 30
0.0
 41
0.9799943751373794
 10
-1490.107957340786
 20
217.9233312202385
 30
0.0
 41
1.0
  0
SPLINE
  5
5A993
330
1F
100
AcDbEntity
  8
Default
100
AcDbSpline
210
0.0
220
0.0
230
1.0
 70
    12
 71
     2
 72
     6
 73
     3
 74
     0
 42
0.000000001
 43
0.0000000001
 40
-5.654573080352872
 40
-5.654573080352872
 40
-5.654573080352872
 40
0.0
 40
0.0
 40
0.0
 10
-1533.33695951016
 20
142.8995571796303
 30
0.0
 41
1.0
 10
-1545.016293311963
 20
71.88527972335293
 30
0.0
 41
0.9967681786255456
 10
-1545.172352721043
 20
-0.0833643554170729
 30
0.0
 41
1.0
  0
SPLINE
  5
5A994
330
1F
100
AcDbEntity
  8
Default
100
AcDbSpline
210
0.0
220
0.0
230
1.0
 70
    12
 71
     2
 72
     6
 73
     3
 74
     0
 42
0.000000001
 43
0.0000000001
 40
-1.102413928352738
 40
-1.102413928352738
 40
-1.102413928352738
 40
0.0
 40
0.0
 40
0.0
 10
-1129.385786328132
 20
311.5448041223288
 30
0.0
 41
0.9999999993925147
 10
-1129.230554078853
 20
325.553653046082
 30
0.0
 41
0.9999999996616539
 10
-1129.075482313414
 20
339.5635350436394
 30
0.0
 41
1.0
  0
SPLINE
  5
5A995
330
1F
100
AcDbEntity
  8
Default
100
AcDbSpline
210
0.0
220
0.0
230
1.0
 70
     8
 71
     3
 72
    14
 73
    10
 74
     0
 42
0.000000001
 43
0.0000000001
 40
0.0
 40
0.0
 40
0.0
 40
0.0
 40
1.0
 40
2.0
 40
3.0
 40
4.0
 40
5.0
 40
6.0
 40
7.0
 40
7.0
 40
7.0
 40
7.0
 10
-1129.075482313414
 20
339.5635350436394
 30
0.0
 10
-1129.048815139855
 20
341.3492976149835
 30
0.0
 10
-1128.533269648849
 20
344.7182505520766
 30
0.0
 10
-1126.354334289377
 20
349.3506307155519
 30
0.0
 10
-1122.305702132109
 20
352.7748312018018
 30
0.0
 10
-1116.890740522546
 20
352.6890474188301
 30
0.0
 10
-1112.924368728627
 20
349.1845760585209
 30
0.0
 10
-1110.805484611237
 20
344.5264884620526
 30
0.0
 10
-1110.325220966441
 20
341.1524209903953
 30
0.0
 10
-1110.324462950984
 20
339.4650124180814
 30
0.0
  0
SPLINE
  5
5A996
330
1F
100
AcDbEntity
  8
Default
100
AcDbSpline
210
0.0
220
0.0
230
1.0
 70
    12
 71
     2
 72
     6
 73
     3
 74
     0
 42
0.000000001
 43
0.0000000001
 40
0.0
 40
0.0
 40
0.0
 40
1.112498698414412
 40
1.112498698414412
 40
1.112498698414412
 10
-1110.324462950984
 20
339.4650124180814
 30
0.0
 41
1.0
 10
-1110.168687454263
 20
325.3371377317351
 30
0.0
 41
0.9999999996585591
 10
-1110.012674746215
 20
311.2092656629
 30
0.0
 41
0.9999999993875963
  0
SPLINE
  5
5A997
330
1F
100
AcDbEntity
  8
Default
100
AcDbSpline
210
0.0
220
0.0
230
1.0
 70
    12
 71
     2
 72
     6
 73
     3
 74
     0
 42
0.000000001
 43
0.0000000001
 40
-1.281345128275034
 40
-1.281345128275034
 40
-1.281345128275034
 40
0.0
 40
0.0
 40
0.0
 10
-812.6175557849148
 20
9.656931063833962
 30
0.0
 41
0.9999999993069707
 10
-796.3351458766867
 20
9.476473018443989
 30
0.0
 41
0.9999999996067375
 10
-780.0513403254537
 20
9.296231780485587
 30
0.0
 41
1.0
  0
SPLINE
  5
5A998
330
1F
100
AcDbEntity
  8
Default
100
AcDbSpline
210
0.0
220
0.0
230
1.0
 70
     8
 71
     3
 72
    14
 73
    10
 74
     0
 42
0.000000001
 43
0.0000000001
 40
0.0
 40
0.0
 40
0.0
 40
0.0
 40
1.0
 40
2.0
 40
3.0
 40
4.0
 40
5.0
 40
6.0
 40
7.0
 40
7.0
 40
7.0
 40
7.0
 10
-780.0513403254537
 20
9.296231780485587
 30
0.0
 10
-778.2655777541097
 20
9.269564606926623
 30
0.0
 10
-774.8966248170201
 20
8.754019115917516
 30
0.0
 10
-770.2642446535413
 20
6.575083756448919
 30
0.0
 10
-766.8400441672913
 20
2.526451599180915
 30
0.0
 10
-766.925827950263
 20
-2.888510010382845
 30
0.0
 10
-770.4302993105686
 20
-6.854881804297575
 30
0.0
 10
-775.0883869070405
 20
-8.973765921691038
 30
0.0
 10
-778.4624543786978
 20
-9.454029566487688
 30
0.0
 10
-780.1498629510117
 20
-9.454787581943772
 30
0.0
  0
SPLINE
  5
5A999
330
1F
100
AcDbEntity
  8
Default
100
AcDbSpline
210
0.0
220
0.0
230
1.0
 70
    12
 71
     2
 72
     6
 73
     3
 74
     0
 42
0.000000001
 43
0.0000000001
 40
0.0
 40
0.0
 40
0.0
 40
1.278324852146924
 40
1.278324852146924
 40
1.278324852146924
 10
-780.1498629510117
 20
-9.454787581943772
 30
0.0
 41
1.0
 10
-796.3836017825581
 20
-9.63378256783772
 30
0.0
 41
0.9999999996076647
 10
-812.6173371577227
 20
-9.813090751630898
 30
0.0
 41
0.9999999993083845
  0
SPLINE
  5
5A99A
330
1F
100
AcDbEntity
  8
Default
100
AcDbSpline
210
0.0
220
0.0
230
1.0
 70
     8
 71
     3
 72
    47
 73
    43
 74
     0
 42
0.000000001
 43
0.0000000001
 40
36.00001859489052
 40
36.00001859489052
 40
36.00001859489052
 40
36.00001859489052
 40
37.0
 40
38.0
 40
39.0
 40
40.0
 40
41.0
 40
42.0
 40
43.0
 40
44.0
 40
45.0
 40
46.0
 40
47.0
 40
48.0
 40
49.0
 40
50.0
 40
51.0
 40
52.0
 40
53.0
 40
53.0
 40
53.0
 40
54.0
 40
55.0
 40
56.0
 40
57.0
 40
58.0
 40
59.0
 40
60.0
 40
60.0
 40
60.0
 40
61.0
 40
62.0
 40
63.0
 40
64.0
 40
65.0
 40
66.0
 40
67.0
 40
68.0
 40
69.0
 40
70.0
 40
71.0
 40
72.0
 40
72.0
 40
72.0
 40
72.0
 10
-812.5133546983189
 20
-0.082187436032929
 30
0.0
 10
-812.4944289786316
 20
11.10294204676593
 30
0.0
 10
-813.4099417035379
 20
33.47564159020835
 30
0.0
 10
-817.691915188427
 20
66.7901588077154
 30
0.0
 10
-825.0134742016655
 20
99.57765231883669
 30
0.0
 10
-835.5528061598981
 20
131.4813752525485
 30
0.0
 10
-849.4767302735692
 20
162.077653120509
 30
0.0
 10
-867.0507238805969
 20
190.7319400023486
 30
0.0
 10
-887.8470889410003
 20
217.1500800055444
 30
0.0
 10
-911.9395059104848
 20
240.6106819550957
 30
0.0
 10
-938.8115532598478
 20
260.8236804681117
 30
0.0
 10
-968.230186197352
 20
277.1614148709421
 30
0.0
 10
-999.7824537587895
 20
288.8354785711097
 30
0.0
 10
-1032.496735520252
 20
296.5069580530151
 30
0.0
 10
-1065.744567981184
 20
301.2204172737881
 30
0.0
 10
-1099.250117349677
 20
303.4885925554015
 30
0.0
 10
-1132.804600302605
 20
303.5625184038551
 30
0.0
 10
-1166.38380618852
 20
302.1882316420823
 30
0.0
 10
-1188.417635787244
 20
297.8301060900965
 30
0.0
 10
-1199.079620613278
 20
294.4234012388159
 30
0.0
 10
-1209.553309309
 20
291.0988989215555
 30
0.0
 10
-1230.46836879026
 20
284.3467597139031
 30
0.0
 10
-1261.66751055707
 20
273.6946333735549
 30
0.0
 10
-1292.653850304081
 20
262.4376534215851
 30
0.0
 10
-1323.384147416282
 20
250.4967401150432
 30
0.0
 10
-1353.796502207837
 20
237.7691718618488
 30
0.0
 10
-1383.860414892859
 20
224.2304854058756
 30
0.0
 10
-1403.513067303147
 20
214.3831938481024
 30
0.0
 10
-1413.265005882788
 20
209.319093199473
 30
0.0
 10
-1415.267784570822
 20
208.2840399630012
 30
0.0
 10
-1419.278813616112
 20
206.2243054661347
 30
0.0
 10
-1425.359604742991
 20
203.2618160468454
 30
0.0
 10
-1431.540146051158
 20
200.5126847374384
 30
0.0
 10
-1437.869880768709
 20
198.112464743929
 30
0.0
 10
-1444.383611489202
 20
196.2858449557178
 30
0.0
 10
-1451.137074543336
 20
195.3531624956966
 30
0.0
 10
-1457.877609160072
 20
196.5009902386308
 30
0.0
 10
-1464.001389292089
 20
199.4532300284198
 30
0.0
 10
-1470.082645981975
 20
202.3945194656597
 30
0.0
 10
-1475.910226317354
 20
205.8490549967727
 30
0.0
 10
-1481.397124646805
 20
209.8097136478253
 30
0.0
 10
-1488.358935939059
 20
216.5007142223702
 30
0.0
 10
-1490.107957340786
 20
217.9233312202385
 30
0.0
  0
SPLINE
  5
5A99B
330
1F
100
AcDbEntity
  8
Default
100
AcDbSpline
210
0.0
220
0.0
230
1.0
 70
     8
 71
     3
 72
    12
 73
     8
 74
     0
 42
0.000000001
 43
0.0000000001
 40
0.0
 40
0.0
 40
0.0
 40
0.0
 40
1.918305221504867
 40
3.868777778011241
 40
7.624449324857683
 40
11.42846767657462
 40
15.35241906764609
 40
15.35241906764609
 40
15.35241906764609
 40
15.35241906764609
 10
-1315.655099610494
 20
-0.0828377842328144
 30
0.0
 10
-1315.668579000698
 20
16.15723837438492
 30
0.0
 10
-1312.498398171758
 20
48.91948674151429
 30
0.0
 10
-1293.852638486243
 20
111.0460726622776
 30
0.0
 10
-1247.759096803873
 20
179.1157315229837
 30
0.0
 10
-1164.200825081674
 20
232.5695270039949
 30
0.0
 10
-1098.622930958978
 20
244.3923747664747
 30
0.0
 10
-1065.415411305339
 20
244.3918324069207
 30
0.0
  0
SPLINE
  5
5A99C
330
1F
100
AcDbEntity
  8
Default
100
AcDbSpline
210
0.0
220
0.0
230
1.0
 70
     8
 71
     3
 72
    12
 73
     8
 74
     0
 42
0.000000001
 43
0.0000000001
 40
-14.89017236839833
 40
-14.89017236839833
 40
-14.89017236839833
 40
-14.89017236839833
 40
-11.21816917573749
 40
-7.516682162771167
 40
-3.774519558109396
 40
-1.88935509827327
 40
0.0
 40
0.0
 40
0.0
 40
0.0
 10
-1065.415411305339
 20
244.3918324069207
 30
0.0
 10
-1034.321614779879
 20
244.4001651544065
 30
0.0
 10
-971.908850549966
 20
231.5184790891223
 30
0.0
 10
-892.9955558248641
 20
176.8575300798299
 30
0.0
 10
-849.3869571632879
 20
109.2145757557343
 30
0.0
 10
-831.4113687044866
 20
47.87187742751185
 30
0.0
 10
-828.3376277704721
 20
15.91237269244148
 30
0.0
 10
-828.3359064912021
 20
-0.0828388309630989
 30
0.0
  0
SPLINE
  5
5A99D
330
1F
100
AcDbEntity
  8
Default
100
AcDbSpline
210
0.0
220
0.0
230
1.0
 70
    12
 71
     2
 72
     6
 73
     3
 74
     0
 42
0.000000001
 43
0.0000000001
 40
0.0
 40
0.0
 40
0.0
 40
0.0853474550214741
 40
0.0853474550214741
 40
0.0853474550214741
 10
-1129.978847725584
 20
-351.9748679900761
 30
0.0
 41
1.0
 10
-1130.054727125838
 20
-353.0565584474637
 30
0.0
 41
0.9993970637774639
 10
-1130.055355332201
 20
-354.1409068851601
 30
0.0
 41
1.0
  0
SPLINE
  5
5A99E
330
1F
100
AcDbEntity
  8
Default
100
AcDbSpline
210
0.0
220
0.0
230
1.0
 70
     8
 71
     3
 72
    12
 73
     8
 74
     0
 42
0.000000001
 43
0.0000000001
 40
0.0
 40
0.0
 40
0.0
 40
0.0
 40
0.1510110321465192
 40
0.3037660471064116
 40
0.5900965017365678
 40
0.8249401141264362
 40
1.014583801502342
 40
1.014583801502342
 40
1.014583801502342
 40
1.014583801502342
 10
-1109.490478800979
 20
-351.0846888840817
 30
0.0
 10
-1109.365606753041
 20
-352.3577428893143
 30
0.0
 10
-1109.268330379329
 20
-354.9307591872669
 30
0.0
 10
-1109.705512238097
 20
-359.9205337898813
 30
0.0
 10
-1111.2410015855
 20
-365.4613729675359
 30
0.0
 10
-1114.663596414788
 20
-370.5630839847101
 30
0.0
 10
-1118.062554217677
 20
-372.2075949508501
 30
0.0
 10
-1119.697063096895
 20
-372.1757565667533
 30
0.0
  0
SPLINE
  5
5A99F
330
1F
100
AcDbEntity
  8
Default
100
AcDbSpline
210
0.0
220
0.0
230
1.0
 70
     8
 71
     3
 72
    12
 73
     8
 74
     0
 42
0.000000001
 43
0.0000000001
 40
-1.014583801502342
 40
-1.014583801502342
 40
-1.014583801502342
 40
-1.014583801502342
 40
-0.8249401141264362
 40
-0.5900965017365678
 40
-0.3037660471064116
 40
-0.1510110321465192
 40
0.0
 40
0.0
 40
0.0
 40
0.0
 10
-1119.697063096895
 20
-372.1757565667533
 30
0.0
 10
-1121.331571976118
 20
-372.2075949508501
 30
0.0
 10
-1124.730529779006
 20
-370.5630839847101
 30
0.0
 10
-1128.153124608294
 20
-365.4613729675359
 30
0.0
 10
-1129.688613955697
 20
-359.9205337898813
 30
0.0
 10
-1130.125795814465
 20
-354.9307591872669
 30
0.0
 10
-1130.028519440753
 20
-352.3577428893143
 30
0.0
 10
-1129.903647392815
 20
-351.0846888840817
 30
0.0
  0
SPLINE
  5
5A9A0
330
1F
100
AcDbEntity
  8
Default
100
AcDbSpline
210
0.0
220
0.0
230
1.0
 70
    12
 71
     2
 72
     6
 73
     3
 74
     0
 42
0.000000001
 43
0.0000000001
 40
0.0
 40
0.0
 40
0.0
 40
0.1369528492222414
 40
0.1369528492222414
 40
0.1369528492222414
 10
-1110.359749200094
 20
-341.4490283475636
 30
0.0
 41
1.0
 10
-1110.396059404795
 20
-343.1879206094375
 30
0.0
 41
0.9999966913238282
 10
-1110.376967065096
 20
-344.9278011881936
 30
0.0
 41
0.9999959461296658
  0
ARC
  5
5A9A1
330
1F
100
AcDbEntity
  8
Default
100
AcDbCircle
 10
-1097.678684403103
 20
-345.1366490660941
 30
0.0
 40
12.7
100
AcDbArc
 50
179.0577447748723
 51
191.5128478264684
  0
SPLINE
  5
5A9A2
330
1F
100
AcDbEntity
  8
Default
100
AcDbSpline
210
0.0
220
0.0
230
1.0
 70
     8
 71
     3
 72
    14
 73
    10
 74
     0
 42
0.000000001
 43
0.0000000001
 40
0.2772630823298201
 40
0.2772630823298201
 40
0.2772630823298201
 40
0.2772630823298201
 40
1.0
 40
2.0
 40
3.0
 40
4.0
 40
5.0
 40
6.0
 40
7.0
 40
7.0
 40
7.0
 40
7.0
 10
-1110.123160077254
 20
-347.6714124072162
 30
0.0
 10
-1109.917489613885
 20
-348.6811560139533
 30
0.0
 10
-1109.534807146889
 20
-351.1100507753793
 30
0.0
 10
-1109.414376371105
 20
-355.0001765166665
 30
0.0
 10
-1109.871941970019
 20
-359.2616948844072
 30
0.0
 10
-1110.926787816536
 20
-363.4208380871962
 30
0.0
 10
-1112.717192520633
 20
-367.3290734743307
 30
0.0
 10
-1115.513862260306
 20
-370.6554444966016
 30
0.0
 10
-1118.257302169614
 20
-371.8040376653692
 30
0.0
 10
-1119.697075709524
 20
-371.7911470204119
 30
0.0
  0
SPLINE
  5
5A9A3
330
1F
100
AcDbEntity
  8
Default
100
AcDbSpline
210
0.0
220
0.0
230
1.0
 70
     8
 71
     3
 72
    14
 73
    10
 74
     0
 42
0.000000001
 43
0.0000000001
 40
-7.0
 40
-7.0
 40
-7.0
 40
-7.0
 40
-6.0
 40
-5.0
 40
-4.0
 40
-3.0
 40
-2.0
 40
-1.0
 40
-0.2482205602640466
 40
-0.2482205602640466
 40
-0.2482205602640466
 40
-0.2482205602640466
 10
-1119.697075709524
 20
-371.7911470204119
 30
0.0
 10
-1121.136849249428
 20
-371.8040376653692
 30
0.0
 10
-1123.880289158738
 20
-370.6554444966016
 30
0.0
 10
-1126.676958898412
 20
-367.3290734743307
 30
0.0
 10
-1128.467363602509
 20
-363.4208380871962
 30
0.0
 10
-1129.522209449025
 20
-359.2616948844072
 30
0.0
 10
-1129.979775047939
 20
-355.0001765166665
 30
0.0
 10
-1129.858059677439
 20
-351.0685561080311
 30
0.0
 10
-1129.463671902411
 20
-348.5992708707629
 30
0.0
 10
-1129.245979280533
 20
-347.5497305589045
 30
0.0
  0
ARC
  5
5A9A4
330
1F
100
AcDbEntity
  8
Default
100
AcDbCircle
 10
-1141.681300722436
 20
-344.9704320812955
 30
0.0
 40
12.7
100
AcDbArc
 50
348.28203212184
 51
1.022420192048983
  0
SPLINE
  5
5A9A5
330
1F
100
AcDbEntity
  8
Default
100
AcDbSpline
210
0.0
220
0.0
230
1.0
 70
    12
 71
     2
 72
     6
 73
     3
 74
     0
 42
0.000000001
 43
0.0000000001
 40
-0.1297405451143296
 40
-0.1297405451143296
 40
-0.1297405451143296
 40
0.0
 40
0.0
 40
0.0
 10
-1128.983322697391
 20
-344.7438177051729
 30
0.0
 41
0.9999960316975588
 10
-1129.012723778533
 20
-343.0963746407317
 30
0.0
 41
0.999996865512317
 10
-1129.047122391048
 20
-341.4490283475636
 30
0.0
 41
1.0
  0
SPLINE
  5
5A9A6
330
1F
100
AcDbEntity
  8
Default
100
AcDbSpline
210
0.0
220
0.0
230
1.0
 70
     8
 71
     3
 72
    22
 73
    18
 74
     0
 42
0.000000001
 43
0.0000000001
 40
0.0
 40
0.0
 40
0.0
 40
0.0
 40
0.2588469591229587
 40
0.6477254461891114
 40
1.024641027840087
 40
1.817983982162573
 40
2.582167143679937
 40
4.062052734317923
 40
7.850412104674
 40
9.497260537102542
 40
10.543391206404
 40
10.8432833113025
 40
12.15829953678302
 40
13.34949093133962
 40
14.77372714428499
 40
17.25709974516987
 40
21.82793658798906
 40
21.82793658798906
 40
21.82793658798906
 40
21.82793658798906
 10
-1456.287339596251
 20
-196.6441309668181
 30
0.0
 10
-1454.08955660249
 20
-196.4408226582956
 30
0.0
 10
-1448.642350613705
 20
-197.4246518362553
 30
0.0
 10
-1440.551356540624
 20
-200.5872883076401
 30
0.0
 10
-1428.638766221515
 20
-206.2848616348157
 30
0.0
 10
-1414.244381877534
 20
-214.1075238940822
 30
0.0
 10
-1391.120284824328
 20
-225.3705937067672
 30
0.0
 10
-1344.84718661554
 20
-246.9943294613251
 30
0.0
 10
-1290.694943594981
 20
-269.3219420092238
 30
0.0
 10
-1239.529399846861
 20
-289.1297186235926
 30
0.0
 10
-1215.799867227042
 20
-298.0227533010213
 30
0.0
 10
-1194.597327091886
 20
-305.6780683587232
 30
0.0
 10
-1171.142546276993
 20
-310.2123485877593
 30
0.0
 10
-1137.906663526386
 20
-311.961060082954
 30
0.0
 10
-1094.695235638372
 20
-311.5008641004745
 30
0.0
 10
-1023.291241356636
 20
-302.3683038643715
 30
0.0
 10
-966.9787896691399
 20
-279.6676354260374
 30
0.0
 10
-935.0346171270597
 20
-257.6671884307828
 30
0.0
  0
SPLINE
  5
5A9A7
330
1F
100
AcDbEntity
  8
Default
100
AcDbSpline
210
0.0
220
0.0
230
1.0
 70
     8
 71
     3
 72
    19
 73
    15
 74
     0
 42
0.000000001
 43
0.0000000001
 40
-12.0
 40
-12.0
 40
-12.0
 40
-12.0
 40
-11.0
 40
-10.0
 40
-9.0
 40
-8.0
 40
-7.0
 40
-6.0
 40
-5.0
 40
-4.0
 40
-3.0
 40
-2.0
 40
-1.0
 40
0.0
 40
0.0
 40
0.0
 40
0.0
 10
-1500.023491637045
 20
-223.2773922824118
 30
0.0
 10
-1505.387211826905
 20
-220.0823414620128
 30
0.0
 10
-1509.45477455991
 20
-207.2606570986383
 30
0.0
 10
-1514.041258853371
 20
-189.1452450844145
 30
0.0
 10
-1517.446820123403
 20
-170.36039592796
 30
0.0
 10
-1520.536764332834
 20
-151.6397056094966
 30
0.0
 10
-1523.065029361633
 20
-132.8020842968318
 30
0.0
 10
-1525.150279792482
 20
-113.9198778237179
 30
0.0
 10
-1526.810192288767
 20
-94.99315126330031
 30
0.0
 10
-1528.088060266591
 20
-76.03771576901556
 30
0.0
 10
-1529.018703279768
 20
-57.06202970757942
 30
0.0
 10
-1529.638120442114
 20
-38.07383231705092
 30
0.0
 10
-1529.982118799149
 20
-19.07877633560849
 30
0.0
 10
-1530.051721550668
 20
-6.413582075142699
 30
0.0
 10
-1530.052539083861
 20
-0.0810105166484632
 30
0.0
  0
SPLINE
  5
5A9A8
330
1F
100
AcDbEntity
  8
Default
100
AcDbSpline
210
0.0
220
0.0
230
1.0
 70
    12
 71
     2
 72
     6
 73
     3
 74
     0
 42
0.000000001
 43
0.0000000001
 40
-6.233889429224446
 40
-6.233889429224446
 40
-6.233889429224446
 40
0.0
 40
0.0
 40
0.0
 10
-1543.45577619118
 20
-0.0810105166484602
 30
0.0
 41
1.0
 10
-1543.603160809804
 20
-79.42481277234685
 30
0.0
 41
0.996730330589404
 10
-1530.968839481242
 20
-157.7559541246657
 30
0.0
 41
1.0
  0
SPLINE
  5
5A9A9
330
1F
100
AcDbEntity
  8
Default
100
AcDbSpline
210
0.0
220
0.0
230
1.0
 70
     8
 71
     3
 72
    12
 73
     8
 74
     0
 42
0.000000001
 43
0.0000000001
 40
0.0
 40
0.0
 40
0.0
 40
0.0
 40
0.8495817757806477
 40
1.391422022197968
 40
2.191064820612614
 40
2.689385262996221
 40
3.111933853859593
 40
3.111933853859593
 40
3.111933853859593
 40
3.111933853859593
 10
-1530.968839481242
 20
-157.7559541246657
 30
0.0
 10
-1529.696932602749
 20
-164.8625855266865
 30
0.0
 10
-1527.919965878455
 20
-176.4559668018402
 30
0.0
 10
-1524.073927833104
 20
-194.6647031738385
 30
0.0
 10
-1520.020700771123
 20
-209.6649948969854
 30
0.0
 10
-1512.277634900644
 20
-222.5041034553679
 30
0.0
 10
-1503.680018447003
 20
-224.4269380662182
 30
0.0
 10
-1500.163087019808
 20
-223.3156669553383
 30
0.0
  0
SPLINE
  5
5A9AA
330
1F
100
AcDbEntity
  8
Default
100
AcDbSpline
210
0.0
220
0.0
230
1.0
 70
    12
 71
     2
 72
     6
 73
     3
 74
     0
 42
0.000000001
 43
0.0000000001
 40
0.0
 40
0.0
 40
0.0
 40
0.443505275079806
 40
0.443505275079806
 40
0.443505275079806
 10
-1500.163087019808
 20
-223.3156669553383
 30
0.0
 41
1.0
 10
-1494.536980088518
 20
-221.6901794746474
 30
0.0
 41
0.9799943751373794
 10
-1490.107957340786
 20
-218.0877060923041
 30
0.0
 41
1.0
  0
SPLINE
  5
5A9AB
330
1F
100
AcDbEntity
  8
Default
100
AcDbSpline
210
0.0
220
0.0
230
1.0
 70
    12
 71
     2
 72
     6
 73
     3
 74
     0
 42
0.000000001
 43
0.0000000001
 40
-5.654573080352872
 40
-5.654573080352872
 40
-5.654573080352872
 40
0.0
 40
0.0
 40
0.0
 10
-1533.33695951016
 20
-143.0639320516958
 30
0.0
 41
1.0
 10
-1545.016293311963
 20
-72.04965459541847
 30
0.0
 41
0.9967681786255456
 10
-1545.172352721043
 20
-0.0810105166484598
 30
0.0
 41
1.0
  0
SPLINE
  5
5A9AC
330
1F
100
AcDbEntity
  8
Default
100
AcDbSpline
210
0.0
220
0.0
230
1.0
 70
    12
 71
     2
 72
     6
 73
     3
 74
     0
 42
0.000000001
 43
0.0000000001
 40
-1.102413928352738
 40
-1.102413928352738
 40
-1.102413928352738
 40
0.0
 40
0.0
 40
0.0
 10
-1129.385786328132
 20
-311.7091789943945
 30
0.0
 41
0.9999999993925147
 10
-1129.230554078853
 20
-325.7180279181477
 30
0.0
 41
0.9999999996616539
 10
-1129.075482313414
 20
-339.7279099157052
 30
0.0
 41
1.0
  0
SPLINE
  5
5A9AD
330
1F
100
AcDbEntity
  8
Default
100
AcDbSpline
210
0.0
220
0.0
230
1.0
 70
     8
 71
     3
 72
    14
 73
    10
 74
     0
 42
0.000000001
 43
0.0000000001
 40
0.0
 40
0.0
 40
0.0
 40
0.0
 40
1.0
 40
2.0
 40
3.0
 40
4.0
 40
5.0
 40
6.0
 40
7.0
 40
7.0
 40
7.0
 40
7.0
 10
-1129.075482313414
 20
-339.7279099157052
 30
0.0
 10
-1129.048815139855
 20
-341.5136724870492
 30
0.0
 10
-1128.533269648849
 20
-344.8826254241424
 30
0.0
 10
-1126.354334289377
 20
-349.5150055876177
 30
0.0
 10
-1122.305702132109
 20
-352.9392060738676
 30
0.0
 10
-1116.890740522546
 20
-352.8534222908959
 30
0.0
 10
-1112.924368728627
 20
-349.3489509305866
 30
0.0
 10
-1110.805484611237
 20
-344.6908633341184
 30
0.0
 10
-1110.325220966441
 20
-341.316795862461
 30
0.0
 10
-1110.324462950984
 20
-339.6293872901472
 30
0.0
  0
SPLINE
  5
5A9AE
330
1F
100
AcDbEntity
  8
Default
100
AcDbSpline
210
0.0
220
0.0
230
1.0
 70
    12
 71
     2
 72
     6
 73
     3
 74
     0
 42
0.000000001
 43
0.0000000001
 40
0.0
 40
0.0
 40
0.0
 40
1.112498698414412
 40
1.112498698414412
 40
1.112498698414412
 10
-1110.324462950984
 20
-339.6293872901472
 30
0.0
 41
1.0
 10
-1110.168687454263
 20
-325.5015126038009
 30
0.0
 41
0.9999999996585591
 10
-1110.012674746215
 20
-311.3736405349657
 30
0.0
 41
0.9999999993875963
  0
SPLINE
  5
5A9AF
330
1F
100
AcDbEntity
  8
Default
100
AcDbSpline
210
0.0
220
0.0
230
1.0
 70
     8
 71
     3
 72
    47
 73
    43
 74
     0
 42
0.000000001
 43
0.0000000001
 40
36.00001859489052
 40
36.00001859489052
 40
36.00001859489052
 40
36.00001859489052
 40
37.0
 40
38.0
 40
39.0
 40
40.0
 40
41.0
 40
42.0
 40
43.0
 40
44.0
 40
45.0
 40
46.0
 40
47.0
 40
48.0
 40
49.0
 40
50.0
 40
51.0
 40
52.0
 40
53.0
 40
53.0
 40
53.0
 40
54.0
 40
55.0
 40
56.0
 40
57.0
 40
58.0
 40
59.0
 40
60.0
 40
60.0
 40
60.0
 40
61.0
 40
62.0
 40
63.0
 40
64.0
 40
65.0
 40
66.0
 40
67.0
 40
68.0
 40
69.0
 40
70.0
 40
71.0
 40
72.0
 40
72.0
 40
72.0
 40
72.0
 10
-812.5133546983189
 20
-0.082187436032929
 30
0.0
 10
-812.4944289786316
 20
-11.26731691883178
 30
0.0
 10
-813.4099417035379
 20
-33.64001646227421
 30
0.0
 10
-817.691915188427
 20
-66.95453367978124
 30
0.0
 10
-825.0134742016655
 20
-99.74202719090254
 30
0.0
 10
-835.5528061598981
 20
-131.6457501246143
 30
0.0
 10
-849.4767302735692
 20
-162.2420279925748
 30
0.0
 10
-867.0507238805969
 20
-190.8963148744144
 30
0.0
 10
-887.8470889410003
 20
-217.3144548776102
 30
0.0
 10
-911.9395059104848
 20
-240.7750568271616
 30
0.0
 10
-938.8115532598479
 20
-260.9880553401774
 30
0.0
 10
-968.2301861973522
 20
-277.3257897430078
 30
0.0
 10
-999.7824537587897
 20
-288.9998534431754
 30
0.0
 10
-1032.496735520252
 20
-296.6713329250808
 30
0.0
 10
-1065.744567981184
 20
-301.3847921458539
 30
0.0
 10
-1099.250117349677
 20
-303.6529674274673
 30
0.0
 10
-1132.804600302605
 20
-303.7268932759209
 30
0.0
 10
-1166.38380618852
 20
-302.3526065141479
 30
0.0
 10
-1188.417635787244
 20
-297.9944809621622
 30
0.0
 10
-1199.079620613278
 20
-294.5877761108815
 30
0.0
 10
-1209.553309309
 20
-291.2632737936212
 30
0.0
 10
-1230.46836879026
 20
-284.5111345859688
 30
0.0
 10
-1261.66751055707
 20
-273.8590082456205
 30
0.0
 10
-1292.653850304081
 20
-262.6020282936508
 30
0.0
 10
-1323.384147416282
 20
-250.6611149871089
 30
0.0
 10
-1353.796502207837
 20
-237.9335467339144
 30
0.0
 10
-1383.860414892859
 20
-224.3948602779411
 30
0.0
 10
-1403.513067303147
 20
-214.547568720168
 30
0.0
 10
-1413.265005882788
 20
-209.4834680715386
 30
0.0
 10
-1415.267784570822
 20
-208.4484148350667
 30
0.0
 10
-1419.278813616112
 20
-206.3886803382003
 30
0.0
 10
-1425.359604742991
 20
-203.426190918911
 30
0.0
 10
-1431.540146051158
 20
-200.677059609504
 30
0.0
 10
-1437.869880768709
 20
-198.2768396159946
 30
0.0
 10
-1444.383611489202
 20
-196.4502198277834
 30
0.0
 10
-1451.137074543336
 20
-195.5175373677622
 30
0.0
 10
-1457.877609160072
 20
-196.6653651106964
 30
0.0
 10
-1464.001389292089
 20
-199.6176049004854
 30
0.0
 10
-1470.082645981975
 20
-202.5588943377253
 30
0.0
 10
-1475.910226317354
 20
-206.0134298688382
 30
0.0
 10
-1481.397124646805
 20
-209.9740885198909
 30
0.0
 10
-1488.358935939059
 20
-216.6650890944358
 30
0.0
 10
-1490.107957340786
 20
-218.0877060923041
 30
0.0
  0
SPLINE
  5
5A9B0
330
1F
100
AcDbEntity
  8
Default
100
AcDbSpline
210
0.0
220
0.0
230
1.0
 70
     8
 71
     3
 72
    12
 73
     8
 74
     0
 42
0.000000001
 43
0.0000000001
 40
0.0
 40
0.0
 40
0.0
 40
0.0
 40
1.918305221504867
 40
3.868777778011241
 40
7.624449324857683
 40
11.42846767657462
 40
15.35241906764609
 40
15.35241906764609
 40
15.35241906764609
 40
15.35241906764609
 10
-1315.655099610494
 20
-0.0815370878328202
 30
0.0
 10
-1315.668579000698
 20
-16.32161324645056
 30
0.0
 10
-1312.498398171758
 20
-49.08386161357991
 30
0.0
 10
-1293.852638486243
 20
-111.2104475343432
 30
0.0
 10
-1247.759096803873
 20
-179.2801063950493
 30
0.0
 10
-1164.200825081674
 20
-232.7339018760606
 30
0.0
 10
-1098.622930958978
 20
-244.5567496385404
 30
0.0
 10
-1065.415411305339
 20
-244.5562072789865
 30
0.0
  0
SPLINE
  5
5A9B1
330
1F
100
AcDbEntity
  8
Default
100
AcDbSpline
210
0.0
220
0.0
230
1.0
 70
     8
 71
     3
 72
    12
 73
     8
 74
     0
 42
0.000000001
 43
0.0000000001
 40
-14.89017236839833
 40
-14.89017236839833
 40
-14.89017236839833
 40
-14.89017236839833
 40
-11.21816917573749
 40
-7.516682162771167
 40
-3.774519558109396
 40
-1.88935509827327
 40
0.0
 40
0.0
 40
0.0
 40
0.0
 10
-1065.415411305339
 20
-244.5562072789865
 30
0.0
 10
-1034.321614779879
 20
-244.5645400264723
 30
0.0
 10
-971.908850549966
 20
-231.6828539611881
 30
0.0
 10
-892.9955558248641
 20
-177.0219049518957
 30
0.0
 10
-849.3869571632879
 20
-109.3789506278001
 30
0.0
 10
-831.4113687044866
 20
-48.0362522995777
 30
0.0
 10
-828.3376277704721
 20
-16.07674756450733
 30
0.0
 10
-828.3359064912021
 20
-0.0815360411027521
 30
0.0
  0
CIRCLE
  5
5A9B3
330
1F
100
AcDbEntity
  8
Default
100
AcDbCircle
 10
0.0000000000000568
 20
0.0
 30
0.0
 40
533.4999999999999
  0
ENDSEC
  0
SECTION
  2
OBJECTS
  0
DICTIONARY
  5
C
330
0
100
AcDbDictionary
281
     1
  3
ACAD_BACKGROUND
350
5A51F
  3
ACAD_CIP_PREVIOUS_PRODUCT_INFO
350
5A51E
  3
ACAD_COLOR
350
5A516
  3
ACAD_DETAILVIEWSTYLE
350
5A513
  3
ACAD_GROUP
350
D
  3
ACAD_LAYOUT
350
1A
  3
ACAD_MATERIAL
350
43
  3
ACAD_MLEADERSTYLE
350
5A512
  3
ACAD_MLINESTYLE
350
17
  3
ACAD_PLOTSETTINGS
350
19
  3
ACAD_PLOTSTYLENAME
350
E
  3
ACAD_SCALELIST
350
47
  3
ACAD_SECTIONVIEWSTYLE
350
5A514
  3
ACAD_TABLESTYLE
350
5A511
  3
ACAD_VISUALSTYLE
350
2A
  3
ACDB_RECOMPOSE_DATA
350
5A9D0
  3
AcDbVariableDictionary
350
5A4D8
  0
DICTIONARY
  5
5A4D6
330
8
100
AcDbDictionary
280
     1
281
     1
  0
SUN
  5
69
330
29
100
AcDbSun
 90
        1
290
     0
 63
     7
421
 16777215
 40
1.0
291
     1
 91
  2455826
 92
 54000000
292
     0
 70
     0
 71
   256
280
     1
  0
DICTIONARY
  5
5A841
330
2
100
AcDbDictionary
280
     1
281
     1
  3
ACAD_LAYERSTATES
360
5A842
  0
DICTIONARY
  5
5A838
330
10
100
AcDbDictionary
280
     1
281
     1
  3
ADSK_XREC_LAYER_RECONCILED
360
5A839
  0
DICTIONARY
  5
5A83A
330
6A
100
AcDbDictionary
280
     1
281
     1
  3
ADSK_XREC_LAYER_RECONCILED
360
5A83B
  0
DICTIONARY
  5
5A759
330
1F
100
AcDbDictionary
280
     1
281
     1
  3
ACAD_SORTENTS
360
5A75A
  0
DICTIONARY
  5
5A51F
102
{ACAD_REACTORS
330
C
102
}
330
C
100
AcDbDictionary
281
     1
  0
XRECORD
  5
5A51E
102
{ACAD_REACTORS
330
C
102
}
330
C
100
AcDbXrecord
280
     1
300
ACD
300
2016
300
ACD_F_S
  0
DICTIONARY
  5
5A516
102
{ACAD_REACTORS
330
C
102
}
330
C
100
AcDbDictionary
281
     1
  0
DICTIONARY
  5
5A513
102
{ACAD_REACTORS
330
C
102
}
330
C
100
AcDbDictionary
281
     1
  3
Imperial24
350
5A51A
  0
DICTIONARY
  5
D
102
{ACAD_REACTORS
330
C
102
}
330
C
100
AcDbDictionary
281
     1
  0
DICTIONARY
  5
1A
102
{ACAD_REACTORS
330
C
102
}
330
C
100
AcDbDictionary
281
     1
  3
Layout1
350
1E
  3
Layout2
350
26
  3
Model
350
22
  0
DICTIONARY
  5
43
102
{ACAD_REACTORS
330
C
102
}
330
C
100
AcDbDictionary
281
     1
  3
ByBlock
350
45
  3
ByLayer
350
44
  3
Global
350
46
  0
DICTIONARY
  5
5A512
102
{ACAD_REACTORS
330
C
102
}
330
C
100
AcDbDictionary
281
     1
  3
Standard
350
5A518
  0
DICTIONARY
  5
17
102
{ACAD_REACTORS
330
C
102
}
330
C
100
AcDbDictionary
281
     1
  3
Standard
350
18
  0
DICTIONARY
  5
19
102
{ACAD_REACTORS
330
C
102
}
330
C
100
AcDbDictionary
281
     1
  0
ACDBDICTIONARYWDFLT
  5
E
102
{ACAD_REACTORS
330
C
102
}
330
C
100
AcDbDictionary
281
     1
  3
Normal
350
F
100
AcDbDictionaryWithDefault
340
F
  0
DICTIONARY
  5
47
102
{ACAD_REACTORS
330
C
102
}
330
C
100
AcDbDictionary
281
     1
  3
A0
350
48
  3
A1
350
49
  3
A2
350
4A
  3
A3
350
4B
  3
A4
350
4C
  3
A5
350
4D
  3
A6
350
4E
  3
A7
350
4F
  3
A8
350
50
  3
A9
350
51
  3
B0
350
52
  3
B1
350
53
  3
B2
350
54
  3
B3
350
55
  3
B4
350
56
  3
B5
350
57
  3
B6
350
58
  3
B7
350
59
  3
B8
350
5A
  3
B9
350
5B
  3
C0
350
5C
  3
C1
350
5D
  3
C2
350
5E
  3
C3
350
5F
  3
C4
350
60
  3
C5
350
61
  3
C6
350
62
  3
C7
350
63
  3
C8
350
64
  3
C9
350
65
  3
D0
350
66
  3
D1
350
67
  3
D2
350
68
  0
DICTIONARY
  5
5A514
102
{ACAD_REACTORS
330
C
102
}
330
C
100
AcDbDictionary
281
     1
  3
Imperial24
350
5A519
  0
DICTIONARY
  5
5A511
102
{ACAD_REACTORS
330
C
102
}
330
C
100
AcDbDictionary
281
     1
  3
Standard
350
5A517
  0
DICTIONARY
  5
2A
102
{ACAD_REACTORS
330
C
102
}
330
C
100
AcDbDictionary
281
     1
  3
2dWireframe
350
2F
  3
3D Hidden
350
5A527
  3
3dWireframe
350
5A528
  3
Basic
350
32
  3
Brighten
350
36
  3
ColorChange
350
3A
  3
Conceptual
350
34
  3
Dim
350
35
  3
EdgeColorOff
350
3D
  3
Facepattern
350
39
  3
Flat
350
2B
  3
FlatWithEdges
350
2C
  3
Gouraud
350
2D
  3
GouraudWithEdges
350
2E
  3
Hidden
350
31
  3
JitterOff
350
3B
  3
Linepattern
350
38
  3
OverhangOff
350
3C
  3
Realistic
350
33
  3
Shaded
350
42
  3
Shaded with edges
350
41
  3
Shades of Gray
350
3E
  3
Sketchy
350
3F
  3
Thicken
350
37
  3
Wireframe
350
30
  3
X-Ray
350
40
  0
XRECORD
  5
5A9D0
102
{ACAD_REACTORS
330
C
102
}
330
C
100
AcDbXrecord
280
     1
 90
        1
330
5A517
330
5A519
330
5A51A
  0
DICTIONARY
  5
5A4D8
102
{ACAD_REACTORS
330
C
102
}
330
C
100
AcDbDictionary
281
     1
  3
CANNOSCALE
350
5A4D9
  3
CMLEADERSTYLE
350
5A84D
  3
CTABLESTYLE
350
5A84C
  3
CVIEWDETAILSTYLE
350
5A84E
  3
CVIEWSECTIONSTYLE
350
5A84F
  3
LAYEREVAL
350
5A851
  3
LAYERNOTIFY
350
5A852
  3
LIGHTINGUNITS
350
5A850
  3
MSLTSCALE
350
5A4DA
  0
DICTIONARY
  5
5A842
102
{ACAD_REACTORS
330
5A841
102
}
330
5A841
100
AcDbDictionary
281
     1
  0
XRECORD
  5
5A839
102
{ACAD_REACTORS
330
5A838
102
}
330
5A838
100
AcDbXrecord
280
     1
290
     1
  0
XRECORD
  5
5A83B
102
{ACAD_REACTORS
330
5A83A
102
}
330
5A83A
100
AcDbXrecord
280
     1
290
     1
  0
SORTENTSTABLE
  5
5A75A
102
{ACAD_REACTORS
330
5A759
102
}
330
5A759
100
AcDbSortentsTable
330
1F
  0
ACDBDETAILVIEWSTYLE
  5
5A51A
102
{ACAD_XDICTIONARY
360
5A849
102
}
102
{ACAD_REACTORS
330
5A513
102
}
330
5A513
100
AcDbModelDocViewStyle
 70
     0
  3
Imperial24
290
     0
100
AcDbDetailViewStyle
 70
     0
 71
     0
 90
        3
 71
     1
340
11
 62
   256
 40
0.24
340
0
 62
   256
 40
0.24
300

 40
0.36
280
     3
 71
     2
340
16
 90
       25
 62
   256
 71
     3
340
11
 62
   256
 40
0.24
 90
        1
 40
0.75
 90
        1
300
%<\AcVar ViewType \f "%tc1">% %<\AcVar ViewDetailId>%\PSCALE %<\AcVar ViewScale \f "%sn">%
 71
     4
340
16
 90
       25
 62
   256
340
16
 90
       25
 62
   256
280
     0
  0
LAYOUT
  5
1E
102
{ACAD_REACTORS
330
1A
102
}
330
1A
100
AcDbPlotSettings
  1

  2
none_device
  4

  6

 40
0.0
 41
0.0
 42
0.0
 43
0.0
 44
0.0
 45
0.0
 46
0.0
 47
0.0
 48
0.0
 49
0.0
140
0.0
141
0.0
142
1.0
143
1.0
 70
   688
 72
     0
 73
     0
 74
     5
  7

 75
    16
147
1.0
 76
     0
 77
     2
 78
   300
148
0.0
149
0.0
100
AcDbLayout
  1
Layout1
 70
     1
 71
     1
 10
0.0
 20
0.0
 11
12.0
 21
9.0
 12
0.0
 22
0.0
 32
0.0
 14
1.000000000000000E+20
 24
1.000000000000000E+20
 34
1.000000000000000E+20
 15
-1.000000000000000E+20
 25
-1.000000000000000E+20
 35
-1.000000000000000E+20
146
0.0
 13
0.0
 23
0.0
 33
0.0
 16
1.0
 26
0.0
 36
0.0
 17
0.0
 27
1.0
 37
0.0
 76
     0
330
1B
  0
LAYOUT
  5
26
102
{ACAD_REACTORS
330
1A
102
}
330
1A
100
AcDbPlotSettings
  1

  2
none_device
  4

  6

 40
0.0
 41
0.0
 42
0.0
 43
0.0
 44
0.0
 45
0.0
 46
0.0
 47
0.0
 48
0.0
 49
0.0
140
0.0
141
0.0
142
1.0
143
1.0
 70
   688
 72
     0
 73
     0
 74
     5
  7

 75
    16
147
1.0
 76
     0
 77
     2
 78
   300
148
0.0
149
0.0
100
AcDbLayout
  1
Layout2
 70
     1
 71
     2
 10
0.0
 20
0.0
 11
0.0
 21
0.0
 12
0.0
 22
0.0
 32
0.0
 14
0.0
 24
0.0
 34
0.0
 15
0.0
 25
0.0
 35
0.0
146
0.0
 13
0.0
 23
0.0
 33
0.0
 16
1.0
 26
0.0
 36
0.0
 17
0.0
 27
1.0
 37
0.0
 76
     0
330
23
  0
LAYOUT
  5
22
102
{ACAD_REACTORS
330
1A
102
}
330
1A
100
AcDbPlotSettings
  1

  2
none_device
  4
Letter_(8.50_x_11.00_Inches)
  6

 40
6.349999999999999
 41
6.349999999999999
 42
6.350005079999999
 43
6.350005079999999
 44
215.9
 45
279.4
 46
0.0
 47
0.0
 48
0.0
 49
0.0
140
0.0
141
0.0
142
1.0
143
1.0
 70
  1712
 72
     0
 73
     0
 74
     0
  7

 75
     0
147
1.0
 76
     0
 77
     2
 78
   300
148
0.0
149
0.0
100
AcDbLayout
  1
Model
 70
     1
 71
     0
 10
0.0
 20
0.0
 11
12.0
 21
9.0
 12
0.0
 22
0.0
 32
0.0
 14
-1544.89013671875
 24
-1544.89013671875
 34
-0.0000000000009712
 15
1544.89013671875
 25
1544.89013671875
 35
1018.895812988281
146
0.0
 13
0.0
 23
0.0
 33
0.0
 16
1.0
 26
0.0
 36
0.0
 17
0.0
 27
1.0
 37
0.0
 76
     0
330
1F
331
29
  0
MATERIAL
  5
45
102
{ACAD_REACTORS
330
43
102
}
330
43
100
AcDbMaterial
  1
ByBlock
 73
     1
 78
     1
172
     1
176
     1
270
     1
274
     1
  0
MATERIAL
  5
44
102
{ACAD_REACTORS
330
43
102
}
330
43
100
AcDbMaterial
  1
ByLayer
 73
     1
 78
     1
172
     1
176
     1
270
     1
274
     1
  0
MATERIAL
  5
46
102
{ACAD_REACTORS
330
43
102
}
330
43
100
AcDbMaterial
  1
Global
 73
     1
 78
     1
172
     1
176
     1
270
     1
274
     1
  0
MLEADERSTYLE
  5
5A518
102
{ACAD_REACTORS
330
5A512
102
}
330
5A512
100
AcDbMLeaderStyle
179
     2
170
     2
171
     1
172
     0
 90
        2
 40
0.0
 41
0.0
173
     1
 91
-1056964608
340
14
 92
       -2
290
     1
 42
0.09
291
     1
 43
0.36
  3
Standard
 44
0.18
300

342
11
174
     1
178
     6
175
     1
176
     0
 93
-1056964608
 45
0.18
292
     0
297
     0
 46
0.18
 94
-1056964608
 47
1.0
 49
1.0
140
1.0
293
     1
141
0.0
294
     1
177
     0
142
1.0
295
     1
296
     0
143
0.125
271
     0
272
     9
273
     9
298
     1
  0
MLINESTYLE
  5
18
102
{ACAD_REACTORS
330
17
102
}
330
17
100
AcDbMlineStyle
  2
STANDARD
 70
     0
  3

 62
   256
 51
90.0
 52
90.0
 71
     2
 49
0.5
 62
   256
  6
BYLAYER
 49
-0.5
 62
   256
  6
BYLAYER
  0
ACDBPLACEHOLDER
  5
F
102
{ACAD_REACTORS
330
E
102
}
330
E
  0
SCALE
  5
48
102
{ACAD_REACTORS
330
47
102
}
330
47
100
AcDbScale
 70
     0
300
1:1
140
1.0
141
1.0
290
     1
  0
SCALE
  5
49
102
{ACAD_REACTORS
330
47
102
}
330
47
100
AcDbScale
 70
     0
300
1:2
140
1.0
141
2.0
290
     0
  0
SCALE
  5
4A
102
{ACAD_REACTORS
330
47
102
}
330
47
100
AcDbScale
 70
     0
300
1:4
140
1.0
141
4.0
290
     0
  0
SCALE
  5
4B
102
{ACAD_REACTORS
330
47
102
}
330
47
100
AcDbScale
 70
     0
300
1:5
140
1.0
141
5.0
290
     0
  0
SCALE
  5
4C
102
{ACAD_REACTORS
330
47
102
}
330
47
100
AcDbScale
 70
     0
300
1:8
140
1.0
141
8.0
290
     0
  0
SCALE
  5
4D
102
{ACAD_REACTORS
330
47
102
}
330
47
100
AcDbScale
 70
     0
300
1:10
140
1.0
141
10.0
290
     0
  0
SCALE
  5
4E
102
{ACAD_REACTORS
330
47
102
}
330
47
100
AcDbScale
 70
     0
300
1:16
140
1.0
141
16.0
290
     0
  0
SCALE
  5
4F
102
{ACAD_REACTORS
330
47
102
}
330
47
100
AcDbScale
 70
     0
300
1:20
140
1.0
141
20.0
290
     0
  0
SCALE
  5
50
102
{ACAD_REACTORS
330
47
102
}
330
47
100
AcDbScale
 70
     0
300
1:30
140
1.0
141
30.0
290
     0
  0
SCALE
  5
51
102
{ACAD_REACTORS
330
47
102
}
330
47
100
AcDbScale
 70
     0
300
1:40
140
1.0
141
40.0
290
     0
  0
SCALE
  5
52
102
{ACAD_REACTORS
330
47
102
}
330
47
100
AcDbScale
 70
     0
300
1:50
140
1.0
141
50.0
290
     0
  0
SCALE
  5
53
102
{ACAD_REACTORS
330
47
102
}
330
47
100
AcDbScale
 70
     0
300
1:100
140
1.0
141
100.0
290
     0
  0
SCALE
  5
54
102
{ACAD_REACTORS
330
47
102
}
330
47
100
AcDbScale
 70
     0
300
2:1
140
2.0
141
1.0
290
     0
  0
SCALE
  5
55
102
{ACAD_REACTORS
330
47
102
}
330
47
100
AcDbScale
 70
     0
300
4:1
140
4.0
141
1.0
290
     0
  0
SCALE
  5
56
102
{ACAD_REACTORS
330
47
102
}
330
47
100
AcDbScale
 70
     0
300
8:1
140
8.0
141
1.0
290
     0
  0
SCALE
  5
57
102
{ACAD_REACTORS
330
47
102
}
330
47
100
AcDbScale
 70
     0
300
10:1
140
10.0
141
1.0
290
     0
  0
SCALE
  5
58
102
{ACAD_REACTORS
330
47
102
}
330
47
100
AcDbScale
 70
     0
300
100:1
140
100.0
141
1.0
290
     0
  0
SCALE
  5
59
102
{ACAD_REACTORS
330
47
102
}
330
47
100
AcDbScale
 70
     0
300
1/128" = 1'-0"
140
0.0078125
141
12.0
290
     0
  0
SCALE
  5
5A
102
{ACAD_REACTORS
330
47
102
}
330
47
100
AcDbScale
 70
     0
300
1/64" = 1'-0"
140
0.015625
141
12.0
290
     0
  0
SCALE
  5
5B
102
{ACAD_REACTORS
330
47
102
}
330
47
100
AcDbScale
 70
     0
300
1/32" = 1'-0"
140
0.03125
141
12.0
290
     0
  0
SCALE
  5
5C
102
{ACAD_REACTORS
330
47
102
}
330
47
100
AcDbScale
 70
     0
300
1/16" = 1'-0"
140
0.0625
141
12.0
290
     0
  0
SCALE
  5
5D
102
{ACAD_REACTORS
330
47
102
}
330
47
100
AcDbScale
 70
     0
300
3/32" = 1'-0"
140
0.09375
141
12.0
290
     0
  0
SCALE
  5
5E
102
{ACAD_REACTORS
330
47
102
}
330
47
100
AcDbScale
 70
     0
300
1/8" = 1'-0"
140
0.125
141
12.0
290
     0
  0
SCALE
  5
5F
102
{ACAD_REACTORS
330
47
102
}
330
47
100
AcDbScale
 70
     0
300
3/16" = 1'-0"
140
0.1875
141
12.0
290
     0
  0
SCALE
  5
60
102
{ACAD_REACTORS
330
47
102
}
330
47
100
AcDbScale
 70
     0
300
1/4" = 1'-0"
140
0.25
141
12.0
290
     0
  0
SCALE
  5
61
102
{ACAD_REACTORS
330
47
102
}
330
47
100
AcDbScale
 70
     0
300
3/8" = 1'-0"
140
0.375
141
12.0
290
     0
  0
SCALE
  5
62
102
{ACAD_REACTORS
330
47
102
}
330
47
100
AcDbScale
 70
     0
300
1/2" = 1'-0"
140
0.5
141
12.0
290
     0
  0
SCALE
  5
63
102
{ACAD_REACTORS
330
47
102
}
330
47
100
AcDbScale
 70
     0
300
3/4" = 1'-0"
140
0.75
141
12.0
290
     0
  0
SCALE
  5
64
102
{ACAD_REACTORS
330
47
102
}
330
47
100
AcDbScale
 70
     0
300
1" = 1'-0"
140
1.0
141
12.0
290
     0
  0
SCALE
  5
65
102
{ACAD_REACTORS
330
47
102
}
330
47
100
AcDbScale
 70
     0
300
1-1/2" = 1'-0"
140
1.5
141
12.0
290
     0
  0
SCALE
  5
66
102
{ACAD_REACTORS
330
47
102
}
330
47
100
AcDbScale
 70
     0
300
3" = 1'-0"
140
3.0
141
12.0
290
     0
  0
SCALE
  5
67
102
{ACAD_REACTORS
330
47
102
}
330
47
100
AcDbScale
 70
     0
300
6" = 1'-0"
140
6.0
141
12.0
290
     0
  0
SCALE
  5
68
102
{ACAD_REACTORS
330
47
102
}
330
47
100
AcDbScale
 70
     0
300
1'-0" = 1'-0"
140
12.0
141
12.0
290
     0
  0
ACDBSECTIONVIEWSTYLE
  5
5A519
102
{ACAD_XDICTIONARY
360
5A847
102
}
102
{ACAD_REACTORS
330
5A514
102
}
330
5A514
100
AcDbModelDocViewStyle
 70
     0
  3
Imperial24
290
     0
100
AcDbSectionViewStyle
 70
     0
 71
     0
 90
       78
 71
     1
340
11
 62
   256
 40
0.24
340
0
340
0
 62
   256
 40
0.24
300
I, O, Q, S, X, Z
 40
0.48
 90
        3
 40
0.18
 90
        1
 71
     2
340
16
 90
       25
 62
   256
340
16
 90
       50
 62
   256
 40
0.24
 40
0.0
 40
0.24
 71
     3
340
11
 62
   256
 40
0.24
 90
        1
 40
0.75
 90
        1
300
%<\AcVar ViewType \f "%tc1">% %<\AcVar ViewSectionStartId>%-%<\AcVar ViewSectionEndId>%\PSCALE %<\AcVar ViewScale \f "%sn">%
 71
     4
 62
   256
 62
   257
300
ANSI31
 40
1.0
 90
        0
290
     0
290
     0
 90
        6
 40
0.0
 40
1.570796326794896
 40
0.2617993877991494
 40
1.308996938995747
 40
-0.2617993877991494
 40
1.832595714594046
  0
TABLESTYLE
  5
5A517
102
{ACAD_XDICTIONARY
360
5A9CC
102
}
102
{ACAD_REACTORS
330
5A511
102
}
330
5A511
100
AcDbTableStyle
280
     0
  3
Standard
 70
     0
 71
     0
 40
0.06
 41
0.06
280
     0
281
     0
  7
Standard
140
0.18
170
     2
 62
     0
 63
     7
283
     0
 90
      512
 91
        0
  1

274
    -2
284
     1
 64
     0
275
    -2
285
     1
 65
     0
276
    -2
286
     1
 66
     0
277
    -2
287
     1
 67
     0
278
    -2
288
     1
 68
     0
279
    -2
289
     1
 69
     0
  7
Standard
140
0.25
170
     5
 62
     0
 63
     7
283
     0
 90
      512
 91
        0
  1

274
    -2
284
     1
 64
     0
275
    -2
285
     1
 65
     0
276
    -2
286
     1
 66
     0
277
    -2
287
     1
 67
     0
278
    -2
288
     1
 68
     0
279
    -2
289
     1
 69
     0
  7
Standard
140
0.18
170
     5
 62
     0
 63
     7
283
     0
 90
      512
 91
        0
  1

274
    -2
284
     1
 64
     0
275
    -2
285
     1
 65
     0
276
    -2
286
     1
 66
     0
277
    -2
287
     1
 67
     0
278
    -2
288
     1
 68
     0
279
    -2
289
     1
 69
     0
  0
VISUALSTYLE
  5
2F
102
{ACAD_REACTORS
330
2A
102
}
330
2A
100
AcDbVisualStyle
  2
2dWireframe
 70
     4
177
     3
291
     0
 70
    58
 90
        0
176
     1
 90
        2
176
     1
 90
        0
176
     1
 90
        0
176
     1
 40
0.6
176
     1
 40
30.0
176
     1
 62
     7
420
 16777215
176
     1
 90
        1
176
     1
 90
        4
176
     1
 62
     7
176
     1
 62
   257
176
     1
 90
        1
176
     1
 90
        1
176
     1
 40
1.0
176
     1
 90
        0
176
     1
 62
   257
176
     1
 40
1.0
176
     1
 90
        1
176
     1
 90
        6
176
     1
 90
        2
176
     1
 62
     7
176
     1
 90
        5
176
     1
 90
        0
176
     1
 90
        0
176
     1
290
     0
176
     1
 90
        1
176
     1
 40
0.0
176
     1
 90
        0
176
     1
290
     1
176
     1
290
     1
176
     1
290
     0
176
     1
290
     0
176
     1
290
     0
176
     1
290
     0
176
     1
290
     0
176
     1
290
     0
176
     1
290
     0
176
     1
 90
       50
176
     1
 40
0.0
176
     1
 40
1.0
176
     1
 90
        0
176
     1
 62
    18
420
        0
176
     1
 90
       50
176
     1
 90
        3
176
     1
 62
     5
420
      255
176
     1
290
     0
176
     1
 90
       50
176
     1
 90
       50
176
     1
 90
       50
176
     1
290
     0
176
     1
 90
       50
176
     1
 62
   256
176
     0
 40
1.0
176
     0
 90
        2
176
     1
  1
strokes_ogs.tif
176
     1
290
     0
176
     1
 40
1.0
176
     1
 40
1.0
176
     1
  0
VISUALSTYLE
  5
5A527
102
{ACAD_REACTORS
330
2A
102
}
330
2A
100
AcDbVisualStyle
  2

 70
     6
177
     3
291
     0
 70
    58
 90
        1
176
     1
 90
        2
176
     1
 90
        2
176
     1
 90
        0
176
     1
 40
0.6
176
     1
 40
30.0
176
     1
 62
     7
420
 16777215
176
     1
 90
        2
176
     1
 90
        2
176
     1
 62
     7
176
     1
 62
   257
176
     1
 90
        2
176
     1
 90
        1
176
     1
 40
40.0
176
     1
 90
        0
176
     1
 62
   257
176
     1
 40
1.0
176
     1
 90
        1
176
     1
 90
        6
176
     1
 90
        2
176
     1
 62
     7
176
     1
 90
        3
176
     1
 90
        0
176
     1
 90
        0
176
     1
290
     0
176
     1
 90
        1
176
     1
 40
0.0
176
     1
 90
        0
176
     1
290
     0
176
     1
290
     1
176
     1
290
     1
176
     1
290
     0
176
     1
290
     0
176
     1
290
     0
176
     1
290
     0
176
     1
290
     0
176
     1
290
     0
176
     1
 90
       50
176
     1
 40
0.0
176
     1
 40
1.0
176
     1
 90
        0
176
     1
 62
    18
420
        0
176
     1
 90
       50
176
     1
 90
        3
176
     1
 62
     5
420
      255
176
     1
290
     0
176
     1
 90
       50
176
     1
 90
       50
176
     1
 90
       50
176
     1
290
     0
176
     1
 90
       50
176
     1
 62
   256
176
     0
 40
1.0
176
     0
 90
        2
176
     1
  1
strokes_ogs.tif
176
     1
290
     0
176
     1
 40
1.0
176
     1
 40
1.0
176
     1
  0
VISUALSTYLE
  5
5A528
102
{ACAD_REACTORS
330
2A
102
}
330
2A
100
AcDbVisualStyle
  2

 70
     5
177
     3
291
     0
 70
    58
 90
        0
176
     1
 90
        2
176
     1
 90
        0
176
     1
 90
        0
176
     1
 40
0.6
176
     1
 40
30.0
176
     1
 62
     7
420
 16777215
176
     1
 90
        1
176
     1
 90
        4
176
     1
 62
     7
176
     1
 62
   257
176
     1
 90
        1
176
     1
 90
        1
176
     1
 40
1.0
176
     1
 90
        0
176
     1
 62
   257
176
     1
 40
1.0
176
     1
 90
        1
176
     1
 90
        6
176
     1
 90
        2
176
     1
 62
     7
176
     1
 90
        5
176
     1
 90
        0
176
     1
 90
        0
176
     1
290
     0
176
     1
 90
        1
176
     1
 40
0.0
176
     1
 90
        0
176
     1
290
     0
176
     1
290
     1
176
     1
290
     1
176
     1
290
     0
176
     1
290
     0
176
     1
290
     0
176
     1
290
     0
176
     1
290
     0
176
     1
290
     0
176
     1
 90
       50
176
     1
 40
0.0
176
     1
 40
1.0
176
     1
 90
        0
176
     1
 62
    18
420
        0
176
     1
 90
       50
176
     1
 90
        3
176
     1
 62
     5
420
      255
176
     1
290
     0
176
     1
 90
       50
176
     1
 90
       50
176
     1
 90
       50
176
     1
290
     0
176
     1
 90
       50
176
     1
 62
   256
176
     0
 40
1.0
176
     0
 90
        2
176
     1
  1
strokes_ogs.tif
176
     1
290
     0
176
     1
 40
1.0
176
     1
 40
1.0
176
     1
  0
VISUALSTYLE
  5
32
102
{ACAD_REACTORS
330
2A
102
}
330
2A
100
AcDbVisualStyle
  2
Basic
 70
     7
177
     3
291
     1
 70
    58
 90
        1
176
     1
 90
        0
176
     1
 90
        1
176
     1
 90
        0
176
     1
 40
0.6
176
     1
 40
30.0
176
     1
 62
     7
420
 16777215
176
     1
 90
        0
176
     1
 90
        4
176
     1
 62
     7
176
     1
 62
   257
176
     1
 90
        1
176
     1
 90
        1
176
     1
 40
1.0
176
     1
 90
        8
176
     1
 62
     7
176
     1
 40
1.0
176
     1
 90
        1
176
     1
 90
        6
176
     1
 90
        2
176
     1
 62
     7
176
     1
 90
        5
176
     1
 90
        0
176
     1
 90
        0
176
     1
290
     0
176
     1
 90
        1
176
     1
 40
0.0
176
     1
 90
        0
176
     1
290
     0
176
     1
290
     1
176
     1
290
     1
176
     1
290
     0
176
     1
290
     0
176
     1
290
     0
176
     1
290
     0
176
     1
290
     0
176
     1
290
     0
176
     1
 90
       50
176
     1
 40
0.0
176
     1
 40
1.0
176
     1
 90
        0
176
     1
 62
    18
420
        0
176
     1
 90
       50
176
     1
 90
        3
176
     1
 62
     5
420
      255
176
     1
290
     0
176
     1
 90
       50
176
     1
 90
       50
176
     1
 90
       50
176
     1
290
     0
176
     1
 90
       50
176
     1
 62
   256
176
     0
 40
1.0
176
     0
 90
        2
176
     1
  1
strokes_ogs.tif
176
     1
290
     0
176
     1
 40
1.0
176
     1
 40
1.0
176
     1
  0
VISUALSTYLE
  5
36
102
{ACAD_REACTORS
330
2A
102
}
330
2A
100
AcDbVisualStyle
  2
Brighten
 70
    12
177
     3
291
     1
 70
    58
 90
        2
176
     1
 90
        2
176
     1
 90
        0
176
     1
 90
        0
176
     1
 40
0.6
176
     1
 40
30.0
176
     1
 62
     7
420
 16777215
176
     1
 90
        1
176
     1
 90
        4
176
     1
 62
     7
176
     1
 62
   257
176
     1
 90
        1
176
     1
 90
        1
176
     1
 40
1.0
176
     1
 90
        8
176
     1
 62
     7
176
     1
 40
1.0
176
     1
 90
        1
176
     1
 90
        6
176
     1
 90
        2
176
     1
 62
     7
176
     1
 90
        5
176
     1
 90
        0
176
     1
 90
        0
176
     1
290
     0
176
     1
 90
        1
176
     1
 40
50.0
176
     1
 90
        0
176
     1
290
     0
176
     1
290
     1
176
     1
290
     1
176
     1
290
     0
176
     1
290
     0
176
     1
290
     0
176
     1
290
     0
176
     1
290
     0
176
     1
290
     0
176
     1
 90
       50
176
     1
 40
0.0
176
     1
 40
1.0
176
     1
 90
        0
176
     1
 62
    18
420
        0
176
     1
 90
       50
176
     1
 90
        3
176
     1
 62
     5
420
      255
176
     1
290
     0
176
     1
 90
       50
176
     1
 90
       50
176
     1
 90
       50
176
     1
290
     0
176
     1
 90
       50
176
     1
 62
   256
176
     0
 40
1.0
176
     0
 90
        2
176
     1
  1
strokes_ogs.tif
176
     1
290
     0
176
     1
 40
1.0
176
     1
 40
1.0
176
     1
  0
VISUALSTYLE
  5
3A
102
{ACAD_REACTORS
330
2A
102
}
330
2A
100
AcDbVisualStyle
  2
ColorChange
 70
    16
177
     3
291
     1
 70
    58
 90
        2
176
     1
 90
        2
176
     1
 90
        3
176
     1
 90
        0
176
     1
 40
0.6
176
     1
 40
30.0
176
     1
 62
     8
420
  8421504
176
     1
 90
        1
176
     1
 90
        4
176
     1
 62
     7
176
     1
 62
   257
176
     1
 90
        1
176
     1
 90
        1
176
     1
 40
1.0
176
     1
 90
        8
176
     1
 62
     8
420
  8421504
176
     1
 40
1.0
176
     1
 90
        1
176
     1
 90
        6
176
     1
 90
        2
176
     1
 62
     7
176
     1
 90
        5
176
     1
 90
        0
176
     1
 90
        0
176
     1
290
     0
176
     1
 90
        1
176
     1
 40
0.0
176
     1
 90
        0
176
     1
290
     0
176
     1
290
     1
176
     1
290
     1
176
     1
290
     0
176
     1
290
     0
176
     1
290
     0
176
     1
290
     0
176
     1
290
     0
176
     1
290
     0
176
     1
 90
       50
176
     1
 40
0.0
176
     1
 40
1.0
176
     1
 90
        0
176
     1
 62
    18
420
        0
176
     1
 90
       50
176
     1
 90
        3
176
     1
 62
     5
420
      255
176
     1
290
     0
176
     1
 90
       50
176
     1
 90
       50
176
     1
 90
       50
176
     1
290
     0
176
     1
 90
       50
176
     1
 62
   256
176
     0
 40
1.0
176
     0
 90
        2
176
     1
  1
strokes_ogs.tif
176
     1
290
     0
176
     1
 40
1.0
176
     1
 40
1.0
176
     1
  0
VISUALSTYLE
  5
34
102
{ACAD_REACTORS
330
2A
102
}
330
2A
100
AcDbVisualStyle
  2
Conceptual
 70
     9
177
     3
291
     0
 70
    58
 90
        3
176
     1
 90
        2
176
     1
 90
        0
176
     1
 90
        0
176
     1
 40
0.6
176
     1
 40
30.0
176
     1
 62
     7
420
 16777215
176
     1
 90
        2
176
     1
 90
        2
176
     1
 62
     7
176
     1
 62
   257
176
     1
 90
        1
176
     1
 90
        1
176
     1
 40
179.0
176
     1
 90
        8
176
     1
 62
     7
176
     1
 40
1.0
176
     1
 90
        1
176
     1
 90
        6
176
     1
 90
        2
176
     1
 62
     7
176
     1
 90
        3
176
     1
 90
        0
176
     1
 90
        0
176
     1
290
     0
176
     1
 90
        1
176
     1
 40
0.0
176
     1
 90
        0
176
     1
290
     0
176
     1
290
     1
176
     1
290
     1
176
     1
290
     0
176
     1
290
     0
176
     1
290
     0
176
     1
290
     0
176
     1
290
     0
176
     1
290
     0
176
     1
 90
       50
176
     1
 40
0.0
176
     1
 40
1.0
176
     1
 90
        0
176
     1
 62
    18
420
        0
176
     1
 90
       50
176
     1
 90
        3
176
     1
 62
     5
420
      255
176
     1
290
     0
176
     1
 90
       50
176
     1
 90
       50
176
     1
 90
       50
176
     1
290
     0
176
     1
 90
       50
176
     1
 62
   256
176
     0
 40
1.0
176
     0
 90
        2
176
     1
  1
strokes_ogs.tif
176
     1
290
     0
176
     1
 40
1.0
176
     1
 40
1.0
176
     1
  0
VISUALSTYLE
  5
35
102
{ACAD_REACTORS
330
2A
102
}
330
2A
100
AcDbVisualStyle
  2
Dim
 70
    11
177
     3
291
     1
 70
    58
 90
        2
176
     1
 90
        2
176
     1
 90
        0
176
     1
 90
        0
176
     1
 40
0.6
176
     1
 40
30.0
176
     1
 62
     7
420
 16777215
176
     1
 90
        1
176
     1
 90
        4
176
     1
 62
     7
176
     1
 62
   257
176
     1
 90
        1
176
     1
 90
        1
176
     1
 40
1.0
176
     1
 90
        8
176
     1
 62
     7
176
     1
 40
1.0
176
     1
 90
        1
176
     1
 90
        6
176
     1
 90
        2
176
     1
 62
     7
176
     1
 90
        5
176
     1
 90
        0
176
     1
 90
        0
176
     1
290
     0
176
     1
 90
        1
176
     1
 40
-50.0
176
     1
 90
        0
176
     1
290
     0
176
     1
290
     1
176
     1
290
     1
176
     1
290
     0
176
     1
290
     0
176
     1
290
     0
176
     1
290
     0
176
     1
290
     0
176
     1
290
     0
176
     1
 90
       50
176
     1
 40
0.0
176
     1
 40
1.0
176
     1
 90
        0
176
     1
 62
    18
420
        0
176
     1
 90
       50
176
     1
 90
        3
176
     1
 62
     5
420
      255
176
     1
290
     0
176
     1
 90
       50
176
     1
 90
       50
176
     1
 90
       50
176
     1
290
     0
176
     1
 90
       50
176
     1
 62
   256
176
     0
 40
1.0
176
     0
 90
        2
176
     1
  1
strokes_ogs.tif
176
     1
290
     0
176
     1
 40
1.0
176
     1
 40
1.0
176
     1
  0
VISUALSTYLE
  5
3D
102
{ACAD_REACTORS
330
2A
102
}
330
2A
100
AcDbVisualStyle
  2
EdgeColorOff
 70
    22
177
     3
291
     1
 70
    58
 90
        2
176
     0
 90
        2
176
     0
 90
        0
176
     0
 90
        0
176
     0
 40
0.6
176
     0
 40
30.0
176
     0
 62
     7
420
 16777215
176
     0
 90
        1
176
     0
 90
        4
176
     0
 62
     7
176
     0
 62
   257
176
     0
 90
        1
176
     0
 90
        1
176
     0
 40
1.0
176
     0
 90
        8
176
     2
 62
     7
176
     0
 40
1.0
176
     0
 90
        1
176
     0
 90
        6
176
     0
 90
        2
176
     0
 62
     7
176
     0
 90
        5
176
     0
 90
        0
176
     0
 90
        0
176
     0
290
     0
176
     0
 90
        1
176
     0
 40
0.0
176
     0
 90
        0
176
     0
290
     0
176
     0
290
     1
176
     0
290
     1
176
     0
290
     0
176
     0
290
     0
176
     0
290
     0
176
     0
290
     0
176
     0
290
     0
176
     0
290
     0
176
     0
 90
       50
176
     0
 40
0.0
176
     0
 40
1.0
176
     0
 90
        0
176
     0
 62
    18
420
        0
176
     0
 90
       50
176
     0
 90
        3
176
     0
 62
     5
420
      255
176
     0
290
     0
176
     0
 90
       50
176
     0
 90
       50
176
     0
 90
       50
176
     0
290
     0
176
     0
 90
       50
176
     0
 62
   256
176
     0
 40
1.0
176
     0
 90
        2
176
     0
  1
strokes_ogs.tif
176
     0
290
     0
176
     0
 40
1.0
176
     0
 40
1.0
176
     0
  0
VISUALSTYLE
  5
39
102
{ACAD_REACTORS
330
2A
102
}
330
2A
100
AcDbVisualStyle
  2
Facepattern
 70
    15
177
     3
291
     1
 70
    58
 90
        2
176
     1
 90
        2
176
     1
 90
        0
176
     1
 90
        0
176
     1
 40
0.6
176
     1
 40
30.0
176
     1
 62
     7
420
 16777215
176
     1
 90
        1
176
     1
 90
        4
176
     1
 62
     7
176
     1
 62
   257
176
     1
 90
        1
176
     1
 90
        1
176
     1
 40
1.0
176
     1
 90
        8
176
     1
 62
     7
176
     1
 40
1.0
176
     1
 90
        1
176
     1
 90
        6
176
     1
 90
        2
176
     1
 62
     7
176
     1
 90
        5
176
     1
 90
        0
176
     1
 90
        0
176
     1
290
     0
176
     1
 90
        1
176
     1
 40
0.0
176
     1
 90
        0
176
     1
290
     0
176
     1
290
     1
176
     1
290
     1
176
     1
290
     0
176
     1
290
     0
176
     1
290
     0
176
     1
290
     0
176
     1
290
     0
176
     1
290
     0
176
     1
 90
       50
176
     1
 40
0.0
176
     1
 40
1.0
176
     1
 90
        0
176
     1
 62
    18
420
        0
176
     1
 90
       50
176
     1
 90
        3
176
     1
 62
     5
420
      255
176
     1
290
     0
176
     1
 90
       50
176
     1
 90
       50
176
     1
 90
       50
176
     1
290
     0
176
     1
 90
       50
176
     1
 62
   256
176
     0
 40
1.0
176
     0
 90
        2
176
     1
  1
strokes_ogs.tif
176
     1
290
     0
176
     1
 40
1.0
176
     1
 40
1.0
176
     1
  0
VISUALSTYLE
  5
2B
102
{ACAD_REACTORS
330
2A
102
}
330
2A
100
AcDbVisualStyle
  2
Flat
 70
     0
177
     3
291
     1
 70
    58
 90
        2
176
     1
 90
        1
176
     1
 90
        1
176
     1
 90
        2
176
     1
 40
0.6
176
     1
 40
30.0
176
     1
 62
     7
420
 16777215
176
     1
 90
        0
176
     1
 90
        0
176
     1
 62
     7
176
     1
 62
   257
176
     1
 90
        1
176
     1
 90
        1
176
     1
 40
1.0
176
     1
 90
        8
176
     1
 62
     7
176
     1
 40
1.0
176
     1
 90
        1
176
     1
 90
        6
176
     1
 90
        2
176
     1
 62
     7
176
     1
 90
        5
176
     1
 90
        0
176
     1
 90
        0
176
     1
290
     0
176
     1
 90
       13
176
     1
 40
0.0
176
     1
 90
        0
176
     1
290
     0
176
     1
290
     1
176
     1
290
     1
176
     1
290
     0
176
     1
290
     0
176
     1
290
     0
176
     1
290
     0
176
     1
290
     0
176
     1
290
     0
176
     1
 90
       50
176
     1
 40
0.0
176
     1
 40
1.0
176
     1
 90
        0
176
     1
 62
    18
420
        0
176
     1
 90
       50
176
     1
 90
        3
176
     1
 62
     5
420
      255
176
     1
290
     0
176
     1
 90
       50
176
     1
 90
       50
176
     1
 90
       50
176
     1
290
     0
176
     1
 90
       50
176
     1
 62
   256
176
     0
 40
1.0
176
     0
 90
        2
176
     1
  1
strokes_ogs.tif
176
     1
290
     0
176
     1
 40
1.0
176
     1
 40
1.0
176
     1
  0
VISUALSTYLE
  5
2C
102
{ACAD_REACTORS
330
2A
102
}
330
2A
100
AcDbVisualStyle
  2
FlatWithEdges
 70
     1
177
     3
291
     1
 70
    58
 90
        2
176
     1
 90
        1
176
     1
 90
        1
176
     1
 90
        2
176
     1
 40
0.6
176
     1
 40
30.0
176
     1
 62
     7
420
 16777215
176
     1
 90
        1
176
     1
 90
        0
176
     1
 62
     7
176
     1
 62
   257
176
     1
 90
        1
176
     1
 90
        1
176
     1
 40
1.0
176
     1
 90
        0
176
     1
 62
   257
176
     1
 40
1.0
176
     1
 90
        1
176
     1
 90
        6
176
     1
 90
        2
176
     1
 62
     7
176
     1
 90
        5
176
     1
 90
        0
176
     1
 90
        0
176
     1
290
     0
176
     1
 90
       13
176
     1
 40
0.0
176
     1
 90
        0
176
     1
290
     0
176
     1
290
     1
176
     1
290
     1
176
     1
290
     0
176
     1
290
     0
176
     1
290
     0
176
     1
290
     0
176
     1
290
     0
176
     1
290
     0
176
     1
 90
       50
176
     1
 40
0.0
176
     1
 40
1.0
176
     1
 90
        0
176
     1
 62
    18
420
        0
176
     1
 90
       50
176
     1
 90
        3
176
     1
 62
     5
420
      255
176
     1
290
     0
176
     1
 90
       50
176
     1
 90
       50
176
     1
 90
       50
176
     1
290
     0
176
     1
 90
       50
176
     1
 62
   256
176
     0
 40
1.0
176
     0
 90
        2
176
     1
  1
strokes_ogs.tif
176
     1
290
     0
176
     1
 40
1.0
176
     1
 40
1.0
176
     1
  0
VISUALSTYLE
  5
2D
102
{ACAD_REACTORS
330
2A
102
}
330
2A
100
AcDbVisualStyle
  2
Gouraud
 70
     2
177
     3
291
     1
 70
    58
 90
        2
176
     1
 90
        2
176
     1
 90
        1
176
     1
 90
        2
176
     1
 40
0.6
176
     1
 40
30.0
176
     1
 62
     7
420
 16777215
176
     1
 90
        0
176
     1
 90
        0
176
     1
 62
     7
176
     1
 62
   257
176
     1
 90
        1
176
     1
 90
        1
176
     1
 40
1.0
176
     1
 90
        0
176
     1
 62
     7
176
     1
 40
1.0
176
     1
 90
        1
176
     1
 90
        6
176
     1
 90
        2
176
     1
 62
     7
176
     1
 90
        5
176
     1
 90
        0
176
     1
 90
        0
176
     1
290
     0
176
     1
 90
       13
176
     1
 40
0.0
176
     1
 90
        0
176
     1
290
     0
176
     1
290
     1
176
     1
290
     1
176
     1
290
     0
176
     1
290
     0
176
     1
290
     0
176
     1
290
     0
176
     1
290
     0
176
     1
290
     0
176
     1
 90
       50
176
     1
 40
0.0
176
     1
 40
1.0
176
     1
 90
        0
176
     1
 62
    18
420
        0
176
     1
 90
       50
176
     1
 90
        3
176
     1
 62
     5
420
      255
176
     1
290
     0
176
     1
 90
       50
176
     1
 90
       50
176
     1
 90
       50
176
     1
290
     0
176
     1
 90
       50
176
     1
 62
   256
176
     0
 40
1.0
176
     0
 90
        2
176
     1
  1
strokes_ogs.tif
176
     1
290
     0
176
     1
 40
1.0
176
     1
 40
1.0
176
     1
  0
VISUALSTYLE
  5
2E
102
{ACAD_REACTORS
330
2A
102
}
330
2A
100
AcDbVisualStyle
  2
GouraudWithEdges
 70
     3
177
     3
291
     1
 70
    58
 90
        2
176
     1
 90
        2
176
     1
 90
        1
176
     1
 90
        2
176
     1
 40
0.6
176
     1
 40
30.0
176
     1
 62
     7
420
 16777215
176
     1
 90
        1
176
     1
 90
        0
176
     1
 62
     7
176
     1
 62
   257
176
     1
 90
        1
176
     1
 90
        1
176
     1
 40
1.0
176
     1
 90
        0
176
     1
 62
   257
176
     1
 40
1.0
176
     1
 90
        1
176
     1
 90
        6
176
     1
 90
        2
176
     1
 62
     7
176
     1
 90
        5
176
     1
 90
        0
176
     1
 90
        0
176
     1
290
     0
176
     1
 90
       13
176
     1
 40
0.0
176
     1
 90
        0
176
     1
290
     0
176
     1
290
     1
176
     1
290
     1
176
     1
290
     0
176
     1
290
     0
176
     1
290
     0
176
     1
290
     0
176
     1
290
     0
176
     1
290
     0
176
     1
 90
       50
176
     1
 40
0.0
176
     1
 40
1.0
176
     1
 90
        0
176
     1
 62
    18
420
        0
176
     1
 90
       50
176
     1
 90
        3
176
     1
 62
     5
420
      255
176
     1
290
     0
176
     1
 90
       50
176
     1
 90
       50
176
     1
 90
       50
176
     1
290
     0
176
     1
 90
       50
176
     1
 62
   256
176
     0
 40
1.0
176
     0
 90
        2
176
     1
  1
strokes_ogs.tif
176
     1
290
     0
176
     1
 40
1.0
176
     1
 40
1.0
176
     1
  0
VISUALSTYLE
  5
31
102
{ACAD_REACTORS
330
2A
102
}
330
2A
100
AcDbVisualStyle
  2
Hidden
 70
     6
177
     3
291
     0
 70
    58
 90
        1
176
     1
 90
        2
176
     1
 90
        2
176
     1
 90
        0
176
     1
 40
0.6
176
     1
 40
30.0
176
     1
 62
     7
420
 16777215
176
     1
 90
        2
176
     1
 90
        2
176
     1
 62
     7
176
     1
 62
   257
176
     1
 90
        2
176
     1
 90
        1
176
     1
 40
40.0
176
     1
 90
        0
176
     1
 62
   257
176
     1
 40
1.0
176
     1
 90
        1
176
     1
 90
        6
176
     1
 90
        2
176
     1
 62
     7
176
     1
 90
        3
176
     1
 90
        0
176
     1
 90
        0
176
     1
290
     0
176
     1
 90
        1
176
     1
 40
0.0
176
     1
 90
        0
176
     1
290
     0
176
     1
290
     1
176
     1
290
     1
176
     1
290
     0
176
     1
290
     0
176
     1
290
     0
176
     1
290
     0
176
     1
290
     0
176
     1
290
     0
176
     1
 90
       50
176
     1
 40
0.0
176
     1
 40
1.0
176
     1
 90
        0
176
     1
 62
    18
420
        0
176
     1
 90
       50
176
     1
 90
        3
176
     1
 62
     5
420
      255
176
     1
290
     0
176
     1
 90
       50
176
     1
 90
       50
176
     1
 90
       50
176
     1
290
     0
176
     1
 90
       50
176
     1
 62
   256
176
     0
 40
1.0
176
     0
 90
        2
176
     1
  1
strokes_ogs.tif
176
     1
290
     0
176
     1
 40
1.0
176
     1
 40
1.0
176
     1
  0
VISUALSTYLE
  5
3B
102
{ACAD_REACTORS
330
2A
102
}
330
2A
100
AcDbVisualStyle
  2
JitterOff
 70
    20
177
     3
291
     1
 70
    58
 90
        2
176
     0
 90
        2
176
     0
 90
        0
176
     0
 90
        0
176
     0
 40
0.6
176
     0
 40
30.0
176
     0
 62
     7
420
 16777215
176
     0
 90
        1
176
     0
 90
        4
176
     0
 62
     7
176
     0
 62
   257
176
     0
 90
        1
176
     0
 90
        1
176
     0
 40
1.0
176
     0
 90
       10
176
     2
 62
     7
176
     0
 40
1.0
176
     0
 90
        1
176
     0
 90
        6
176
     0
 90
        2
176
     0
 62
     7
176
     0
 90
        5
176
     0
 90
        0
176
     0
 90
        0
176
     0
290
     0
176
     0
 90
        1
176
     0
 40
0.0
176
     0
 90
        0
176
     0
290
     0
176
     0
290
     1
176
     0
290
     1
176
     0
290
     0
176
     0
290
     0
176
     0
290
     0
176
     0
290
     0
176
     0
290
     0
176
     0
290
     0
176
     0
 90
       50
176
     0
 40
0.0
176
     0
 40
1.0
176
     0
 90
        0
176
     0
 62
    18
420
        0
176
     0
 90
       50
176
     0
 90
        3
176
     0
 62
     5
420
      255
176
     0
290
     0
176
     0
 90
       50
176
     0
 90
       50
176
     0
 90
       50
176
     0
290
     0
176
     0
 90
       50
176
     0
 62
   256
176
     0
 40
1.0
176
     0
 90
        2
176
     0
  1
strokes_ogs.tif
176
     0
290
     0
176
     0
 40
1.0
176
     0
 40
1.0
176
     0
  0
VISUALSTYLE
  5
38
102
{ACAD_REACTORS
330
2A
102
}
330
2A
100
AcDbVisualStyle
  2
Linepattern
 70
    14
177
     3
291
     1
 70
    58
 90
        2
176
     1
 90
        2
176
     1
 90
        0
176
     1
 90
        0
176
     1
 40
0.6
176
     1
 40
30.0
176
     1
 62
     7
420
 16777215
176
     1
 90
        1
176
     1
 90
        4
176
     1
 62
     7
176
     1
 62
   257
176
     1
 90
        7
176
     1
 90
        7
176
     1
 40
1.0
176
     1
 90
        8
176
     1
 62
     7
176
     1
 40
1.0
176
     1
 90
        1
176
     1
 90
        6
176
     1
 90
        2
176
     1
 62
     7
176
     1
 90
        5
176
     1
 90
        0
176
     1
 90
        0
176
     1
290
     0
176
     1
 90
        1
176
     1
 40
0.0
176
     1
 90
        0
176
     1
290
     0
176
     1
290
     1
176
     1
290
     1
176
     1
290
     0
176
     1
290
     0
176
     1
290
     0
176
     1
290
     0
176
     1
290
     0
176
     1
290
     0
176
     1
 90
       50
176
     1
 40
0.0
176
     1
 40
1.0
176
     1
 90
        0
176
     1
 62
    18
420
        0
176
     1
 90
       50
176
     1
 90
        3
176
     1
 62
     5
420
      255
176
     1
290
     0
176
     1
 90
       50
176
     1
 90
       50
176
     1
 90
       50
176
     1
290
     0
176
     1
 90
       50
176
     1
 62
   256
176
     0
 40
1.0
176
     0
 90
        2
176
     1
  1
strokes_ogs.tif
176
     1
290
     0
176
     1
 40
1.0
176
     1
 40
1.0
176
     1
  0
VISUALSTYLE
  5
3C
102
{ACAD_REACTORS
330
2A
102
}
330
2A
100
AcDbVisualStyle
  2
OverhangOff
 70
    21
177
     3
291
     1
 70
    58
 90
        2
176
     0
 90
        2
176
     0
 90
        0
176
     0
 90
        0
176
     0
 40
0.6
176
     0
 40
30.0
176
     0
 62
     7
420
 16777215
176
     0
 90
        1
176
     0
 90
        4
176
     0
 62
     7
176
     0
 62
   257
176
     0
 90
        1
176
     0
 90
        1
176
     0
 40
1.0
176
     0
 90
        9
176
     2
 62
     7
176
     0
 40
1.0
176
     0
 90
        1
176
     0
 90
        6
176
     0
 90
        2
176
     0
 62
     7
176
     0
 90
        5
176
     0
 90
        0
176
     0
 90
        0
176
     0
290
     0
176
     0
 90
        1
176
     0
 40
0.0
176
     0
 90
        0
176
     0
290
     0
176
     0
290
     1
176
     0
290
     1
176
     0
290
     0
176
     0
290
     0
176
     0
290
     0
176
     0
290
     0
176
     0
290
     0
176
     0
290
     0
176
     0
 90
       50
176
     0
 40
0.0
176
     0
 40
1.0
176
     0
 90
        0
176
     0
 62
    18
420
        0
176
     0
 90
       50
176
     0
 90
        3
176
     0
 62
     5
420
      255
176
     0
290
     0
176
     0
 90
       50
176
     0
 90
       50
176
     0
 90
       50
176
     0
290
     0
176
     0
 90
       50
176
     0
 62
   256
176
     0
 40
1.0
176
     0
 90
        2
176
     0
  1
strokes_ogs.tif
176
     0
290
     0
176
     0
 40
1.0
176
     0
 40
1.0
176
     0
  0
VISUALSTYLE
  5
33
102
{ACAD_REACTORS
330
2A
102
}
330
2A
100
AcDbVisualStyle
  2
Realistic
 70
     8
177
     3
291
     0
 70
    58
 90
        2
176
     1
 90
        3
176
     1
 90
        0
176
     1
 90
        2
176
     1
 40
0.6
176
     1
 40
30.0
176
     1
 62
     7
420
 16777215
176
     1
 90
        0
176
     1
 90
        0
176
     1
 62
     7
176
     1
 62
   257
176
     1
 90
        1
176
     1
 90
        1
176
     1
 40
1.0
176
     1
 90
        8
176
     1
 62
   257
176
     1
 40
1.0
176
     1
 90
        1
176
     1
 90
        6
176
     1
 90
        2
176
     1
 62
     7
176
     1
 90
        3
176
     1
 90
        0
176
     1
 90
        0
176
     1
290
     0
176
     1
 90
       13
176
     1
 40
0.0
176
     1
 90
        0
176
     1
290
     0
176
     1
290
     1
176
     1
290
     1
176
     1
290
     0
176
     1
290
     0
176
     1
290
     0
176
     1
290
     0
176
     1
290
     0
176
     1
290
     0
176
     1
 90
       50
176
     1
 40
0.0
176
     1
 40
1.0
176
     1
 90
        0
176
     1
 62
    18
420
        0
176
     1
 90
       50
176
     1
 90
        3
176
     1
 62
     5
420
      255
176
     1
290
     0
176
     1
 90
       50
176
     1
 90
       50
176
     1
 90
       50
176
     1
290
     0
176
     1
 90
       50
176
     1
 62
   256
176
     0
 40
1.0
176
     0
 90
        2
176
     1
  1
strokes_ogs.tif
176
     1
290
     0
176
     1
 40
1.0
176
     1
 40
1.0
176
     1
  0
VISUALSTYLE
  5
42
102
{ACAD_REACTORS
330
2A
102
}
330
2A
100
AcDbVisualStyle
  2
Shaded
 70
    27
177
     3
291
     0
 70
    58
 90
        2
176
     1
 90
        2
176
     1
 90
        1
176
     1
 90
        2
176
     1
 40
0.6
176
     1
 40
30.0
176
     1
 62
     7
420
 16777215
176
     1
 90
        0
176
     1
 90
        4
176
     1
 62
     7
176
     1
 62
   257
176
     1
 90
        1
176
     1
 90
        1
176
     1
 40
1.0
176
     1
 90
        8
176
     1
 62
   257
176
     1
 40
1.0
176
     1
 90
        1
176
     1
 90
        6
176
     1
 90
        2
176
     1
 62
     8
420
  7895160
176
     1
 90
        3
176
     1
 90
        0
176
     1
 90
        0
176
     1
290
     0
176
     1
 90
        5
176
     1
 40
0.0
176
     1
 90
        0
176
     1
290
     0
176
     1
290
     1
176
     1
290
     1
176
     1
290
     0
176
     1
290
     0
176
     1
290
     0
176
     1
290
     0
176
     1
290
     0
176
     1
290
     0
176
     1
 90
       50
176
     1
 40
0.0
176
     1
 40
1.0
176
     1
 90
        0
176
     1
 62
    18
420
        0
176
     1
 90
       50
176
     1
 90
        3
176
     1
 62
     5
420
      255
176
     1
290
     0
176
     1
 90
       50
176
     1
 90
       50
176
     1
 90
       50
176
     1
290
     0
176
     1
 90
       50
176
     1
 62
   256
176
     0
 40
1.0
176
     0
 90
        2
176
     1
  1
strokes_ogs.tif
176
     1
290
     0
176
     1
 40
1.0
176
     1
 40
1.0
176
     1
  0
VISUALSTYLE
  5
41
102
{ACAD_REACTORS
330
2A
102
}
330
2A
100
AcDbVisualStyle
  2
Shaded with edges
 70
    26
177
     3
291
     0
 70
    58
 90
        2
176
     1
 90
        2
176
     1
 90
        1
176
     1
 90
        2
176
     1
 40
0.6
176
     1
 40
30.0
176
     1
 62
     7
420
 16777215
176
     1
 90
        1
176
     1
 90
       10
176
     1
 62
     7
176
     1
 62
   257
176
     1
 90
        2
176
     1
 90
        1
176
     1
 40
1.0
176
     1
 90
        8
176
     1
 62
   257
176
     1
 40
1.0
176
     1
 90
        1
176
     1
 90
        6
176
     1
 90
        2
176
     1
 62
     7
176
     1
 90
        3
176
     1
 90
        0
176
     1
 90
        0
176
     1
290
     0
176
     1
 90
        5
176
     1
 40
0.0
176
     1
 90
        0
176
     1
290
     0
176
     1
290
     1
176
     1
290
     1
176
     1
290
     0
176
     1
290
     0
176
     1
290
     0
176
     1
290
     0
176
     1
290
     0
176
     1
290
     0
176
     1
 90
       50
176
     1
 40
0.0
176
     1
 40
1.0
176
     1
 90
        0
176
     1
 62
    18
420
        0
176
     1
 90
       50
176
     1
 90
        3
176
     1
 62
     5
420
      255
176
     1
290
     0
176
     1
 90
       50
176
     1
 90
       50
176
     1
 90
       50
176
     1
290
     0
176
     1
 90
       50
176
     1
 62
   256
176
     0
 40
1.0
176
     0
 90
        2
176
     1
  1
strokes_ogs.tif
176
     1
290
     0
176
     1
 40
1.0
176
     1
 40
1.0
176
     1
  0
VISUALSTYLE
  5
3E
102
{ACAD_REACTORS
330
2A
102
}
330
2A
100
AcDbVisualStyle
  2
Shades of Gray
 70
    23
177
     3
291
     0
 70
    58
 90
        2
176
     1
 90
        2
176
     1
 90
        3
176
     1
 90
        0
176
     1
 40
0.6
176
     1
 40
30.0
176
     1
 62
     7
420
 16777215
176
     1
 90
        2
176
     1
 90
        2
176
     1
 62
     7
176
     1
 62
     7
176
     1
 90
        1
176
     1
 90
        1
176
     1
 40
40.0
176
     1
 90
        8
176
     1
 62
     7
176
     1
 40
1.0
176
     1
 90
        1
176
     1
 90
        6
176
     1
 90
        2
176
     1
 62
     7
176
     1
 90
        3
176
     1
 90
        0
176
     1
 90
        0
176
     1
290
     0
176
     1
 90
        1
176
     1
 40
0.0
176
     1
 90
        0
176
     1
290
     0
176
     1
290
     1
176
     1
290
     1
176
     1
290
     0
176
     1
290
     0
176
     1
290
     0
176
     1
290
     0
176
     1
290
     0
176
     1
290
     0
176
     1
 90
       50
176
     1
 40
0.0
176
     1
 40
1.0
176
     1
 90
        0
176
     1
 62
    18
420
        0
176
     1
 90
       50
176
     1
 90
        3
176
     1
 62
     5
420
      255
176
     1
290
     0
176
     1
 90
       50
176
     1
 90
       50
176
     1
 90
       50
176
     1
290
     0
176
     1
 90
       50
176
     1
 62
   256
176
     0
 40
1.0
176
     0
 90
        2
176
     1
  1
strokes_ogs.tif
176
     1
290
     0
176
     1
 40
1.0
176
     1
 40
1.0
176
     1
  0
VISUALSTYLE
  5
3F
102
{ACAD_REACTORS
330
2A
102
}
330
2A
100
AcDbVisualStyle
  2
Sketchy
 70
    24
177
     3
291
     0
 70
    58
 90
        1
176
     1
 90
        2
176
     1
 90
        2
176
     1
 90
        0
176
     1
 40
0.6
176
     1
 40
30.0
176
     1
 62
     7
420
 16777215
176
     1
 90
        2
176
     1
 90
        2
176
     1
 62
     7
176
     1
 62
     7
176
     1
 90
        1
176
     1
 90
        1
176
     1
 40
40.0
176
     1
 90
       11
176
     1
 62
     7
176
     1
 40
1.0
176
     1
 90
        1
176
     1
 90
        6
176
     1
 90
        2
176
     1
 62
     7
176
     1
 90
        6
176
     1
 90
        0
176
     1
 90
        0
176
     1
290
     0
176
     1
 90
        1
176
     1
 40
0.0
176
     1
 90
        0
176
     1
290
     0
176
     1
290
     1
176
     1
290
     1
176
     1
290
     0
176
     1
290
     0
176
     1
290
     0
176
     1
290
     0
176
     1
290
     0
176
     1
290
     0
176
     1
 90
       50
176
     1
 40
0.0
176
     1
 40
1.0
176
     1
 90
        0
176
     1
 62
    18
420
        0
176
     1
 90
       50
176
     1
 90
        3
176
     1
 62
     5
420
      255
176
     1
290
     0
176
     1
 90
       50
176
     1
 90
       50
176
     1
 90
       50
176
     1
290
     0
176
     1
 90
       50
176
     1
 62
   256
176
     0
 40
1.0
176
     0
 90
        2
176
     1
  1
strokes_ogs.tif
176
     1
290
     0
176
     1
 40
1.0
176
     1
 40
1.0
176
     1
  0
VISUALSTYLE
  5
37
102
{ACAD_REACTORS
330
2A
102
}
330
2A
100
AcDbVisualStyle
  2
Thicken
 70
    13
177
     3
291
     1
 70
    58
 90
        2
176
     1
 90
        2
176
     1
 90
        0
176
     1
 90
        0
176
     1
 40
0.6
176
     1
 40
30.0
176
     1
 62
     7
420
 16777215
176
     1
 90
        1
176
     1
 90
        4
176
     1
 62
     7
176
     1
 62
   257
176
     1
 90
        1
176
     1
 90
        1
176
     1
 40
1.0
176
     1
 90
       12
176
     1
 62
     7
176
     1
 40
1.0
176
     1
 90
        1
176
     1
 90
        6
176
     1
 90
        2
176
     1
 62
     7
176
     1
 90
        5
176
     1
 90
        0
176
     1
 90
        0
176
     1
290
     0
176
     1
 90
        1
176
     1
 40
0.0
176
     1
 90
        0
176
     1
290
     0
176
     1
290
     1
176
     1
290
     1
176
     1
290
     0
176
     1
290
     0
176
     1
290
     0
176
     1
290
     0
176
     1
290
     0
176
     1
290
     0
176
     1
 90
       50
176
     1
 40
0.0
176
     1
 40
1.0
176
     1
 90
        0
176
     1
 62
    18
420
        0
176
     1
 90
       50
176
     1
 90
        3
176
     1
 62
     5
420
      255
176
     1
290
     0
176
     1
 90
       50
176
     1
 90
       50
176
     1
 90
       50
176
     1
290
     0
176
     1
 90
       50
176
     1
 62
   256
176
     0
 40
1.0
176
     0
 90
        2
176
     1
  1
strokes_ogs.tif
176
     1
290
     0
176
     1
 40
1.0
176
     1
 40
1.0
176
     1
  0
VISUALSTYLE
  5
30
102
{ACAD_REACTORS
330
2A
102
}
330
2A
100
AcDbVisualStyle
  2
Wireframe
 70
     5
177
     3
291
     0
 70
    58
 90
        0
176
     1
 90
        2
176
     1
 90
        0
176
     1
 90
        0
176
     1
 40
0.6
176
     1
 40
30.0
176
     1
 62
     7
420
 16777215
176
     1
 90
        1
176
     1
 90
        4
176
     1
 62
     7
176
     1
 62
   257
176
     1
 90
        1
176
     1
 90
        1
176
     1
 40
1.0
176
     1
 90
        0
176
     1
 62
   257
176
     1
 40
1.0
176
     1
 90
        1
176
     1
 90
        6
176
     1
 90
        2
176
     1
 62
     7
176
     1
 90
        3
176
     1
 90
        0
176
     1
 90
        0
176
     1
290
     0
176
     1
 90
        1
176
     1
 40
0.0
176
     1
 90
        0
176
     1
290
     0
176
     1
290
     1
176
     1
290
     1
176
     1
290
     0
176
     1
290
     0
176
     1
290
     0
176
     1
290
     0
176
     1
290
     0
176
     1
290
     0
176
     1
 90
       50
176
     1
 40
0.0
176
     1
 40
1.0
176
     1
 90
        0
176
     1
 62
    18
420
        0
176
     1
 90
       50
176
     1
 90
        3
176
     1
 62
     5
420
      255
176
     1
290
     0
176
     1
 90
       50
176
     1
 90
       50
176
     1
 90
       50
176
     1
290
     0
176
     1
 90
       50
176
     1
 62
   256
176
     0
 40
1.0
176
     0
 90
        2
176
     1
  1
strokes_ogs.tif
176
     1
290
     0
176
     1
 40
1.0
176
     1
 40
1.0
176
     1
  0
VISUALSTYLE
  5
40
102
{ACAD_REACTORS
330
2A
102
}
330
2A
100
AcDbVisualStyle
  2
X-Ray
 70
    25
177
     3
291
     0
 70
    58
 90
        2
176
     1
 90
        2
176
     1
 90
        1
176
     1
 90
        1
176
     1
 40
0.5
176
     1
 40
30.0
176
     1
 62
     7
420
 16777215
176
     1
 90
        1
176
     1
 90
        0
176
     1
 62
     7
176
     1
 62
   257
176
     1
 90
        1
176
     1
 90
        1
176
     1
 40
1.0
176
     1
 90
        8
176
     1
 62
     7
176
     1
 40
1.0
176
     1
 90
        1
176
     1
 90
        6
176
     1
 90
        2
176
     1
 62
     7
176
     1
 90
        3
176
     1
 90
        0
176
     1
 90
        0
176
     1
290
     0
176
     1
 90
       13
176
     1
 40
0.0
176
     1
 90
        0
176
     1
290
     0
176
     1
290
     1
176
     1
290
     1
176
     1
290
     0
176
     1
290
     0
176
     1
290
     0
176
     1
290
     0
176
     1
290
     0
176
     1
290
     0
176
     1
 90
       50
176
     1
 40
0.0
176
     1
 40
1.0
176
     1
 90
        0
176
     1
 62
    18
420
        0
176
     1
 90
       50
176
     1
 90
        3
176
     1
 62
     5
420
      255
176
     1
290
     0
176
     1
 90
       50
176
     1
 90
       50
176
     1
 90
       50
176
     1
290
     0
176
     1
 90
       50
176
     1
 62
   256
176
     0
 40
1.0
176
     0
 90
        2
176
     1
  1
strokes_ogs.tif
176
     1
290
     0
176
     1
 40
1.0
176
     1
 40
1.0
176
     1
  0
DICTIONARYVAR
  5
5A4D9
102
{ACAD_REACTORS
330
5A4D8
102
}
330
5A4D8
100
DictionaryVariables
280
     0
  1
1:1
  0
DICTIONARYVAR
  5
5A84D
102
{ACAD_REACTORS
330
5A4D8
102
}
330
5A4D8
100
DictionaryVariables
280
     0
  1
STANDARD
  0
DICTIONARYVAR
  5
5A84C
102
{ACAD_REACTORS
330
5A4D8
102
}
330
5A4D8
100
DictionaryVariables
280
     0
  1
STANDARD
  0
DICTIONARYVAR
  5
5A84E
102
{ACAD_REACTORS
330
5A4D8
102
}
330
5A4D8
100
DictionaryVariables
280
     0
  1
Imperial24
  0
DICTIONARYVAR
  5
5A84F
102
{ACAD_REACTORS
330
5A4D8
102
}
330
5A4D8
100
DictionaryVariables
280
     0
  1
Imperial24
  0
DICTIONARYVAR
  5
5A851
102
{ACAD_REACTORS
330
5A4D8
102
}
330
5A4D8
100
DictionaryVariables
280
     0
  1
1
  0
DICTIONARYVAR
  5
5A852
102
{ACAD_REACTORS
330
5A4D8
102
}
330
5A4D8
100
DictionaryVariables
280
     0
  1
15
  0
DICTIONARYVAR
  5
5A850
102
{ACAD_REACTORS
330
5A4D8
102
}
330
5A4D8
100
DictionaryVariables
280
     0
  1
0
  0
DICTIONARYVAR
  5
5A4DA
102
{ACAD_REACTORS
330
5A4D8
102
}
330
5A4D8
100
DictionaryVariables
280
     0
  1
1
  0
DICTIONARY
  5
5A849
330
5A51A
100
AcDbDictionary
280
     1
281
     1
  3
ACAD_XREC_ROUNDTRIP
360
5A9CF
  0
DICTIONARY
  5
5A847
330
5A519
100
AcDbDictionary
280
     1
281
     1
  3
ACAD_XREC_ROUNDTRIP
360
5A9CE
  0
DICTIONARY
  5
5A9CC
330
5A517
100
AcDbDictionary
280
     1
281
     1
  3
ACAD_ROUNDTRIP_2008_TABLESTYLE_CELLSTYLEMAP
360
5A9CD
  0
XRECORD
  5
5A9CF
102
{ACAD_REACTORS
330
5A849
102
}
330
5A849
100
AcDbXrecord
280
     1
102
DISPLAYNAME
  1
Imperial24
102
FLAGS
 90
        0
  0
XRECORD
  5
5A9CE
102
{ACAD_REACTORS
330
5A847
102
}
330
5A847
100
AcDbXrecord
280
     1
102
DISPLAYNAME
  1
Imperial24
102
FLAGS
 90
        0
  0
CELLSTYLEMAP
  5
5A9CD
102
{ACAD_REACTORS
330
5A9CC
102
}
330
5A9CC
100
AcDbCellStyleMap
 90
        3
300
CELLSTYLE
  1
TABLEFORMAT_BEGIN
 90
        5
170
     1
 91
        0
 92
    32768
 62
   257
 93
        1
300
CONTENTFORMAT
  1
CONTENTFORMAT_BEGIN
 90
        0
 91
        0
 92
      512
 93
        0
300

 40
0.0
140
1.0
 94
        5
 62
     0
340
11
144
0.25
309
CONTENTFORMAT_END
171
     0
 94
        0
309
TABLEFORMAT_END
  1
CELLSTYLE_BEGIN
 90
        1
 91
        1
300
_TITLE
309
CELLSTYLE_END
300
CELLSTYLE
  1
TABLEFORMAT_BEGIN
 90
        5
170
     1
 91
        0
 92
        0
 62
   257
 93
        1
300
CONTENTFORMAT
  1
CONTENTFORMAT_BEGIN
 90
        0
 91
        0
 92
      512
 93
        0
300

 40
0.0
140
1.0
 94
        5
 62
     0
340
11
144
0.18
309
CONTENTFORMAT_END
171
     0
 94
        0
309
TABLEFORMAT_END
  1
CELLSTYLE_BEGIN
 90
        2
 91
        1
300
_HEADER
309
CELLSTYLE_END
300
CELLSTYLE
  1
TABLEFORMAT_BEGIN
 90
        5
170
     1
 91
        0
 92
        0
 62
   257
 93
        1
300
CONTENTFORMAT
  1
CONTENTFORMAT_BEGIN
 90
        0
 91
        0
 92
      512
 93
        0
300

 40
0.0
140
1.0
 94
        2
 62
     0
340
11
144
0.18
309
CONTENTFORMAT_END
171
     0
 94
        0
309
TABLEFORMAT_END
  1
CELLSTYLE_BEGIN
 90
        3
 91
        2
300
_DATA
309
CELLSTYLE_END
  0
ENDSEC
  0
SECTION
  2
ACDSDATA
 70
     2
 71
     8
  0
ACDSSCHEMA
 90
        0
  1
AcDb_Thumbnail_Schema
  2
AcDbDs::ID
280
    10
 91
        8
  2
Thumbnail_Data
280
    15
 91
        0
101
ACDSRECORD
 95
        0
 90
        1
  2
AcDbDs::TreatedAsObjectData
280
     1
291
     1
101
ACDSRECORD
 95
        0
 90
        2
  2
AcDbDs::Legacy
280
     1
291
     1
101
ACDSRECORD
  1
AcDbDs::ID
 90
        3
  2
AcDs:Indexable
280
     1
291
     1
101
ACDSRECORD
  1
AcDbDs::ID
 90
        4
  2
AcDbDs::HandleAttribute
280
     7
282
     1
  0
ACDSSCHEMA
 90
        1
  1
AcDbDs::TreatedAsObjectDataSchema
  2
AcDbDs::TreatedAsObjectData
280
     1
 91
        0
  0
ACDSSCHEMA
 90
        2
  1
AcDbDs::LegacySchema
  2
AcDbDs::Legacy
280
     1
 91
        0
  0
ACDSSCHEMA
 90
        3
  1
AcDbDs::IndexedPropertySchema
  2
AcDs:Indexable
280
     1
 91
        0
  0
ACDSSCHEMA
 90
        4
  1
AcDbDs::HandleAttributeSchema
  2
AcDbDs::HandleAttribute
280
     7
 91
        1
284
     1
  0
ACDSRECORD
 90
        0
  2
AcDbDs::ID
280
    10
320
22
  2
Thumbnail_Data
280
    15
 94
     1392
310
89504E470D0A1A0A0000000D4948445200000100000000670803000000D82A6C0200000300504C5445000000000000C8C8C80000000000000000000000000000000000000000000000000000330000660000990000CC0000FF0033000033330033660033990033CC0033FF0066000066330066660066990066CC0066FF0099
310
000099330099660099990099CC0099FF00CC0000CC3300CC6600CC9900CCCC00CCFF00FF0000FF3300FF6600FF9900FFCC00FFFF3300003300333300663300993300CC3300FF3333003333333333663333993333CC3333FF3366003366333366663366993366CC3366FF3399003399333399663399993399CC3399FF33CC00
310
33CC3333CC6633CC9933CCCC33CCFF33FF0033FF3333FF6633FF9933FFCC33FFFF6600006600336600666600996600CC6600FF6633006633336633666633996633CC6633FF6666006666336666666666996666CC6666FF6699006699336699666699996699CC6699FF66CC0066CC3366CC6666CC9966CCCC66CCFF66FF0066
310
FF3366FF6666FF9966FFCC66FFFF9900009900339900669900999900CC9900FF9933009933339933669933999933CC9933FF9966009966339966669966999966CC9966FF9999009999339999669999999999CC9999FF99CC0099CC3399CC6699CC9999CCCC99CCFF99FF0099FF3399FF6699FF9999FFCC99FFFFCC0000CC00
310
33CC0066CC0099CC00CCCC00FFCC3300CC3333CC3366CC3399CC33CCCC33FFCC6600CC6633CC6666CC6699CC66CCCC66FFCC9900CC9933CC9966CC9999CC99CCCC99FFCCCC00CCCC33CCCC66CCCC99CCCCCCCCCCFFCCFF00CCFF33CCFF66CCFF99CCFFCCCCFFFFFF0000FF0033FF0066FF0099FF00CCFF00FFFF3300FF3333
310
FF3366FF3399FF33CCFF33FFFF6600FF6633FF6666FF6699FF66CCFF66FFFF9900FF9933FF9966FF9999FF99CCFF99FFFFCC00FFCC33FFCC66FFCC99FFCCCCFFCCFFFFFF00FFFF33FFFF66FFFF99FFFFCCFFFFFF0000000D0D0D1A1A1A2828283535354343435050505D5D5D6B6B6B787878868686939393A1A1A1AEAEAEBB
310
BBBBC9C9C9D6D6D6E4E4E4F1F1F1FFFFFF00000000000000000000000000000000000000000000000000000000000008F1915C000001F14944415478DAED9DD96EC3300C04F9FFFFBBEF4593269675D816EA20A667F926030DC411255E821AF14DD1430229AA0408603C8210180E0CC05B0067004013A8971C6702AAE30001
310
0DE0B5EAAB01C80016959F046800B43506EC80C60D92F6C0EFC1D7B841503EF050B58D033804D43178D14C4047BE9108D04A02BD43300C20B87B8057145B6B4C2C0A963A334BC3EF4C985B1A07D7C4ABC2005A7F13088BC562B158B86100FA8A08391CD2CE981700A28C40135FEF18E66BF6BB72EA3F9AB7662D23E319B951
310
EAD0DCDE485934293DDCFF0094AE329BEDFFADDB9CBFEBF64C97DF4B61F8AB056B66BDA743BF5D50FEDC9529BCBBBE1A9EE13300567FF92210D706D0D3B2A3C72100EADF260501502403A07D003A0C710C409707D01EFC9A07A091FFC8084013F6ABEA3CBD0700CD03906C01F701403B03B05E001F0738125C72019D9D0B28
310
472ED0A483E76483AB6430434E5C4EFF8C7A40B69AC8F69C272B42E3C0E8FAA5116E4D707BC91055E1705F20E62C3D58ED417A6F30F0DDE1F0FD80D2C585C562B1582C504748D7DF04E8EB0FB68184B5BE8F193FF33139A18F82A6EB23E8FEA712F0030A5B7708100E401D247E484906008A817A005851A0C0FAB72F28D200
310
440500F8A2A4A2BC4513D8D6607197049C0C53D3413A003FAF6F00E30D413C037800E8FF63A4A0F0D529FC00D0E6B2241A8DD6EF0000000049454E44AE4260822B358727430A6C2330DE24255C73B43DF546BC5ABA3DFF04CB062FDF8011101EC0ABC6F1018B0CB40EBE2EC5260000000049454E44AE42608282
  0
ENDSEC
  0
EOF
