  0
SECTION
  2
HEADER
  9
$ACADVER
  1
AC1027
  9
$ACADMAINTVER
 70
   105
  9
$DWGCODEPAGE
  3
ANSI_1252
  9
$LASTSAVEDBY
  1
Sandra
  9
$REQUIREDVERSIONS
160
                 0
  9
$INSBASE
 10
0.0
 20
0.0
 30
0.0
  9
$EXTMIN
 10
-1339.916175373063
 20
-1339.916175373063
 30
0.0
  9
$EXTMAX
 10
1339.916175373063
 20
1339.916175373063
 30
374.2096389157881
  9
$LIMMIN
 10
0.0
 20
0.0
  9
$LIMMAX
 10
12.0
 20
9.0
  9
$ORTHOMODE
 70
     1
  9
$REGENMODE
 70
     1
  9
$FILLMODE
 70
     1
  9
$QTEXTMODE
 70
     0
  9
$MIRRTEXT
 70
     1
  9
$LTSCALE
 40
1.0
  9
$ATTMODE
 70
     1
  9
$TEXTSIZE
 40
0.2
  9
$TRACEWID
 40
0.05
  9
$TEXTSTYLE
  7
Standard
  9
$CLAYER
  8
Default
  9
$CELTYPE
  6
ByLayer
  9
$CECOLOR
 62
   256
  9
$CELTSCALE
 40
1.0
  9
$DISPSILH
 70
     0
  9
$DIMSCALE
 40
1.0
  9
$DIMASZ
 40
0.18
  9
$DIMEXO
 40
0.0625
  9
$DIMDLI
 40
0.38
  9
$DIMRND
 40
0.0
  9
$DIMDLE
 40
0.0
  9
$DIMEXE
 40
0.18
  9
$DIMTP
 40
0.0
  9
$DIMTM
 40
0.0
  9
$DIMTXT
 40
0.18
  9
$DIMCEN
 40
0.09
  9
$DIMTSZ
 40
0.0
  9
$DIMTOL
 70
     0
  9
$DIMLIM
 70
     0
  9
$DIMTIH
 70
     1
  9
$DIMTOH
 70
     1
  9
$DIMSE1
 70
     0
  9
$DIMSE2
 70
     0
  9
$DIMTAD
 70
     0
  9
$DIMZIN
 70
     0
  9
$DIMBLK
  1

  9
$DIMASO
 70
     1
  9
$DIMSHO
 70
     1
  9
$DIMPOST
  1

  9
$DIMAPOST
  1

  9
$DIMALT
 70
     0
  9
$DIMALTD
 70
     2
  9
$DIMALTF
 40
25.4
  9
$DIMLFAC
 40
1.0
  9
$DIMTOFL
 70
     0
  9
$DIMTVP
 40
0.0
  9
$DIMTIX
 70
     0
  9
$DIMSOXD
 70
     0
  9
$DIMSAH
 70
     0
  9
$DIMBLK1
  1

  9
$DIMBLK2
  1

  9
$DIMSTYLE
  2
Standard
  9
$DIMCLRD
 70
     0
  9
$DIMCLRE
 70
     0
  9
$DIMCLRT
 70
     0
  9
$DIMTFAC
 40
1.0
  9
$DIMGAP
 40
0.09
  9
$DIMJUST
 70
     0
  9
$DIMSD1
 70
     0
  9
$DIMSD2
 70
     0
  9
$DIMTOLJ
 70
     1
  9
$DIMTZIN
 70
     0
  9
$DIMALTZ
 70
     0
  9
$DIMALTTZ
 70
     0
  9
$DIMUPT
 70
     0
  9
$DIMDEC
 70
     4
  9
$DIMTDEC
 70
     4
  9
$DIMALTU
 70
     2
  9
$DIMALTTD
 70
     2
  9
$DIMTXSTY
  7
Standard
  9
$DIMAUNIT
 70
     0
  9
$DIMADEC
 70
     0
  9
$DIMALTRND
 40
0.0
  9
$DIMAZIN
 70
     0
  9
$DIMDSEP
 70
    46
  9
$DIMATFIT
 70
     3
  9
$DIMFRAC
 70
     0
  9
$DIMLDRBLK
  1

  9
$DIMLUNIT
 70
     2
  9
$DIMLWD
 70
    -2
  9
$DIMLWE
 70
    -2
  9
$DIMTMOVE
 70
     2
  9
$DIMFXL
 40
1.0
  9
$DIMFXLON
 70
     0
  9
$DIMJOGANG
 40
0.7853981633974483
  9
$DIMTFILL
 70
     0
  9
$DIMTFILLCLR
 70
     0
  9
$DIMARCSYM
 70
     0
  9
$DIMLTYPE
  6

  9
$DIMLTEX1
  6

  9
$DIMLTEX2
  6

  9
$DIMTXTDIRECTION
 70
     0
  9
$LUNITS
 70
     2
  9
$LUPREC
 70
     3
  9
$SKETCHINC
 40
0.1
  9
$FILLETRAD
 40
0.5
  9
$AUNITS
 70
     0
  9
$AUPREC
 70
     0
  9
$MENU
  1
.
  9
$ELEVATION
 40
0.0
  9
$PELEVATION
 40
0.0
  9
$THICKNESS
 40
0.0
  9
$LIMCHECK
 70
     0
  9
$CHAMFERA
 40
0.0
  9
$CHAMFERB
 40
0.0
  9
$CHAMFERC
 40
0.0
  9
$CHAMFERD
 40
0.0
  9
$SKPOLY
 70
     0
  9
$TDCREATE
 40
2456540.253950880
  9
$TDUCREATE
 40
2456540.420617546
  9
$TDUPDATE
 40
2457842.441378542
  9
$TDUUPDATE
 40
2457842.608045208
  9
$TDINDWG
 40
0.0066800116
  9
$TDUSRTIMER
 40
0.0066800116
  9
$USRTIMER
 70
     1
  9
$ANGBASE
 50
0.0
  9
$ANGDIR
 70
     0
  9
$PDMODE
 70
     0
  9
$PDSIZE
 40
0.0
  9
$PLINEWID
 40
0.0
  9
$SPLFRAME
 70
     0
  9
$SPLINETYPE
 70
     6
  9
$SPLINESEGS
 70
     8
  9
$HANDSEED
  5
325
  9
$SURFTAB1
 70
     6
  9
$SURFTAB2
 70
     6
  9
$SURFTYPE
 70
     6
  9
$SURFU
 70
     6
  9
$SURFV
 70
     6
  9
$UCSBASE
  2

  9
$UCSNAME
  2

  9
$UCSORG
 10
0.0
 20
0.0
 30
0.0
  9
$UCSXDIR
 10
1.0
 20
0.0
 30
0.0
  9
$UCSYDIR
 10
0.0
 20
1.0
 30
0.0
  9
$UCSORTHOREF
  2

  9
$UCSORTHOVIEW
 70
     0
  9
$UCSORGTOP
 10
0.0
 20
0.0
 30
0.0
  9
$UCSORGBOTTOM
 10
0.0
 20
0.0
 30
0.0
  9
$UCSORGLEFT
 10
0.0
 20
0.0
 30
0.0
  9
$UCSORGRIGHT
 10
0.0
 20
0.0
 30
0.0
  9
$UCSORGFRONT
 10
0.0
 20
0.0
 30
0.0
  9
$UCSORGBACK
 10
0.0
 20
0.0
 30
0.0
  9
$PUCSBASE
  2

  9
$PUCSNAME
  2

  9
$PUCSORG
 10
0.0
 20
0.0
 30
0.0
  9
$PUCSXDIR
 10
1.0
 20
0.0
 30
0.0
  9
$PUCSYDIR
 10
0.0
 20
1.0
 30
0.0
  9
$PUCSORTHOREF
  2

  9
$PUCSORTHOVIEW
 70
     0
  9
$PUCSORGTOP
 10
0.0
 20
0.0
 30
0.0
  9
$PUCSORGBOTTOM
 10
0.0
 20
0.0
 30
0.0
  9
$PUCSORGLEFT
 10
0.0
 20
0.0
 30
0.0
  9
$PUCSORGRIGHT
 10
0.0
 20
0.0
 30
0.0
  9
$PUCSORGFRONT
 10
0.0
 20
0.0
 30
0.0
  9
$PUCSORGBACK
 10
0.0
 20
0.0
 30
0.0
  9
$USERI1
 70
     0
  9
$USERI2
 70
     0
  9
$USERI3
 70
     0
  9
$USERI4
 70
     0
  9
$USERI5
 70
     0
  9
$USERR1
 40
0.0
  9
$USERR2
 40
0.0
  9
$USERR3
 40
0.0
  9
$USERR4
 40
0.0
  9
$USERR5
 40
0.0
  9
$WORLDVIEW
 70
     1
  9
$SHADEDGE
 70
     3
  9
$SHADEDIF
 70
    70
  9
$TILEMODE
 70
     1
  9
$MAXACTVP
 70
    64
  9
$PINSBASE
 10
0.0
 20
0.0
 30
0.0
  9
$PLIMCHECK
 70
     0
  9
$PEXTMIN
 10
1.000000000000000E+20
 20
1.000000000000000E+20
 30
1.000000000000000E+20
  9
$PEXTMAX
 10
-1.000000000000000E+20
 20
-1.000000000000000E+20
 30
-1.000000000000000E+20
  9
$PLIMMIN
 10
0.0
 20
0.0
  9
$PLIMMAX
 10
12.0
 20
9.0
  9
$UNITMODE
 70
     0
  9
$VISRETAIN
 70
     1
  9
$PLINEGEN
 70
     0
  9
$PSLTSCALE
 70
     1
  9
$TREEDEPTH
 70
  3020
  9
$CMLSTYLE
  2
Standard
  9
$CMLJUST
 70
     0
  9
$CMLSCALE
 40
1.0
  9
$PROXYGRAPHICS
 70
     1
  9
$MEASUREMENT
 70
     0
  9
$CELWEIGHT
370
    -1
  9
$ENDCAPS
280
     0
  9
$JOINSTYLE
280
     0
  9
$LWDISPLAY
290
     0
  9
$INSUNITS
 70
     4
  9
$HYPERLINKBASE
  1

  9
$STYLESHEET
  1

  9
$XEDIT
290
     1
  9
$CEPSNTYPE
380
     0
  9
$PSTYLEMODE
290
     1
  9
$FINGERPRINTGUID
  2
{F988487A-65BA-4A37-B766-1838B8ADAA9F}
  9
$VERSIONGUID
  2
{B0009523-4522-41FE-A363-17C555B32AC9}
  9
$EXTNAMES
290
     1
  9
$PSVPSCALE
 40
0.0
  9
$OLESTARTUP
290
     0
  9
$SORTENTS
280
   127
  9
$INDEXCTL
280
     0
  9
$HIDETEXT
280
     1
  9
$XCLIPFRAME
280
     0
  9
$HALOGAP
280
     0
  9
$OBSCOLOR
 70
   257
  9
$OBSLTYPE
280
     0
  9
$INTERSECTIONDISPLAY
280
     0
  9
$INTERSECTIONCOLOR
 70
   257
  9
$DIMASSOC
280
     2
  9
$PROJECTNAME
  1

  9
$CAMERADISPLAY
290
     0
  9
$LENSLENGTH
 40
50.0
  9
$CAMERAHEIGHT
 40
0.0
  9
$STEPSPERSEC
 40
2.0
  9
$STEPSIZE
 40
6.0
  9
$3DDWFPREC
 40
2.0
  9
$PSOLWIDTH
 40
0.25
  9
$PSOLHEIGHT
 40
4.0
  9
$LOFTANG1
 40
1.570796326794896
  9
$LOFTANG2
 40
1.570796326794896
  9
$LOFTMAG1
 40
0.0
  9
$LOFTMAG2
 40
0.0
  9
$LOFTPARAM
 70
     7
  9
$LOFTNORMALS
280
     1
  9
$LATITUDE
 40
37.795
  9
$LONGITUDE
 40
-122.394
  9
$NORTHDIRECTION
 40
0.0
  9
$TIMEZONE
 70
 -8000
  9
$LIGHTGLYPHDISPLAY
280
     1
  9
$TILEMODELIGHTSYNCH
280
     1
  9
$CMATERIAL
347
44
  9
$SOLIDHIST
280
     0
  9
$SHOWHIST
280
     1
  9
$DWFFRAME
280
     2
  9
$DGNFRAME
280
     0
  9
$REALWORLDSCALE
290
     1
  9
$INTERFERECOLOR
 62
     1
  9
$INTERFEREOBJVS
345
33
  9
$INTERFEREVPVS
346
30
  9
$CSHADOW
280
     0
  9
$SHADOWPLANELOCATION
 40
0.0
  0
ENDSEC
  0
SECTION
  2
CLASSES
  0
CLASS
  1
ACDBDICTIONARYWDFLT
  2
AcDbDictionaryWithDefault
  3
ObjectDBX Classes
 90
        0
 91
        1
280
     0
281
     0
  0
CLASS
  1
VISUALSTYLE
  2
AcDbVisualStyle
  3
ObjectDBX Classes
 90
     4095
 91
       26
280
     0
281
     0
  0
CLASS
  1
MATERIAL
  2
AcDbMaterial
  3
ObjectDBX Classes
 90
     1153
 91
        3
280
     0
281
     0
  0
CLASS
  1
SCALE
  2
AcDbScale
  3
ObjectDBX Classes
 90
     1153
 91
       33
280
     0
281
     0
  0
CLASS
  1
SUN
  2
AcDbSun
  3
SCENEOE
 90
     1153
 91
        1
280
     0
281
     0
  0
CLASS
  1
DICTIONARYVAR
  2
AcDbDictionaryVar
  3
ObjectDBX Classes
 90
        0
 91
        9
280
     0
281
     0
  0
CLASS
  1
TABLESTYLE
  2
AcDbTableStyle
  3
ObjectDBX Classes
 90
     4095
 91
        1
280
     0
281
     0
  0
CLASS
  1
MLEADERSTYLE
  2
AcDbMLeaderStyle
  3
ACDB_MLEADERSTYLE_CLASS
 90
     4095
 91
        1
280
     0
281
     0
  0
CLASS
  1
ACDBSECTIONVIEWSTYLE
  2
AcDbSectionViewStyle
  3
ObjectDBX Classes
 90
     1025
 91
        1
280
     0
281
     0
  0
CLASS
  1
ACDBDETAILVIEWSTYLE
  2
AcDbDetailViewStyle
  3
ObjectDBX Classes
 90
     1025
 91
        1
280
     0
281
     0
  0
CLASS
  1
SOLID_BACKGROUND
  2
AcDbSolidBackground
  3
SCENEOE
 90
     4095
 91
        0
280
     0
281
     0
  0
CLASS
  1
NPOCOLLECTION
  2
AcDbImpNonPersistentObjectsCollection
  3
ObjectDBX Classes
 90
     1153
 91
        0
280
     0
281
     0
  0
CLASS
  1
SORTENTSTABLE
  2
AcDbSortentsTable
  3
ObjectDBX Classes
 90
        0
 91
        1
280
     0
281
     0
  0
CLASS
  1
CELLSTYLEMAP
  2
AcDbCellStyleMap
  3
ObjectDBX Classes
 90
     1152
 91
        1
280
     0
281
     0
  0
ENDSEC
  0
SECTION
  2
TABLES
  0
TABLE
  2
VPORT
  5
8
102
{ACAD_XDICTIONARY
360
A4
102
}
330
0
100
AcDbSymbolTable
 70
     1
  0
VPORT
  5
29
330
8
100
AcDbSymbolTableRecord
100
AcDbViewportTableRecord
  2
*Active
 70
     0
 10
0.0
 20
0.0
 11
1.0
 21
1.0
 12
538.1030926265984
 22
109.5671974388992
 13
0.0
 23
0.0
 14
0.5
 24
0.5
 15
0.5
 25
0.5
 16
-0.0000000000026405
 26
0.0
 36
11891.95989075607
 17
0.0
 27
0.0
 37
417.0223388671869
 40
4430.964863698652
 41
2.334549878345498
 42
50.0
 43
0.0
 44
0.0
 50
0.0
 51
0.0
 71
     0
 72
   100
 73
     1
 74
     3
 75
     0
 76
     0
 77
     0
 78
     0
281
     0
 65
     1
110
0.0
120
0.0
130
0.0
111
1.0
121
0.0
131
0.0
112
0.0
122
1.0
132
0.0
 79
     0
146
0.0
348
2F
 60
     3
 61
     5
292
     1
282
     1
141
0.0
142
0.0
 63
   250
421
  3355443
361
69
1001
ACAD_NAV_VCDISPLAY
1070
     3
  0
ENDTAB
  0
TABLE
  2
LTYPE
  5
5
330
0
100
AcDbSymbolTable
 70
     1
  0
LTYPE
  5
14
330
5
100
AcDbSymbolTableRecord
100
AcDbLinetypeTableRecord
  2
ByBlock
 70
     0
  3

 72
    65
 73
     0
 40
0.0
  0
LTYPE
  5
15
330
5
100
AcDbSymbolTableRecord
100
AcDbLinetypeTableRecord
  2
ByLayer
 70
     0
  3

 72
    65
 73
     0
 40
0.0
  0
LTYPE
  5
16
330
5
100
AcDbSymbolTableRecord
100
AcDbLinetypeTableRecord
  2
Continuous
 70
     0
  3
Solid line
 72
    65
 73
     0
 40
0.0
  0
ENDTAB
  0
TABLE
  2
LAYER
  5
2
102
{ACAD_XDICTIONARY
360
106
102
}
330
0
100
AcDbSymbolTable
 70
     2
  0
LAYER
  5
10
102
{ACAD_XDICTIONARY
360
ED
102
}
330
2
100
AcDbSymbolTableRecord
100
AcDbLayerTableRecord
  2
0
 70
     0
 62
     7
  6
Continuous
370
    -3
390
F
347
46
348
0
  0
LAYER
  5
6A
102
{ACAD_XDICTIONARY
360
EF
102
}
330
2
100
AcDbSymbolTableRecord
100
AcDbLayerTableRecord
  2
Default
 70
     0
 62
     7
  6
Continuous
370
    -3
390
F
347
46
348
0
  0
ENDTAB
  0
TABLE
  2
STYLE
  5
3
330
0
100
AcDbSymbolTable
 70
     1
  0
STYLE
  5
11
330
3
100
AcDbSymbolTableRecord
100
AcDbTextStyleTableRecord
  2
Standard
 70
     0
 40
0.0
 41
1.0
 50
0.0
 71
     0
 42
0.2
  3
txt
  4

  0
ENDTAB
  0
TABLE
  2
VIEW
  5
6
330
0
100
AcDbSymbolTable
 70
     0
  0
ENDTAB
  0
TABLE
  2
UCS
  5
7
330
0
100
AcDbSymbolTable
 70
     0
  0
ENDTAB
  0
TABLE
  2
APPID
  5
9
330
0
100
AcDbSymbolTable
 70
     4
  0
APPID
  5
12
330
9
100
AcDbSymbolTableRecord
100
AcDbRegAppTableRecord
  2
ACAD
 70
     0
  0
APPID
  5
9F
330
9
100
AcDbSymbolTableRecord
100
AcDbRegAppTableRecord
  2
ACAD_OBJECT_CHANGE_GUID
 70
     0
  0
APPID
  5
F3
330
9
100
AcDbSymbolTableRecord
100
AcDbRegAppTableRecord
  2
ACAD_NAV_VCDISPLAY
 70
     0
  0
APPID
  5
2A0
330
9
100
AcDbSymbolTableRecord
100
AcDbRegAppTableRecord
  2
ACAD_EXEMPT_FROM_CAD_STANDARDS
 70
     0
  0
ENDTAB
  0
TABLE
  2
DIMSTYLE
  5
A
330
0
100
AcDbSymbolTable
 70
     1
100
AcDbDimStyleTable
 71
     1
340
27
  0
DIMSTYLE
105
27
330
A
100
AcDbSymbolTableRecord
100
AcDbDimStyleTableRecord
  2
Standard
 70
     0
340
11
  0
ENDTAB
  0
TABLE
  2
BLOCK_RECORD
  5
1
330
0
100
AcDbSymbolTable
 70
     1
  0
BLOCK_RECORD
  5
1F
102
{ACAD_XDICTIONARY
360
23C
102
}
330
1
100
AcDbSymbolTableRecord
100
AcDbBlockTableRecord
  2
*Model_Space
340
22
 70
     0
280
     1
281
     0
  0
BLOCK_RECORD
  5
1B
330
1
100
AcDbSymbolTableRecord
100
AcDbBlockTableRecord
  2
*Paper_Space
340
1E
 70
     0
280
     1
281
     0
  0
BLOCK_RECORD
  5
23
330
1
100
AcDbSymbolTableRecord
100
AcDbBlockTableRecord
  2
*Paper_Space0
340
26
 70
     0
280
     1
281
     0
  0
ENDTAB
  0
ENDSEC
  0
SECTION
  2
BLOCKS
  0
BLOCK
  5
20
330
1F
100
AcDbEntity
  8
0
100
AcDbBlockBegin
  2
*Model_Space
 70
     0
 10
0.0
 20
0.0
 30
0.0
  3
*Model_Space
  1

  0
ENDBLK
  5
21
330
1F
100
AcDbEntity
  8
0
100
AcDbBlockEnd
  0
BLOCK
  5
1C
330
1B
100
AcDbEntity
 67
     1
  8
0
100
AcDbBlockBegin
  2
*Paper_Space
 70
     0
 10
0.0
 20
0.0
 30
0.0
  3
*Paper_Space
  1

  0
ENDBLK
  5
1D
330
1B
100
AcDbEntity
 67
     1
  8
0
100
AcDbBlockEnd
  0
BLOCK
  5
24
330
23
100
AcDbEntity
 67
     1
  8
0
100
AcDbBlockBegin
  2
*Paper_Space0
 70
     0
 10
0.0
 20
0.0
 30
0.0
  3
*Paper_Space0
  1

  0
ENDBLK
  5
25
330
23
100
AcDbEntity
 67
     1
  8
0
100
AcDbBlockEnd
  0
ENDSEC
  0
SECTION
  2
ENTITIES
  0
SPLINE
  5
218
330
1F
100
AcDbEntity
  8
Default
100
AcDbSpline
210
0.0
220
0.0
230
1.0
 70
     8
 71
     3
 72
    24
 73
    20
 74
     0
 42
0.000000001
 43
0.0000000001
 40
-17.0
 40
-17.0
 40
-17.0
 40
-17.0
 40
-15.99999999439031
 40
-14.99999998878062
 40
-13.99999998317094
 40
-12.99999997756125
 40
-11.99999997195156
 40
-10.99999996634187
 40
-9.999999960732184
 40
-8.999999955122495
 40
-7.999999949512806
 40
-6.999999943903119
 40
-5.999999938293429
 40
-4.999999932683743
 40
-3.999999927074055
 40
-2.999999921464366
 40
-1.999999915854678
 40
-0.9999999102449903
 40
0.0
 40
0.0
 40
0.0
 40
0.0
 10
-190.2941420117449
 20
699.8831354957516
 30
374.2096389157879
 10
-203.4188658549506
 20
709.8382066313919
 30
374.2096389157879
 10
-227.8576382166493
 20
732.1594177794553
 30
374.2096389157879
 10
-257.4654989926567
 20
772.0043142622495
 30
374.2096389157879
 10
-279.2548619910753
 20
816.5898397895864
 30
374.2096389157879
 10
-293.1188119790668
 20
864.1697580292197
 30
374.2096389157879
 10
-300.0555645633645
 20
913.2591370869457
 30
374.2096389157879
 10
-299.8225454973454
 20
962.7144298047086
 30
374.2096389157879
 10
-299.2171563439165
 20
1012.175636812282
 30
374.2096389157879
 10
-292.8811488056135
 20
1061.233110910421
 30
374.2096389157879
 10
-283.0786836479251
 20
1109.71237214311
 30
374.2096389157879
 10
-269.0413507122134
 20
1157.147137045994
 30
374.2096389157879
 10
-249.3162594742662
 20
1202.656553111462
 30
374.2096389157879
 10
-222.3777159339825
 20
1244.132384246054
 30
374.2096389157879
 10
-189.5681792213058
 20
1281.760113099503
 30
374.2096389157879
 10
-146.5310914650581
 20
1307.072544898122
 30
374.2096389157879
 10
-98.41322850719917
 20
1319.617472092961
 30
374.2096389157879
 10
-49.44396506659723
 20
1326.372743498376
 30
374.2096389157879
 10
-16.46422827773267
 20
1327.539601010229
 30
374.2096389157879
 10
0.0043452524987515
 20
1327.540809752221
 30
374.2096389157879
  0
SPLINE
  5
219
330
1F
100
AcDbEntity
  8
Default
100
AcDbSpline
210
0.0
220
0.0
230
1.0
 70
     8
 71
     3
 72
    24
 73
    20
 74
     0
 42
0.000000001
 43
0.0000000001
 40
0.0
 40
0.0
 40
0.0
 40
0.0
 40
0.9999999102449903
 40
1.999999915854678
 40
2.999999921464366
 40
3.999999927074055
 40
4.999999932683743
 40
5.999999938293429
 40
6.999999943903119
 40
7.999999949512806
 40
8.999999955122495
 40
9.999999960732184
 40
10.99999996634187
 40
11.99999997195156
 40
12.99999997756125
 40
13.99999998317094
 40
14.99999998878062
 40
15.99999999439031
 40
17.0
 40
17.0
 40
17.0
 40
17.0
 10
0.0043452524987515
 20
1327.540809752221
 30
374.2096389157879
 10
16.47291878273017
 20
1327.539601010229
 30
374.2096389157879
 10
49.45265557159473
 20
1326.372743498376
 30
374.2096389157879
 10
98.42191901219667
 20
1319.617472092961
 30
374.2096389157879
 10
146.5397819700556
 20
1307.072544898122
 30
374.2096389157879
 10
189.5768697263033
 20
1281.760113099503
 30
374.2096389157879
 10
222.38640643898
 20
1244.132384246054
 30
374.2096389157879
 10
249.3249499792637
 20
1202.656553111462
 30
374.2096389157879
 10
269.0500412172109
 20
1157.147137045994
 30
374.2096389157879
 10
283.0873741529226
 20
1109.71237214311
 30
374.2096389157879
 10
292.889839310611
 20
1061.233110910421
 30
374.2096389157879
 10
299.225846848914
 20
1012.175636812282
 30
374.2096389157879
 10
299.8312360023429
 20
962.7144298047086
 30
374.2096389157879
 10
300.064255068362
 20
913.2591370869457
 30
374.2096389157879
 10
293.1275024840643
 20
864.1697580292197
 30
374.2096389157879
 10
279.2635524960729
 20
816.5898397895864
 30
374.2096389157879
 10
257.4741894976542
 20
772.0043142622495
 30
374.2096389157879
 10
227.8663287216468
 20
732.1594177794553
 30
374.2096389157879
 10
203.4275563599481
 20
709.8382066313919
 30
374.2096389157879
 10
190.2969536971832
 20
699.8782126627077
 30
374.2096389157879
  0
SPLINE
  5
21A
330
1F
100
AcDbEntity
  8
Default
100
AcDbSpline
210
0.0
220
0.0
230
1.0
 70
     8
 71
     3
 72
    12
 73
     8
 74
     0
 42
0.000000001
 43
0.0000000001
 40
0.0
 40
0.0
 40
0.0
 40
0.0
 40
1.932841302156171
 40
3.834618248229879
 40
8.022019597965389
 40
12.14534094516417
 40
15.98237434364643
 40
15.98237434364643
 40
15.98237434364643
 40
15.98237434364643
 10
190.2969536971832
 20
699.8782126627077
 30
374.2096389157879
 10
177.2135230089598
 20
689.981109023325
 30
374.2096389157879
 10
149.641810133402
 20
672.7730385364584
 30
374.2096389157879
 10
86.29103536154161
 20
647.1668069997723
 30
374.2096389157879
 10
-0.2298513448008634
 20
635.4820423802757
 30
374.2096389157879
 10
-103.2015955462634
 20
649.5947765498782
 30
374.2096389157879
 10
-164.4440675520563
 20
680.2207916869319
 30
374.2096389157879
 10
-190.2941420117449
 20
699.8831354957516
 30
374.2096389157879
  0
SPLINE
  5
21B
330
1F
100
AcDbEntity
  8
Default
100
AcDbSpline
210
0.0
220
0.0
230
1.0
 70
    12
 71
     2
 72
     6
 73
     3
 74
     0
 42
0.000000001
 43
0.0000000001
 40
0.0
 40
0.0
 40
0.0
 40
0.584707951152618
 40
0.584707951152618
 40
0.584707951152618
 10
240.3671983789909
 20
749.3335086086407
 30
374.2096389157879
 41
1.0
 10
244.937167355004
 20
755.1887442492881
 30
374.2096389157879
 41
0.99964613597365
 10
249.1892711520932
 20
761.2787372006818
 30
374.2096389157879
 41
1.0
  0
SPLINE
  5
21C
330
1F
100
AcDbEntity
  8
Default
100
AcDbSpline
210
0.0
220
0.0
230
1.0
 70
     8
 71
     3
 72
    12
 73
     8
 74
     0
 42
0.000000001
 43
0.0000000001
 40
0.0
 40
0.0
 40
0.0
 40
0.0
 40
1.832654236483523
 40
3.669578742657731
 40
7.371880427553498
 40
11.11625269817009
 40
14.89017125028417
 40
14.89017125028417
 40
14.89017125028417
 40
14.89017125028417
 10
-244.4701718978699
 20
893.2252286516231
 30
374.2096389157879
 10
-244.4712689903617
 20
877.6532125076847
 30
374.2096389157879
 10
-241.2815885318687
 20
846.6030296823836
 30
374.2096389157879
 10
-222.5979483569081
 20
786.6941895950709
 30
374.2096389157879
 10
-176.9620079222391
 20
720.7824206739156
 30
374.2096389157879
 10
-95.6020051436567
 20
668.3217424826828
 30
374.2096389157879
 10
-31.94820141241417
 20
656.1090399843915
 30
374.2096389157879
 10
0.0043304831156092
 20
656.1034461990333
 30
374.2096389157879
  0
SPLINE
  5
21D
330
1F
100
AcDbEntity
  8
Default
100
AcDbSpline
210
0.0
220
0.0
230
1.0
 70
     8
 71
     3
 72
    12
 73
     8
 74
     0
 42
0.000000001
 43
0.0000000001
 40
0.0
 40
0.0
 40
0.0
 40
0.0
 40
1.889355098582429
 40
3.774519559296819
 40
7.516682166840942
 40
11.21816918271822
 40
14.89017237659326
 40
14.89017237659326
 40
14.89017237659326
 40
14.89017237659326
 10
0.0043304831156092
 20
656.1034461990333
 30
374.2096389157879
 10
15.99955561988099
 20
656.1051675060477
 30
374.2096389157879
 10
47.95906035927191
 20
659.1789084961115
 30
374.2096389157879
 10
109.3017586916166
 20
677.1544970643989
 30
374.2096389157879
 10
176.9447130040748
 20
720.7630958400942
 30
374.2096389157879
 10
231.6056620038853
 20
799.6763906371005
 30
374.2096389157879
 10
244.487348080022
 20
862.0891548984692
 30
374.2096389157879
 10
244.4790153308368
 20
893.1829787630016
 30
374.2096389157879
  0
SPLINE
  5
21E
330
1F
100
AcDbEntity
  8
Default
100
AcDbSpline
210
0.0
220
0.0
230
1.0
 70
     8
 71
     3
 72
    12
 73
     8
 74
     0
 42
0.000000001
 43
0.0000000001
 40
-15.35241690788854
 40
-15.35241690788854
 40
-15.35241690788854
 40
-15.35241690788854
 40
-11.42846766997576
 40
-7.624449320975275
 40
-3.868777776849768
 40
-1.918305221211262
 40
0.0
 40
0.0
 40
0.0
 40
0.0
 10
244.4790153308368
 20
893.1829787630016
 30
374.2096389157879
 10
244.4795511068742
 20
926.3905075737913
 30
374.2096389157879
 10
232.6566999196462
 20
991.968380839121
 30
374.2096389157879
 10
179.2029144414782
 20
1075.526636811854
 30
374.2096389157879
 10
111.1332555640651
 20
1121.620178395634
 30
374.2096389157879
 10
49.00666964418042
 20
1140.265937961362
 30
374.2096389157879
 10
16.24442128132841
 20
1143.436118738922
 30
374.2096389157879
 10
0.0043440588410704
 20
1143.422639318347
 30
374.2096389157879
  0
SPLINE
  5
21F
330
1F
100
AcDbEntity
  8
Default
100
AcDbSpline
210
0.0
220
0.0
230
1.0
 70
     8
 71
     3
 72
    12
 73
     8
 74
     0
 42
0.000000001
 43
0.0000000001
 40
-15.34910739099933
 40
-15.34910739099933
 40
-15.34910739099933
 40
-15.34910739099933
 40
-11.58400586625319
 40
-7.773657509622682
 40
-3.936637318219009
 40
-1.971105179282631
 40
0.0
 40
0.0
 40
0.0
 40
0.0
 10
0.0043440588410704
 20
1143.422639318347
 30
374.2096389157879
 10
-31.85793158401248
 20
1143.414925565008
 30
374.2096389157879
 10
-96.0943243684219
 20
1131.347900998227
 30
374.2096389157879
 10
-178.2850280914854
 20
1076.686528129792
 30
374.2096389157879
 10
-223.2891453567222
 20
1006.862801597147
 30
374.2096389157879
 10
-241.4274100646412
 20
943.3053680885679
 30
374.2096389157879
 10
-244.4763657241661
 20
909.9598846474405
 30
374.2096389157879
 10
-244.4701718978699
 20
893.2252286516231
 30
374.2096389157879
  0
SPLINE
  5
220
330
1F
100
AcDbEntity
  8
Default
100
AcDbSpline
210
0.0
220
0.0
230
1.0
 70
     8
 71
     3
 72
    24
 73
    20
 74
     0
 42
0.000000001
 43
0.0000000001
 40
-17.0
 40
-17.0
 40
-17.0
 40
-17.0
 40
-16.0
 40
-15.0
 40
-14.0
 40
-13.0
 40
-12.0
 40
-11.0
 40
-10.0
 40
-9.0
 40
-8.0
 40
-7.0
 40
-6.0
 40
-5.0
 40
-4.0
 40
-3.0
 40
-2.0
 40
-1.0
 40
0.0
 40
0.0
 40
0.0
 40
0.0
 10
225.3067941223962
 20
731.4661547903596
 30
374.2096389157879
 10
236.0997454154613
 20
743.0441394729206
 30
374.2096389157879
 10
255.5994711219514
 20
768.1136411412047
 30
374.2096389157879
 10
278.357772182876
 20
809.9625625453699
 30
374.2096389157879
 10
294.3743833515746
 20
854.7701922383925
 30
374.2096389157879
 10
304.5105354437319
 20
901.27975277185
 30
374.2096389157879
 10
307.8929351487718
 20
948.7235502533428
 30
374.2096389157879
 10
306.7261430359999
 20
996.2056497719764
 30
374.2096389157879
 10
303.4259015339389
 20
1043.615770090165
 30
374.2096389157879
 10
294.203600953012
 20
1090.266291340595
 30
374.2096389157879
 10
282.3490040076263
 20
1136.267296168708
 30
374.2096389157879
 10
265.785244618733
 20
1180.822325398587
 30
374.2096389157879
 10
244.1752793097507
 20
1223.290960805984
 30
374.2096389157879
 10
215.9143882173148
 20
1261.440463165788
 30
374.2096389157879
 10
183.311691955399
 20
1296.605753961786
 30
374.2096389157879
 10
140.9080886601268
 20
1319.127620305139
 30
374.2096389157879
 10
94.68966014515263
 20
1330.803531702004
 30
374.2096389157879
 10
47.49270848062042
 20
1336.402874661454
 30
374.2096389157879
 10
15.82859081405149
 20
1337.348539185353
 30
374.2096389157879
 10
0.0043452524987515
 20
1337.355052480128
 30
374.2096389157879
  0
SPLINE
  5
221
330
1F
100
AcDbEntity
  8
Default
100
AcDbSpline
210
0.0
220
0.0
230
1.0
 70
     8
 71
     3
 72
    24
 73
    20
 74
     0
 42
0.000000001
 43
0.0000000001
 40
0.0
 40
0.0
 40
0.0
 40
0.0
 40
1.0
 40
2.0
 40
3.0
 40
4.0
 40
5.0
 40
6.0
 40
7.0
 40
8.0
 40
9.0
 40
10.0
 40
11.0
 40
12.0
 40
13.0
 40
14.0
 40
15.0
 40
16.0
 40
17.0
 40
17.0
 40
17.0
 40
17.0
 10
0.0043452524987515
 20
1337.355052480128
 30
374.2096389157879
 10
-15.81990030905399
 20
1337.348539185353
 30
374.2096389157879
 10
-47.48401797562292
 20
1336.402874661454
 30
374.2096389157879
 10
-94.68096964015513
 20
1330.803531702004
 30
374.2096389157879
 10
-140.8993981551293
 20
1319.127620305139
 30
374.2096389157879
 10
-183.3030014504015
 20
1296.605753961786
 30
374.2096389157879
 10
-215.9056977123173
 20
1261.440463165788
 30
374.2096389157879
 10
-244.1665888047532
 20
1223.290960805984
 30
374.2096389157879
 10
-265.7765541137355
 20
1180.822325398587
 30
374.2096389157879
 10
-282.3403135026288
 20
1136.267296168708
 30
374.2096389157879
 10
-294.1949104480145
 20
1090.266291340595
 30
374.2096389157879
 10
-303.4172110289414
 20
1043.615770090165
 30
374.2096389157879
 10
-306.7174525310024
 20
996.2056497719764
 30
374.2096389157879
 10
-307.8842446437743
 20
948.7235502533428
 30
374.2096389157879
 10
-304.5018449387344
 20
901.27975277185
 30
374.2096389157879
 10
-294.3656928465771
 20
854.7701922383925
 30
374.2096389157879
 10
-278.3490816778785
 20
809.9625625453699
 30
374.2096389157879
 10
-255.5907806169539
 20
768.1136411412047
 30
374.2096389157879
 10
-236.0910549104637
 20
743.0441394729206
 30
374.2096389157879
 10
-225.2981036173987
 20
731.4661547903596
 30
374.2096389157879
  0
SPLINE
  5
222
330
1F
100
AcDbEntity
  8
Default
100
AcDbSpline
210
0.0
220
0.0
230
1.0
 70
     8
 71
     3
 72
    11
 73
     7
 74
     0
 42
0.000000001
 43
0.0000000001
 40
-4.376489242092977
 40
-4.376489242092977
 40
-4.376489242092977
 40
-4.376489242092977
 40
-2.254729024945146
 40
-1.152264979760031
 40
-0.5805792687200016
 40
0.0
 40
0.0
 40
0.0
 40
0.0
 10
110.0678339832407
 20
1326.694253616182
 30
374.2096389157879
 10
92.68440781029903
 20
1331.230995326055
 30
374.2096389157879
 10
65.78729285906184
 20
1336.23975822105
 30
374.2096389157879
 10
33.75130043882564
 20
1338.996491889234
 30
374.2096389157879
 10
14.67600332967686
 20
1339.787977042916
 30
374.2096389157879
 10
4.91988094280623
 20
1339.916144756271
 30
374.2096389157879
 10
0.0043452524987515
 20
1339.916175373063
 30
374.2096389157879
  0
SPLINE
  5
223
330
1F
100
AcDbEntity
  8
Default
100
AcDbSpline
210
0.0
220
0.0
230
1.0
 70
     8
 71
     3
 72
    11
 73
     7
 74
     0
 42
0.000000001
 43
0.0000000001
 40
0.0
 40
0.0
 40
0.0
 40
0.0
 40
0.5805792687200016
 40
1.152264979760031
 40
2.254729024945146
 40
4.376489242092977
 40
4.376489242092977
 40
4.376489242092977
 40
4.376489242092977
 10
0.0043452524987515
 20
1339.916175373063
 30
374.2096389157879
 10
-4.911190437808727
 20
1339.916144756271
 30
374.2096389157879
 10
-14.66731282467935
 20
1339.787977042916
 30
374.2096389157879
 10
-33.74260993382814
 20
1338.996491889234
 30
374.2096389157879
 10
-65.77860235406433
 20
1336.23975822105
 30
374.2096389157879
 10
-92.67571730530153
 20
1331.230995326055
 30
374.2096389157879
 10
-110.0591434782432
 20
1326.694253616182
 30
374.2096389157879
  0
SPLINE
  5
224
330
1F
100
AcDbEntity
  8
Default
100
AcDbSpline
210
0.0
220
0.0
230
1.0
 70
     8
 71
     3
 72
    10
 73
     6
 74
     0
 42
0.000000001
 43
0.0000000001
 40
0.0
 40
0.0
 40
0.0
 40
0.0
 40
1.13000657183866
 40
2.287921106073678
 40
8.404575460652143
 40
8.404575460652143
 40
8.404575460652143
 40
8.404575460652143
 10
284.1339442253056
 20
891.3704501726524
 30
374.2096389157879
 10
282.5343341410435
 20
881.9389590035084
 30
374.2096389157879
 10
278.4515927608209
 20
862.9815557858977
 30
374.2096389157879
 10
267.8310537365874
 20
827.4637343280627
 30
374.2096389157879
 10
249.5386840013471
 20
786.5586641173089
 30
374.2096389157879
 10
209.4415096895709
 20
744.2041586683942
 30
374.2096389157879
  0
ARC
  5
225
330
1F
100
AcDbEntity
  8
Default
100
AcDbCircle
 10
51.79243848685064
 20
893.4511448179415
 30
374.2096389157879
 40
217.0895956184993
100
AcDbArc
 50
289.2352185728871
 51
316.5682306074263
  0
SPLINE
  5
226
330
1F
100
AcDbEntity
  8
Default
100
AcDbSpline
210
0.0
220
0.0
230
1.0
 70
     8
 71
     3
 72
    10
 73
     6
 74
     0
 42
0.000000001
 43
0.0000000001
 40
0.0
 40
0.0
 40
0.0
 40
0.0
 40
1.13000657183866
 40
2.287921106073678
 40
8.404575460652143
 40
8.404575460652143
 40
8.404575460652143
 40
8.404575460652143
 10
-284.1252537203081
 20
891.3704501726524
 30
374.2096389157879
 10
-282.525643636046
 20
881.9389590035084
 30
374.2096389157879
 10
-278.4429022558234
 20
862.9815557858977
 30
374.2096389157879
 10
-267.8223632315899
 20
827.4637343280627
 30
374.2096389157879
 10
-249.5299934963496
 20
786.5586641173089
 30
374.2096389157879
 10
-209.4328191845734
 20
744.2041586683942
 30
374.2096389157879
  0
ARC
  5
227
330
1F
100
AcDbEntity
  8
Default
100
AcDbCircle
 10
-51.78374798185314
 20
893.4511448179415
 30
374.2096389157879
 40
217.0895956184993
100
AcDbArc
 50
223.4317693925737
 51
250.7647814271129
  0
POLYLINE
  5
228
330
1F
100
AcDbEntity
  8
Default
100
AcDb2dPolyline
 66
     1
 10
0.0
 20
0.0
 30
374.2096389157879
  0
VERTEX
  5
229
330
228
100
AcDbEntity
  8
Default
100
AcDbVertex
100
AcDb2dVertex
 10
232.7356665942334
 20
739.7759319054558
 30
374.2096389157879
  0
VERTEX
  5
22A
330
228
100
AcDbEntity
  8
Default
100
AcDbVertex
100
AcDb2dVertex
 10
232.852903472482
 20
739.5769031794785
 30
374.2096389157879
  0
SEQEND
  5
22B
330
228
100
AcDbEntity
  8
Default
  0
SPLINE
  5
22C
330
1F
100
AcDbEntity
  8
Default
100
AcDbSpline
210
0.0000000000000088
220
-0.0000000000000035
230
1.0
 70
    12
 71
     2
 72
     8
 73
     5
 74
     0
 42
0.000000001
 43
0.0000000001
 40
0.0
 40
0.0
 40
0.0
 40
0.0657021758075414
 40
0.0657021758075414
 40
0.5513779496561005
 40
0.5513779496561005
 40
0.5513779496561005
 10
232.852903472482
 20
739.5769031794785
 30
374.2096389157879
 41
1.0
 10
233.2782258312382
 20
738.8545971070954
 30
374.2096389157879
 41
0.9938146782922427
 10
233.5335178266841
 20
738.0565574010237
 30
374.2096389157879
 41
1.0
 10
235.7950843247613
 20
730.5873442691089
 30
374.2096389157879
 41
0.7132736251541142
 10
228.3666367448077
 20
728.1952752092617
 30
374.2096389157879
 41
1.0
  0
SPLINE
  5
22D
330
1F
100
AcDbEntity
  8
Default
100
AcDbSpline
210
0.0
220
0.0
230
1.0
 70
    12
 71
     2
 72
     6
 73
     3
 74
     0
 42
0.000000001
 43
0.0000000001
 40
0.0
 40
0.0
 40
0.0
 40
0.2409856468466241
 40
0.2409856468466241
 40
0.2409856468466241
 10
228.3666367448077
 20
728.1952752092617
 30
374.2096389157879
 41
1.0
 10
225.2970145435502
 20
727.1314533497569
 30
374.2096389157879
 41
0.8709777826878488
 10
222.3841806380455
 20
728.5700971797015
 30
374.2096389157879
 41
0.8913391083513609
  0
POLYLINE
  5
22E
330
1F
100
AcDbEntity
  8
Default
100
AcDb2dPolyline
 66
     1
 10
0.0
 20
0.0
 30
374.2096389157879
  0
VERTEX
  5
22F
330
22E
100
AcDbEntity
  8
Default
100
AcDbVertex
100
AcDb2dVertex
 10
-232.5963419875238
 20
739.9977046037862
 30
374.2096389157879
  0
VERTEX
  5
230
330
22E
100
AcDbEntity
  8
Default
100
AcDbVertex
100
AcDb2dVertex
 10
-232.7269760892359
 20
739.7759319054558
 30
374.2096389157879
  0
SEQEND
  5
231
330
22E
100
AcDbEntity
  8
Default
  0
POLYLINE
  5
232
330
1F
100
AcDbEntity
  8
Default
100
AcDb2dPolyline
 66
     1
 10
0.0
 20
0.0
 30
374.2096389157879
  0
VERTEX
  5
233
330
232
100
AcDbEntity
  8
Default
100
AcDbVertex
100
AcDb2dVertex
 10
-232.7269760892359
 20
739.7759319054558
 30
374.2096389157879
  0
VERTEX
  5
234
330
232
100
AcDbEntity
  8
Default
100
AcDbVertex
100
AcDb2dVertex
 10
-232.8442129674845
 20
739.5769031794785
 30
374.2096389157879
  0
SEQEND
  5
235
330
232
100
AcDbEntity
  8
Default
  0
SPLINE
  5
236
330
1F
100
AcDbEntity
  8
Default
100
AcDbSpline
210
-0.0000000000000088
220
-0.0000000000000035
230
1.0
 70
    12
 71
     2
 72
     8
 73
     5
 74
     0
 42
0.000000001
 43
0.0000000001
 40
0.0
 40
0.0
 40
0.0
 40
0.0657021758075414
 40
0.0657021758075414
 40
0.5513779496561005
 40
0.5513779496561005
 40
0.5513779496561005
 10
-232.8442129674845
 20
739.5769031794785
 30
374.2096389157879
 41
1.0
 10
-233.2695353262407
 20
738.8545971070954
 30
374.2096389157879
 41
0.9938146782922427
 10
-233.5248273216866
 20
738.0565574010237
 30
374.2096389157879
 41
1.0
 10
-235.7863938197642
 20
730.5873442691089
 30
374.2096389157879
 41
0.7132736251541142
 10
-228.3579462398102
 20
728.1952752092617
 30
374.2096389157879
 41
1.0
  0
SPLINE
  5
237
330
1F
100
AcDbEntity
  8
Default
100
AcDbSpline
210
0.0
220
0.0
230
1.0
 70
    12
 71
     2
 72
     6
 73
     3
 74
     0
 42
0.000000001
 43
0.0000000001
 40
0.0
 40
0.0
 40
0.0
 40
0.2409855735434258
 40
0.2409855735434258
 40
0.2409855735434258
 10
-228.3579462398102
 20
728.1952752092617
 30
374.2096389157879
 41
1.0
 10
-225.2883251105891
 20
727.1314537212864
 30
374.2096389157879
 41
0.8709778219339256
 10
-222.3754918646246
 20
728.570096324479
 30
374.2096389157879
 41
0.8913390959643272
  0
SPLINE
  5
23F
330
1F
100
AcDbEntity
  8
Default
100
AcDbSpline
210
0.0
220
0.0
230
1.0
 70
     8
 71
     3
 72
    24
 73
    20
 74
     0
 42
0.000000001
 43
0.0000000001
 40
-17.0
 40
-17.0
 40
-17.0
 40
-17.0
 40
-15.99999999439031
 40
-14.99999998878062
 40
-13.99999998317094
 40
-12.99999997756125
 40
-11.99999997195156
 40
-10.99999996634187
 40
-9.999999960732184
 40
-8.999999955122495
 40
-7.999999949512806
 40
-6.999999943903119
 40
-5.999999938293429
 40
-4.999999932683743
 40
-3.999999927074055
 40
-2.999999921464366
 40
-1.999999915854678
 40
-0.9999999102449903
 40
0.0
 40
0.0
 40
0.0
 40
0.0
 10
-190.2941420117449
 20
-699.8831354957516
 30
374.2096389157879
 10
-203.4188658549506
 20
-709.8382066313919
 30
374.2096389157879
 10
-227.8576382166493
 20
-732.1594177794553
 30
374.2096389157879
 10
-257.4654989926567
 20
-772.0043142622495
 30
374.2096389157879
 10
-279.2548619910753
 20
-816.5898397895864
 30
374.2096389157879
 10
-293.1188119790668
 20
-864.1697580292197
 30
374.2096389157879
 10
-300.0555645633645
 20
-913.2591370869457
 30
374.2096389157879
 10
-299.8225454973454
 20
-962.7144298047086
 30
374.2096389157879
 10
-299.2171563439165
 20
-1012.175636812282
 30
374.2096389157879
 10
-292.8811488056135
 20
-1061.233110910421
 30
374.2096389157879
 10
-283.0786836479251
 20
-1109.71237214311
 30
374.2096389157879
 10
-269.0413507122134
 20
-1157.147137045994
 30
374.2096389157879
 10
-249.3162594742662
 20
-1202.656553111462
 30
374.2096389157879
 10
-222.3777159339825
 20
-1244.132384246054
 30
374.2096389157879
 10
-189.5681792213058
 20
-1281.760113099503
 30
374.2096389157879
 10
-146.5310914650581
 20
-1307.072544898122
 30
374.2096389157879
 10
-98.41322850719917
 20
-1319.617472092961
 30
374.2096389157879
 10
-49.44396506659723
 20
-1326.372743498376
 30
374.2096389157879
 10
-16.46422827773267
 20
-1327.539601010229
 30
374.2096389157879
 10
0.0043452524987515
 20
-1327.540809752221
 30
374.2096389157879
  0
SPLINE
  5
240
330
1F
100
AcDbEntity
  8
Default
100
AcDbSpline
210
0.0
220
0.0
230
1.0
 70
     8
 71
     3
 72
    24
 73
    20
 74
     0
 42
0.000000001
 43
0.0000000001
 40
0.0
 40
0.0
 40
0.0
 40
0.0
 40
0.9999999102449903
 40
1.999999915854678
 40
2.999999921464366
 40
3.999999927074055
 40
4.999999932683743
 40
5.999999938293429
 40
6.999999943903119
 40
7.999999949512806
 40
8.999999955122495
 40
9.999999960732184
 40
10.99999996634187
 40
11.99999997195156
 40
12.99999997756125
 40
13.99999998317094
 40
14.99999998878062
 40
15.99999999439031
 40
17.0
 40
17.0
 40
17.0
 40
17.0
 10
0.0043452524987515
 20
-1327.540809752221
 30
374.2096389157879
 10
16.47291878273017
 20
-1327.539601010229
 30
374.2096389157879
 10
49.45265557159473
 20
-1326.372743498376
 30
374.2096389157879
 10
98.42191901219667
 20
-1319.617472092961
 30
374.2096389157879
 10
146.5397819700556
 20
-1307.072544898122
 30
374.2096389157879
 10
189.5768697263033
 20
-1281.760113099503
 30
374.2096389157879
 10
222.38640643898
 20
-1244.132384246054
 30
374.2096389157879
 10
249.3249499792637
 20
-1202.656553111462
 30
374.2096389157879
 10
269.0500412172109
 20
-1157.147137045994
 30
374.2096389157879
 10
283.0873741529226
 20
-1109.71237214311
 30
374.2096389157879
 10
292.889839310611
 20
-1061.233110910421
 30
374.2096389157879
 10
299.225846848914
 20
-1012.175636812282
 30
374.2096389157879
 10
299.8312360023429
 20
-962.7144298047086
 30
374.2096389157879
 10
300.064255068362
 20
-913.2591370869457
 30
374.2096389157879
 10
293.1275024840643
 20
-864.1697580292197
 30
374.2096389157879
 10
279.2635524960729
 20
-816.5898397895864
 30
374.2096389157879
 10
257.4741894976542
 20
-772.0043142622495
 30
374.2096389157879
 10
227.8663287216468
 20
-732.1594177794553
 30
374.2096389157879
 10
203.4275563599481
 20
-709.8382066313919
 30
374.2096389157879
 10
190.2969536971832
 20
-699.8782126627077
 30
374.2096389157879
  0
SPLINE
  5
241
330
1F
100
AcDbEntity
  8
Default
100
AcDbSpline
210
0.0
220
0.0
230
1.0
 70
     8
 71
     3
 72
    12
 73
     8
 74
     0
 42
0.000000001
 43
0.0000000001
 40
0.0
 40
0.0
 40
0.0
 40
0.0
 40
1.932841302156171
 40
3.834618248229879
 40
8.022019597965389
 40
12.14534094516417
 40
15.98237434364643
 40
15.98237434364643
 40
15.98237434364643
 40
15.98237434364643
 10
190.2969536971832
 20
-699.8782126627077
 30
374.2096389157879
 10
177.2135230089598
 20
-689.981109023325
 30
374.2096389157879
 10
149.641810133402
 20
-672.7730385364584
 30
374.2096389157879
 10
86.29103536154161
 20
-647.1668069997723
 30
374.2096389157879
 10
-0.2298513448008634
 20
-635.4820423802757
 30
374.2096389157879
 10
-103.2015955462634
 20
-649.5947765498782
 30
374.2096389157879
 10
-164.4440675520563
 20
-680.2207916869319
 30
374.2096389157879
 10
-190.2941420117449
 20
-699.8831354957516
 30
374.2096389157879
  0
SPLINE
  5
242
330
1F
100
AcDbEntity
  8
Default
100
AcDbSpline
210
0.0
220
0.0
230
1.0
 70
    12
 71
     2
 72
     6
 73
     3
 74
     0
 42
0.000000001
 43
0.0000000001
 40
0.0
 40
0.0
 40
0.0
 40
0.584707951152618
 40
0.584707951152618
 40
0.584707951152618
 10
240.3671983789909
 20
-749.3335086086407
 30
374.2096389157879
 41
1.0
 10
244.937167355004
 20
-755.1887442492881
 30
374.2096389157879
 41
0.99964613597365
 10
249.1892711520932
 20
-761.2787372006818
 30
374.2096389157879
 41
1.0
  0
SPLINE
  5
243
330
1F
100
AcDbEntity
  8
Default
100
AcDbSpline
210
0.0
220
0.0
230
1.0
 70
     8
 71
     3
 72
    12
 73
     8
 74
     0
 42
0.000000001
 43
0.0000000001
 40
0.0
 40
0.0
 40
0.0
 40
0.0
 40
1.832654236483523
 40
3.669578742657731
 40
7.371880427553498
 40
11.11625269817009
 40
14.89017125028417
 40
14.89017125028417
 40
14.89017125028417
 40
14.89017125028417
 10
-244.4701718978699
 20
-893.2252286516231
 30
374.2096389157879
 10
-244.4712689903617
 20
-877.6532125076847
 30
374.2096389157879
 10
-241.2815885318687
 20
-846.6030296823836
 30
374.2096389157879
 10
-222.5979483569081
 20
-786.6941895950709
 30
374.2096389157879
 10
-176.9620079222391
 20
-720.7824206739156
 30
374.2096389157879
 10
-95.6020051436567
 20
-668.3217424826828
 30
374.2096389157879
 10
-31.94820141241417
 20
-656.1090399843915
 30
374.2096389157879
 10
0.0043304831156092
 20
-656.1034461990333
 30
374.2096389157879
  0
SPLINE
  5
244
330
1F
100
AcDbEntity
  8
Default
100
AcDbSpline
210
0.0
220
0.0
230
1.0
 70
     8
 71
     3
 72
    12
 73
     8
 74
     0
 42
0.000000001
 43
0.0000000001
 40
0.0
 40
0.0
 40
0.0
 40
0.0
 40
1.889355098582429
 40
3.774519559296819
 40
7.516682166840942
 40
11.21816918271822
 40
14.89017237659326
 40
14.89017237659326
 40
14.89017237659326
 40
14.89017237659326
 10
0.0043304831156092
 20
-656.1034461990333
 30
374.2096389157879
 10
15.99955561988099
 20
-656.1051675060477
 30
374.2096389157879
 10
47.95906035927191
 20
-659.1789084961115
 30
374.2096389157879
 10
109.3017586916166
 20
-677.1544970643989
 30
374.2096389157879
 10
176.9447130040748
 20
-720.7630958400942
 30
374.2096389157879
 10
231.6056620038853
 20
-799.6763906371005
 30
374.2096389157879
 10
244.487348080022
 20
-862.0891548984692
 30
374.2096389157879
 10
244.4790153308368
 20
-893.1829787630016
 30
374.2096389157879
  0
SPLINE
  5
245
330
1F
100
AcDbEntity
  8
Default
100
AcDbSpline
210
0.0
220
0.0
230
1.0
 70
     8
 71
     3
 72
    12
 73
     8
 74
     0
 42
0.000000001
 43
0.0000000001
 40
-15.35241690788854
 40
-15.35241690788854
 40
-15.35241690788854
 40
-15.35241690788854
 40
-11.42846766997576
 40
-7.624449320975275
 40
-3.868777776849768
 40
-1.918305221211262
 40
0.0
 40
0.0
 40
0.0
 40
0.0
 10
244.4790153308368
 20
-893.1829787630016
 30
374.2096389157879
 10
244.4795511068742
 20
-926.3905075737913
 30
374.2096389157879
 10
232.6566999196462
 20
-991.968380839121
 30
374.2096389157879
 10
179.2029144414782
 20
-1075.526636811854
 30
374.2096389157879
 10
111.1332555640651
 20
-1121.620178395634
 30
374.2096389157879
 10
49.00666964418042
 20
-1140.265937961362
 30
374.2096389157879
 10
16.24442128132841
 20
-1143.436118738922
 30
374.2096389157879
 10
0.0043440588410704
 20
-1143.422639318347
 30
374.2096389157879
  0
SPLINE
  5
246
330
1F
100
AcDbEntity
  8
Default
100
AcDbSpline
210
0.0
220
0.0
230
1.0
 70
     8
 71
     3
 72
    12
 73
     8
 74
     0
 42
0.000000001
 43
0.0000000001
 40
-15.34910739099933
 40
-15.34910739099933
 40
-15.34910739099933
 40
-15.34910739099933
 40
-11.58400586625319
 40
-7.773657509622682
 40
-3.936637318219009
 40
-1.971105179282631
 40
0.0
 40
0.0
 40
0.0
 40
0.0
 10
0.0043440588410704
 20
-1143.422639318347
 30
374.2096389157879
 10
-31.85793158401248
 20
-1143.414925565008
 30
374.2096389157879
 10
-96.0943243684219
 20
-1131.347900998227
 30
374.2096389157879
 10
-178.2850280914854
 20
-1076.686528129792
 30
374.2096389157879
 10
-223.2891453567222
 20
-1006.862801597147
 30
374.2096389157879
 10
-241.4274100646412
 20
-943.3053680885679
 30
374.2096389157879
 10
-244.4763657241661
 20
-909.9598846474405
 30
374.2096389157879
 10
-244.4701718978699
 20
-893.2252286516231
 30
374.2096389157879
  0
SPLINE
  5
247
330
1F
100
AcDbEntity
  8
Default
100
AcDbSpline
210
0.0
220
0.0
230
1.0
 70
     8
 71
     3
 72
    24
 73
    20
 74
     0
 42
0.000000001
 43
0.0000000001
 40
-17.0
 40
-17.0
 40
-17.0
 40
-17.0
 40
-16.0
 40
-15.0
 40
-14.0
 40
-13.0
 40
-12.0
 40
-11.0
 40
-10.0
 40
-9.0
 40
-8.0
 40
-7.0
 40
-6.0
 40
-5.0
 40
-4.0
 40
-3.0
 40
-2.0
 40
-1.0
 40
0.0
 40
0.0
 40
0.0
 40
0.0
 10
225.3067941223962
 20
-731.4661547903596
 30
374.2096389157879
 10
236.0997454154613
 20
-743.0441394729206
 30
374.2096389157879
 10
255.5994711219514
 20
-768.1136411412047
 30
374.2096389157879
 10
278.357772182876
 20
-809.9625625453699
 30
374.2096389157879
 10
294.3743833515746
 20
-854.7701922383925
 30
374.2096389157879
 10
304.5105354437319
 20
-901.27975277185
 30
374.2096389157879
 10
307.8929351487718
 20
-948.7235502533428
 30
374.2096389157879
 10
306.7261430359999
 20
-996.2056497719764
 30
374.2096389157879
 10
303.4259015339389
 20
-1043.615770090165
 30
374.2096389157879
 10
294.203600953012
 20
-1090.266291340595
 30
374.2096389157879
 10
282.3490040076263
 20
-1136.267296168708
 30
374.2096389157879
 10
265.785244618733
 20
-1180.822325398587
 30
374.2096389157879
 10
244.1752793097507
 20
-1223.290960805984
 30
374.2096389157879
 10
215.9143882173148
 20
-1261.440463165788
 30
374.2096389157879
 10
183.311691955399
 20
-1296.605753961786
 30
374.2096389157879
 10
140.9080886601268
 20
-1319.127620305139
 30
374.2096389157879
 10
94.68966014515263
 20
-1330.803531702004
 30
374.2096389157879
 10
47.49270848062042
 20
-1336.402874661454
 30
374.2096389157879
 10
15.82859081405149
 20
-1337.348539185353
 30
374.2096389157879
 10
0.0043452524987515
 20
-1337.355052480128
 30
374.2096389157879
  0
SPLINE
  5
248
330
1F
100
AcDbEntity
  8
Default
100
AcDbSpline
210
0.0
220
0.0
230
1.0
 70
     8
 71
     3
 72
    24
 73
    20
 74
     0
 42
0.000000001
 43
0.0000000001
 40
0.0
 40
0.0
 40
0.0
 40
0.0
 40
1.0
 40
2.0
 40
3.0
 40
4.0
 40
5.0
 40
6.0
 40
7.0
 40
8.0
 40
9.0
 40
10.0
 40
11.0
 40
12.0
 40
13.0
 40
14.0
 40
15.0
 40
16.0
 40
17.0
 40
17.0
 40
17.0
 40
17.0
 10
0.0043452524987515
 20
-1337.355052480128
 30
374.2096389157879
 10
-15.81990030905399
 20
-1337.348539185353
 30
374.2096389157879
 10
-47.48401797562292
 20
-1336.402874661454
 30
374.2096389157879
 10
-94.68096964015513
 20
-1330.803531702004
 30
374.2096389157879
 10
-140.8993981551293
 20
-1319.127620305139
 30
374.2096389157879
 10
-183.3030014504015
 20
-1296.605753961786
 30
374.2096389157879
 10
-215.9056977123173
 20
-1261.440463165788
 30
374.2096389157879
 10
-244.1665888047532
 20
-1223.290960805984
 30
374.2096389157879
 10
-265.7765541137355
 20
-1180.822325398587
 30
374.2096389157879
 10
-282.3403135026288
 20
-1136.267296168708
 30
374.2096389157879
 10
-294.1949104480145
 20
-1090.266291340595
 30
374.2096389157879
 10
-303.4172110289414
 20
-1043.615770090165
 30
374.2096389157879
 10
-306.7174525310024
 20
-996.2056497719764
 30
374.2096389157879
 10
-307.8842446437743
 20
-948.7235502533428
 30
374.2096389157879
 10
-304.5018449387344
 20
-901.27975277185
 30
374.2096389157879
 10
-294.3656928465771
 20
-854.7701922383925
 30
374.2096389157879
 10
-278.3490816778785
 20
-809.9625625453699
 30
374.2096389157879
 10
-255.5907806169539
 20
-768.1136411412047
 30
374.2096389157879
 10
-236.0910549104637
 20
-743.0441394729206
 30
374.2096389157879
 10
-225.2981036173987
 20
-731.4661547903596
 30
374.2096389157879
  0
SPLINE
  5
249
330
1F
100
AcDbEntity
  8
Default
100
AcDbSpline
210
0.0
220
0.0
230
1.0
 70
     8
 71
     3
 72
    11
 73
     7
 74
     0
 42
0.000000001
 43
0.0000000001
 40
-4.376489242092977
 40
-4.376489242092977
 40
-4.376489242092977
 40
-4.376489242092977
 40
-2.254729024945146
 40
-1.152264979760031
 40
-0.5805792687200016
 40
0.0
 40
0.0
 40
0.0
 40
0.0
 10
110.0678339832407
 20
-1326.694253616182
 30
374.2096389157879
 10
92.68440781029903
 20
-1331.230995326055
 30
374.2096389157879
 10
65.78729285906184
 20
-1336.23975822105
 30
374.2096389157879
 10
33.75130043882564
 20
-1338.996491889234
 30
374.2096389157879
 10
14.67600332967686
 20
-1339.787977042916
 30
374.2096389157879
 10
4.91988094280623
 20
-1339.916144756271
 30
374.2096389157879
 10
0.0043452524987515
 20
-1339.916175373063
 30
374.2096389157879
  0
SPLINE
  5
24A
330
1F
100
AcDbEntity
  8
Default
100
AcDbSpline
210
0.0
220
0.0
230
1.0
 70
     8
 71
     3
 72
    11
 73
     7
 74
     0
 42
0.000000001
 43
0.0000000001
 40
0.0
 40
0.0
 40
0.0
 40
0.0
 40
0.5805792687200016
 40
1.152264979760031
 40
2.254729024945146
 40
4.376489242092977
 40
4.376489242092977
 40
4.376489242092977
 40
4.376489242092977
 10
0.0043452524987515
 20
-1339.916175373063
 30
374.2096389157879
 10
-4.911190437808727
 20
-1339.916144756271
 30
374.2096389157879
 10
-14.66731282467935
 20
-1339.787977042916
 30
374.2096389157879
 10
-33.74260993382814
 20
-1338.996491889234
 30
374.2096389157879
 10
-65.77860235406433
 20
-1336.23975822105
 30
374.2096389157879
 10
-92.67571730530153
 20
-1331.230995326055
 30
374.2096389157879
 10
-110.0591434782432
 20
-1326.694253616182
 30
374.2096389157879
  0
SPLINE
  5
24B
330
1F
100
AcDbEntity
  8
Default
100
AcDbSpline
210
0.0
220
0.0
230
1.0
 70
     8
 71
     3
 72
    10
 73
     6
 74
     0
 42
0.000000001
 43
0.0000000001
 40
0.0
 40
0.0
 40
0.0
 40
0.0
 40
1.13000657183866
 40
2.287921106073678
 40
8.404575460652143
 40
8.404575460652143
 40
8.404575460652143
 40
8.404575460652143
 10
284.1339442253056
 20
-891.3704501726524
 30
374.2096389157879
 10
282.5343341410435
 20
-881.9389590035084
 30
374.2096389157879
 10
278.4515927608209
 20
-862.9815557858977
 30
374.2096389157879
 10
267.8310537365874
 20
-827.4637343280627
 30
374.2096389157879
 10
249.5386840013471
 20
-786.5586641173089
 30
374.2096389157879
 10
209.4415096895709
 20
-744.2041586683942
 30
374.2096389157879
  0
ARC
  5
24C
330
1F
100
AcDbEntity
  8
Default
100
AcDbCircle
 10
51.79243848685064
 20
-893.4511448179415
 30
374.2096389157879
 40
217.0895956184993
100
AcDbArc
 50
43.43176939257373
 51
70.76478142711291
  0
SPLINE
  5
24D
330
1F
100
AcDbEntity
  8
Default
100
AcDbSpline
210
0.0
220
0.0
230
1.0
 70
     8
 71
     3
 72
    10
 73
     6
 74
     0
 42
0.000000001
 43
0.0000000001
 40
0.0
 40
0.0
 40
0.0
 40
0.0
 40
1.13000657183866
 40
2.287921106073678
 40
8.404575460652143
 40
8.404575460652143
 40
8.404575460652143
 40
8.404575460652143
 10
-284.1252537203081
 20
-891.3704501726524
 30
374.2096389157879
 10
-282.525643636046
 20
-881.9389590035084
 30
374.2096389157879
 10
-278.4429022558234
 20
-862.9815557858977
 30
374.2096389157879
 10
-267.8223632315899
 20
-827.4637343280627
 30
374.2096389157879
 10
-249.5299934963496
 20
-786.5586641173089
 30
374.2096389157879
 10
-209.4328191845734
 20
-744.2041586683942
 30
374.2096389157879
  0
ARC
  5
24E
330
1F
100
AcDbEntity
  8
Default
100
AcDbCircle
 10
-51.78374798185314
 20
-893.4511448179415
 30
374.2096389157879
 40
217.0895956184993
100
AcDbArc
 50
109.2352185728871
 51
136.5682306074263
  0
POLYLINE
  5
24F
330
1F
100
AcDbEntity
  8
Default
100
AcDb2dPolyline
 66
     1
 10
0.0
 20
0.0
 30
374.2096389157879
  0
VERTEX
  5
250
330
24F
100
AcDbEntity
  8
Default
100
AcDbVertex
100
AcDb2dVertex
 10
232.7356665942334
 20
-739.7759319054558
 30
374.2096389157879
  0
VERTEX
  5
251
330
24F
100
AcDbEntity
  8
Default
100
AcDbVertex
100
AcDb2dVertex
 10
232.852903472482
 20
-739.5769031794785
 30
374.2096389157879
  0
SEQEND
  5
252
330
24F
100
AcDbEntity
  8
Default
  0
SPLINE
  5
253
330
1F
100
AcDbEntity
  8
Default
100
AcDbSpline
210
0.0000000000000088
220
0.0000000000000035
230
1.0
 70
    12
 71
     2
 72
     8
 73
     5
 74
     0
 42
0.000000001
 43
0.0000000001
 40
0.0
 40
0.0
 40
0.0
 40
0.0657021758075414
 40
0.0657021758075414
 40
0.5513779496561005
 40
0.5513779496561005
 40
0.5513779496561005
 10
232.852903472482
 20
-739.5769031794785
 30
374.2096389157879
 41
1.0
 10
233.2782258312382
 20
-738.8545971070954
 30
374.2096389157879
 41
0.9938146782922427
 10
233.5335178266841
 20
-738.0565574010237
 30
374.2096389157879
 41
1.0
 10
235.7950843247613
 20
-730.5873442691089
 30
374.2096389157879
 41
0.7132736251541142
 10
228.3666367448077
 20
-728.1952752092617
 30
374.2096389157879
 41
1.0
  0
SPLINE
  5
254
330
1F
100
AcDbEntity
  8
Default
100
AcDbSpline
210
0.0
220
0.0
230
1.0
 70
    12
 71
     2
 72
     6
 73
     3
 74
     0
 42
0.000000001
 43
0.0000000001
 40
0.0
 40
0.0
 40
0.0
 40
0.2409856468466241
 40
0.2409856468466241
 40
0.2409856468466241
 10
228.3666367448077
 20
-728.1952752092617
 30
374.2096389157879
 41
1.0
 10
225.2970145435502
 20
-727.1314533497569
 30
374.2096389157879
 41
0.8709777826878488
 10
222.3841806380455
 20
-728.5700971797015
 30
374.2096389157879
 41
0.8913391083513609
  0
POLYLINE
  5
255
330
1F
100
AcDbEntity
  8
Default
100
AcDb2dPolyline
 66
     1
 10
0.0
 20
0.0
 30
374.2096389157879
  0
VERTEX
  5
256
330
255
100
AcDbEntity
  8
Default
100
AcDbVertex
100
AcDb2dVertex
 10
-232.5963419875238
 20
-739.9977046037862
 30
374.2096389157879
  0
VERTEX
  5
257
330
255
100
AcDbEntity
  8
Default
100
AcDbVertex
100
AcDb2dVertex
 10
-232.7269760892359
 20
-739.7759319054558
 30
374.2096389157879
  0
SEQEND
  5
258
330
255
100
AcDbEntity
  8
Default
  0
POLYLINE
  5
259
330
1F
100
AcDbEntity
  8
Default
100
AcDb2dPolyline
 66
     1
 10
0.0
 20
0.0
 30
374.2096389157879
  0
VERTEX
  5
25A
330
259
100
AcDbEntity
  8
Default
100
AcDbVertex
100
AcDb2dVertex
 10
-232.7269760892359
 20
-739.7759319054558
 30
374.2096389157879
  0
VERTEX
  5
25B
330
259
100
AcDbEntity
  8
Default
100
AcDbVertex
100
AcDb2dVertex
 10
-232.8442129674845
 20
-739.5769031794785
 30
374.2096389157879
  0
SEQEND
  5
25C
330
259
100
AcDbEntity
  8
Default
  0
SPLINE
  5
25D
330
1F
100
AcDbEntity
  8
Default
100
AcDbSpline
210
-0.0000000000000088
220
0.0000000000000035
230
1.0
 70
    12
 71
     2
 72
     8
 73
     5
 74
     0
 42
0.000000001
 43
0.0000000001
 40
0.0
 40
0.0
 40
0.0
 40
0.0657021758075414
 40
0.0657021758075414
 40
0.5513779496561005
 40
0.5513779496561005
 40
0.5513779496561005
 10
-232.8442129674845
 20
-739.5769031794785
 30
374.2096389157879
 41
1.0
 10
-233.2695353262407
 20
-738.8545971070954
 30
374.2096389157879
 41
0.9938146782922427
 10
-233.5248273216866
 20
-738.0565574010237
 30
374.2096389157879
 41
1.0
 10
-235.7863938197642
 20
-730.5873442691089
 30
374.2096389157879
 41
0.7132736251541142
 10
-228.3579462398102
 20
-728.1952752092617
 30
374.2096389157879
 41
1.0
  0
SPLINE
  5
25E
330
1F
100
AcDbEntity
  8
Default
100
AcDbSpline
210
0.0
220
0.0
230
1.0
 70
    12
 71
     2
 72
     6
 73
     3
 74
     0
 42
0.000000001
 43
0.0000000001
 40
0.0
 40
0.0
 40
0.0
 40
0.2409855735434258
 40
0.2409855735434258
 40
0.2409855735434258
 10
-228.3579462398102
 20
-728.1952752092617
 30
374.2096389157879
 41
1.0
 10
-225.2883251105891
 20
-727.1314537212864
 30
374.2096389157879
 41
0.8709778219339256
 10
-222.3754918646246
 20
-728.570096324479
 30
374.2096389157879
 41
0.8913390959643272
  0
SPLINE
  5
25F
330
1F
100
AcDbEntity
  8
Default
100
AcDbSpline
210
0.0
220
0.0
230
1.0
 70
     8
 71
     3
 72
    24
 73
    20
 74
     0
 42
0.000000001
 43
0.0000000001
 40
-17.0
 40
-17.0
 40
-17.0
 40
-17.0
 40
-15.99999999439031
 40
-14.99999998878062
 40
-13.99999998317094
 40
-12.99999997756125
 40
-11.99999997195156
 40
-10.99999996634187
 40
-9.999999960732184
 40
-8.999999955122495
 40
-7.999999949512806
 40
-6.999999943903119
 40
-5.999999938293429
 40
-4.999999932683743
 40
-3.999999927074055
 40
-2.999999921464366
 40
-1.999999915854678
 40
-0.9999999102449903
 40
0.0
 40
0.0
 40
0.0
 40
0.0
 10
699.8831354957516
 20
-190.2941420117451
 30
374.2096389157879
 10
709.8382066313919
 20
-203.4188658549508
 30
374.2096389157879
 10
732.1594177794553
 20
-227.8576382166495
 30
374.2096389157879
 10
772.0043142622494
 20
-257.4654989926568
 30
374.2096389157879
 10
816.5898397895862
 20
-279.2548619910755
 30
374.2096389157879
 10
864.1697580292195
 20
-293.118811979067
 30
374.2096389157879
 10
913.2591370869457
 20
-300.0555645633647
 30
374.2096389157879
 10
962.7144298047085
 20
-299.8225454973456
 30
374.2096389157879
 10
1012.175636812282
 20
-299.2171563439167
 30
374.2096389157879
 10
1061.233110910421
 20
-292.8811488056137
 30
374.2096389157879
 10
1109.71237214311
 20
-283.0786836479254
 30
374.2096389157879
 10
1157.147137045994
 20
-269.0413507122137
 30
374.2096389157879
 10
1202.656553111462
 20
-249.3162594742664
 30
374.2096389157879
 10
1244.132384246054
 20
-222.3777159339828
 30
374.2096389157879
 10
1281.760113099503
 20
-189.5681792213061
 30
374.2096389157879
 10
1307.072544898122
 20
-146.5310914650584
 30
374.2096389157879
 10
1319.617472092961
 20
-98.41322850719947
 30
374.2096389157879
 10
1326.372743498376
 20
-49.44396506659752
 30
374.2096389157879
 10
1327.539601010229
 20
-16.46422827773297
 30
374.2096389157879
 10
1327.540809752221
 20
0.0043452524984567
 30
374.2096389157879
  0
SPLINE
  5
260
330
1F
100
AcDbEntity
  8
Default
100
AcDbSpline
210
0.0
220
0.0
230
1.0
 70
     8
 71
     3
 72
    24
 73
    20
 74
     0
 42
0.000000001
 43
0.0000000001
 40
0.0
 40
0.0
 40
0.0
 40
0.0
 40
0.9999999102449903
 40
1.999999915854678
 40
2.999999921464366
 40
3.999999927074055
 40
4.999999932683743
 40
5.999999938293429
 40
6.999999943903119
 40
7.999999949512806
 40
8.999999955122495
 40
9.999999960732184
 40
10.99999996634187
 40
11.99999997195156
 40
12.99999997756125
 40
13.99999998317094
 40
14.99999998878062
 40
15.99999999439031
 40
17.0
 40
17.0
 40
17.0
 40
17.0
 10
1327.540809752221
 20
0.0043452524984567
 30
374.2096389157879
 10
1327.539601010229
 20
16.47291878272988
 30
374.2096389157879
 10
1326.372743498376
 20
49.45265557159444
 30
374.2096389157879
 10
1319.617472092961
 20
98.42191901219637
 30
374.2096389157879
 10
1307.072544898122
 20
146.5397819700553
 30
374.2096389157879
 10
1281.760113099503
 20
189.576869726303
 30
374.2096389157879
 10
1244.132384246054
 20
222.3864064389797
 30
374.2096389157879
 10
1202.656553111462
 20
249.3249499792634
 30
374.2096389157879
 10
1157.147137045994
 20
269.0500412172107
 30
374.2096389157879
 10
1109.71237214311
 20
283.0873741529224
 30
374.2096389157879
 10
1061.233110910421
 20
292.8898393106108
 30
374.2096389157879
 10
1012.175636812283
 20
299.2258468489138
 30
374.2096389157879
 10
962.7144298047086
 20
299.8312360023426
 30
374.2096389157879
 10
913.2591370869459
 20
300.0642550683617
 30
374.2096389157879
 10
864.1697580292198
 20
293.1275024840641
 30
374.2096389157879
 10
816.5898397895864
 20
279.2635524960727
 30
374.2096389157879
 10
772.0043142622496
 20
257.474189497654
 30
374.2096389157879
 10
732.1594177794553
 20
227.8663287216466
 30
374.2096389157879
 10
709.8382066313919
 20
203.4275563599479
 30
374.2096389157879
 10
699.8782126627077
 20
190.296953697183
 30
374.2096389157879
  0
SPLINE
  5
261
330
1F
100
AcDbEntity
  8
Default
100
AcDbSpline
210
0.0
220
0.0
230
1.0
 70
     8
 71
     3
 72
    12
 73
     8
 74
     0
 42
0.000000001
 43
0.0000000001
 40
0.0
 40
0.0
 40
0.0
 40
0.0
 40
1.932841302156171
 40
3.834618248229879
 40
8.022019597965389
 40
12.14534094516417
 40
15.98237434364643
 40
15.98237434364643
 40
15.98237434364643
 40
15.98237434364643
 10
699.8782126627077
 20
190.296953697183
 30
374.2096389157879
 10
689.981109023325
 20
177.2135230089596
 30
374.2096389157879
 10
672.7730385364584
 20
149.6418101334019
 30
374.2096389157879
 10
647.1668069997723
 20
86.29103536154147
 30
374.2096389157879
 10
635.4820423802757
 20
-0.2298513448010046
 30
374.2096389157879
 10
649.5947765498782
 20
-103.2015955462636
 30
374.2096389157879
 10
680.2207916869319
 20
-164.4440675520565
 30
374.2096389157879
 10
699.8831354957516
 20
-190.2941420117451
 30
374.2096389157879
  0
SPLINE
  5
262
330
1F
100
AcDbEntity
  8
Default
100
AcDbSpline
210
0.0
220
0.0
230
1.0
 70
    12
 71
     2
 72
     6
 73
     3
 74
     0
 42
0.000000001
 43
0.0000000001
 40
0.0
 40
0.0
 40
0.0
 40
0.584707951152618
 40
0.584707951152618
 40
0.584707951152618
 10
749.3335086086407
 20
240.3671983789907
 30
374.2096389157879
 41
1.0
 10
755.1887442492881
 20
244.9371673550039
 30
374.2096389157879
 41
0.99964613597365
 10
761.2787372006818
 20
249.189271152093
 30
374.2096389157879
 41
1.0
  0
SPLINE
  5
263
330
1F
100
AcDbEntity
  8
Default
100
AcDbSpline
210
0.0
220
0.0
230
1.0
 70
     8
 71
     3
 72
    12
 73
     8
 74
     0
 42
0.000000001
 43
0.0000000001
 40
0.0
 40
0.0
 40
0.0
 40
0.0
 40
1.832654236483523
 40
3.669578742657731
 40
7.371880427553498
 40
11.11625269817009
 40
14.89017125028417
 40
14.89017125028417
 40
14.89017125028417
 40
14.89017125028417
 10
893.2252286516231
 20
-244.4701718978701
 30
374.2096389157879
 10
877.6532125076847
 20
-244.471268990362
 30
374.2096389157879
 10
846.6030296823836
 20
-241.2815885318689
 30
374.2096389157879
 10
786.6941895950709
 20
-222.5979483569083
 30
374.2096389157879
 10
720.7824206739156
 20
-176.9620079222392
 30
374.2096389157879
 10
668.3217424826828
 20
-95.60200514365684
 30
374.2096389157879
 10
656.1090399843915
 20
-31.94820141241431
 30
374.2096389157879
 10
656.1034461990333
 20
0.0043304831154636
 30
374.2096389157879
  0
SPLINE
  5
264
330
1F
100
AcDbEntity
  8
Default
100
AcDbSpline
210
0.0
220
0.0
230
1.0
 70
     8
 71
     3
 72
    12
 73
     8
 74
     0
 42
0.000000001
 43
0.0000000001
 40
0.0
 40
0.0
 40
0.0
 40
0.0
 40
1.889355098582429
 40
3.774519559296819
 40
7.516682166840942
 40
11.21816918271822
 40
14.89017237659326
 40
14.89017237659326
 40
14.89017237659326
 40
14.89017237659326
 10
656.1034461990333
 20
0.0043304831154636
 30
374.2096389157879
 10
656.1051675060477
 20
15.99955561988085
 30
374.2096389157879
 10
659.1789084961115
 20
47.95906035927177
 30
374.2096389157879
 10
677.1544970643989
 20
109.3017586916165
 30
374.2096389157879
 10
720.7630958400942
 20
176.9447130040747
 30
374.2096389157879
 10
799.6763906371005
 20
231.6056620038851
 30
374.2096389157879
 10
862.0891548984692
 20
244.4873480800218
 30
374.2096389157879
 10
893.1829787630016
 20
244.4790153308366
 30
374.2096389157879
  0
SPLINE
  5
265
330
1F
100
AcDbEntity
  8
Default
100
AcDbSpline
210
0.0
220
0.0
230
1.0
 70
     8
 71
     3
 72
    12
 73
     8
 74
     0
 42
0.000000001
 43
0.0000000001
 40
-15.35241690788854
 40
-15.35241690788854
 40
-15.35241690788854
 40
-15.35241690788854
 40
-11.42846766997576
 40
-7.624449320975275
 40
-3.868777776849768
 40
-1.918305221211262
 40
0.0
 40
0.0
 40
0.0
 40
0.0
 10
893.1829787630016
 20
244.4790153308366
 30
374.2096389157879
 10
926.3905075737913
 20
244.479551106874
 30
374.2096389157879
 10
991.968380839121
 20
232.6566999196459
 30
374.2096389157879
 10
1075.526636811854
 20
179.202914441478
 30
374.2096389157879
 10
1121.620178395634
 20
111.1332555640649
 30
374.2096389157879
 10
1140.265937961362
 20
49.00666964418016
 30
374.2096389157879
 10
1143.436118738922
 20
16.24442128132816
 30
374.2096389157879
 10
1143.422639318347
 20
0.0043440588408165
 30
374.2096389157879
  0
SPLINE
  5
266
330
1F
100
AcDbEntity
  8
Default
100
AcDbSpline
210
0.0
220
0.0
230
1.0
 70
     8
 71
     3
 72
    12
 73
     8
 74
     0
 42
0.000000001
 43
0.0000000001
 40
-15.34910739099933
 40
-15.34910739099933
 40
-15.34910739099933
 40
-15.34910739099933
 40
-11.58400586625319
 40
-7.773657509622682
 40
-3.936637318219009
 40
-1.971105179282631
 40
0.0
 40
0.0
 40
0.0
 40
0.0
 10
1143.422639318347
 20
0.0043440588408165
 30
374.2096389157879
 10
1143.414925565008
 20
-31.85793158401273
 30
374.2096389157879
 10
1131.347900998227
 20
-96.09432436842215
 30
374.2096389157879
 10
1076.686528129792
 20
-178.2850280914856
 30
374.2096389157879
 10
1006.862801597147
 20
-223.2891453567224
 30
374.2096389157879
 10
943.3053680885679
 20
-241.4274100646414
 30
374.2096389157879
 10
909.9598846474405
 20
-244.4763657241662
 30
374.2096389157879
 10
893.2252286516231
 20
-244.4701718978701
 30
374.2096389157879
  0
SPLINE
  5
267
330
1F
100
AcDbEntity
  8
Default
100
AcDbSpline
210
0.0
220
0.0
230
1.0
 70
     8
 71
     3
 72
    24
 73
    20
 74
     0
 42
0.000000001
 43
0.0000000001
 40
-17.0
 40
-17.0
 40
-17.0
 40
-17.0
 40
-16.0
 40
-15.0
 40
-14.0
 40
-13.0
 40
-12.0
 40
-11.0
 40
-10.0
 40
-9.0
 40
-8.0
 40
-7.0
 40
-6.0
 40
-5.0
 40
-4.0
 40
-3.0
 40
-2.0
 40
-1.0
 40
0.0
 40
0.0
 40
0.0
 40
0.0
 10
731.4661547903596
 20
225.3067941223961
 30
374.2096389157879
 10
743.0441394729206
 20
236.0997454154611
 30
374.2096389157879
 10
768.1136411412047
 20
255.5994711219512
 30
374.2096389157879
 10
809.96256254537
 20
278.3577721828759
 30
374.2096389157879
 10
854.7701922383925
 20
294.3743833515744
 30
374.2096389157879
 10
901.27975277185
 20
304.5105354437317
 30
374.2096389157879
 10
948.7235502533428
 20
307.8929351487716
 30
374.2096389157879
 10
996.2056497719766
 20
306.7261430359997
 30
374.2096389157879
 10
1043.615770090165
 20
303.4259015339387
 30
374.2096389157879
 10
1090.266291340595
 20
294.2036009530118
 30
374.2096389157879
 10
1136.267296168708
 20
282.3490040076261
 30
374.2096389157879
 10
1180.822325398587
 20
265.7852446187328
 30
374.2096389157879
 10
1223.290960805984
 20
244.1752793097505
 30
374.2096389157879
 10
1261.440463165788
 20
215.9143882173145
 30
374.2096389157879
 10
1296.605753961786
 20
183.3116919553988
 30
374.2096389157879
 10
1319.127620305139
 20
140.9080886601265
 30
374.2096389157879
 10
1330.803531702004
 20
94.68966014515233
 30
374.2096389157879
 10
1336.402874661454
 20
47.49270848062012
 30
374.2096389157879
 10
1337.348539185353
 20
15.8285908140512
 30
374.2096389157879
 10
1337.355052480128
 20
0.0043452524984546
 30
374.2096389157879
  0
SPLINE
  5
268
330
1F
100
AcDbEntity
  8
Default
100
AcDbSpline
210
0.0
220
0.0
230
1.0
 70
     8
 71
     3
 72
    24
 73
    20
 74
     0
 42
0.000000001
 43
0.0000000001
 40
0.0
 40
0.0
 40
0.0
 40
0.0
 40
1.0
 40
2.0
 40
3.0
 40
4.0
 40
5.0
 40
6.0
 40
7.0
 40
8.0
 40
9.0
 40
10.0
 40
11.0
 40
12.0
 40
13.0
 40
14.0
 40
15.0
 40
16.0
 40
17.0
 40
17.0
 40
17.0
 40
17.0
 10
1337.355052480128
 20
0.0043452524984546
 30
374.2096389157879
 10
1337.348539185353
 20
-15.81990030905429
 30
374.2096389157879
 10
1336.402874661454
 20
-47.48401797562322
 30
374.2096389157879
 10
1330.803531702004
 20
-94.68096964015542
 30
374.2096389157879
 10
1319.127620305139
 20
-140.8993981551296
 30
374.2096389157879
 10
1296.605753961786
 20
-183.3030014504018
 30
374.2096389157879
 10
1261.440463165788
 20
-215.9056977123176
 30
374.2096389157879
 10
1223.290960805984
 20
-244.1665888047535
 30
374.2096389157879
 10
1180.822325398587
 20
-265.7765541137358
 30
374.2096389157879
 10
1136.267296168708
 20
-282.340313502629
 30
374.2096389157879
 10
1090.266291340595
 20
-294.1949104480148
 30
374.2096389157879
 10
1043.615770090165
 20
-303.4172110289417
 30
374.2096389157879
 10
996.2056497719764
 20
-306.7174525310027
 30
374.2096389157879
 10
948.7235502533426
 20
-307.8842446437745
 30
374.2096389157879
 10
901.2797527718499
 20
-304.5018449387346
 30
374.2096389157879
 10
854.7701922383923
 20
-294.3656928465772
 30
374.2096389157879
 10
809.9625625453697
 20
-278.3490816778787
 30
374.2096389157879
 10
768.1136411412047
 20
-255.5907806169541
 30
374.2096389157879
 10
743.0441394729206
 20
-236.0910549104639
 30
374.2096389157879
 10
731.4661547903596
 20
-225.2981036173989
 30
374.2096389157879
  0
SPLINE
  5
269
330
1F
100
AcDbEntity
  8
Default
100
AcDbSpline
210
0.0
220
0.0
230
1.0
 70
     8
 71
     3
 72
    11
 73
     7
 74
     0
 42
0.000000001
 43
0.0000000001
 40
-4.376489242092977
 40
-4.376489242092977
 40
-4.376489242092977
 40
-4.376489242092977
 40
-2.254729024945146
 40
-1.152264979760031
 40
-0.5805792687200016
 40
0.0
 40
0.0
 40
0.0
 40
0.0
 10
1326.694253616182
 20
110.0678339832404
 30
374.2096389157879
 10
1331.230995326055
 20
92.68440781029873
 30
374.2096389157879
 10
1336.23975822105
 20
65.78729285906153
 30
374.2096389157879
 10
1338.996491889234
 20
33.75130043882534
 30
374.2096389157879
 10
1339.787977042916
 20
14.67600332967656
 30
374.2096389157879
 10
1339.916144756271
 20
4.919880942805932
 30
374.2096389157879
 10
1339.916175373063
 20
0.004345252498454
 30
374.2096389157879
  0
SPLINE
  5
26A
330
1F
100
AcDbEntity
  8
Default
100
AcDbSpline
210
0.0
220
0.0
230
1.0
 70
     8
 71
     3
 72
    11
 73
     7
 74
     0
 42
0.000000001
 43
0.0000000001
 40
0.0
 40
0.0
 40
0.0
 40
0.0
 40
0.5805792687200016
 40
1.152264979760031
 40
2.254729024945146
 40
4.376489242092977
 40
4.376489242092977
 40
4.376489242092977
 40
4.376489242092977
 10
1339.916175373063
 20
0.004345252498454
 30
374.2096389157879
 10
1339.916144756271
 20
-4.911190437809024
 30
374.2096389157879
 10
1339.787977042916
 20
-14.66731282467965
 30
374.2096389157879
 10
1338.996491889234
 20
-33.74260993382844
 30
374.2096389157879
 10
1336.23975822105
 20
-65.77860235406463
 30
374.2096389157879
 10
1331.230995326055
 20
-92.67571730530184
 30
374.2096389157879
 10
1326.694253616182
 20
-110.0591434782435
 30
374.2096389157879
  0
SPLINE
  5
26B
330
1F
100
AcDbEntity
  8
Default
100
AcDbSpline
210
0.0
220
0.0
230
1.0
 70
     8
 71
     3
 72
    10
 73
     6
 74
     0
 42
0.000000001
 43
0.0000000001
 40
0.0
 40
0.0
 40
0.0
 40
0.0
 40
1.13000657183866
 40
2.287921106073678
 40
8.404575460652143
 40
8.404575460652143
 40
8.404575460652143
 40
8.404575460652143
 10
891.3704501726524
 20
284.1339442253055
 30
374.2096389157879
 10
881.9389590035086
 20
282.5343341410433
 30
374.2096389157879
 10
862.9815557858979
 20
278.4515927608207
 30
374.2096389157879
 10
827.4637343280629
 20
267.8310537365872
 30
374.2096389157879
 10
786.5586641173089
 20
249.5386840013469
 30
374.2096389157879
 10
744.2041586683942
 20
209.4415096895708
 30
374.2096389157879
  0
ARC
  5
26C
330
1F
100
AcDbEntity
  8
Default
100
AcDbCircle
 10
893.4511448179415
 20
51.79243848685044
 30
374.2096389157879
 40
217.0895956184993
100
AcDbArc
 50
133.4317693925737
 51
160.7647814271129
  0
SPLINE
  5
26D
330
1F
100
AcDbEntity
  8
Default
100
AcDbSpline
210
0.0
220
0.0
230
1.0
 70
     8
 71
     3
 72
    10
 73
     6
 74
     0
 42
0.000000001
 43
0.0000000001
 40
0.0
 40
0.0
 40
0.0
 40
0.0
 40
1.13000657183866
 40
2.287921106073678
 40
8.404575460652143
 40
8.404575460652143
 40
8.404575460652143
 40
8.404575460652143
 10
891.3704501726522
 20
-284.1252537203083
 30
374.2096389157879
 10
881.9389590035084
 20
-282.5256436360461
 30
374.2096389157879
 10
862.9815557858975
 20
-278.4429022558235
 30
374.2096389157879
 10
827.4637343280627
 20
-267.82236323159
 30
374.2096389157879
 10
786.5586641173089
 20
-249.5299934963497
 30
374.2096389157879
 10
744.2041586683942
 20
-209.4328191845736
 30
374.2096389157879
  0
ARC
  5
26E
330
1F
100
AcDbEntity
  8
Default
100
AcDbCircle
 10
893.4511448179415
 20
-51.78374798185334
 30
374.2096389157879
 40
217.0895956184993
100
AcDbArc
 50
199.2352185728871
 51
226.5682306074263
  0
POLYLINE
  5
26F
330
1F
100
AcDbEntity
  8
Default
100
AcDb2dPolyline
 66
     1
 10
0.0
 20
0.0
 30
374.2096389157879
  0
VERTEX
  5
270
330
26F
100
AcDbEntity
  8
Default
100
AcDbVertex
100
AcDb2dVertex
 10
739.7759319054558
 20
232.7356665942332
 30
374.2096389157879
  0
VERTEX
  5
271
330
26F
100
AcDbEntity
  8
Default
100
AcDbVertex
100
AcDb2dVertex
 10
739.5769031794785
 20
232.8529034724819
 30
374.2096389157879
  0
SEQEND
  5
272
330
26F
100
AcDbEntity
  8
Default
  0
SPLINE
  5
273
330
1F
100
AcDbEntity
  8
Default
100
AcDbSpline
210
-0.0000000000000035
220
0.0000000000000088
230
1.0
 70
    12
 71
     2
 72
     8
 73
     5
 74
     0
 42
0.000000001
 43
0.0000000001
 40
0.0
 40
0.0
 40
0.0
 40
0.0657021758075414
 40
0.0657021758075414
 40
0.5513779496561005
 40
0.5513779496561005
 40
0.5513779496561005
 10
739.5769031794785
 20
232.8529034724819
 30
374.2096389157879
 41
1.0
 10
738.8545971070954
 20
233.278225831238
 30
374.2096389157879
 41
0.9938146782922427
 10
738.0565574010237
 20
233.533517826684
 30
374.2096389157879
 41
1.0
 10
730.5873442691089
 20
235.7950843247611
 30
374.2096389157879
 41
0.7132736251541142
 10
728.1952752092617
 20
228.3666367448075
 30
374.2096389157879
 41
1.0
  0
SPLINE
  5
274
330
1F
100
AcDbEntity
  8
Default
100
AcDbSpline
210
0.0
220
0.0
230
1.0
 70
    12
 71
     2
 72
     6
 73
     3
 74
     0
 42
0.000000001
 43
0.0000000001
 40
0.0
 40
0.0
 40
0.0
 40
0.2409856468466241
 40
0.2409856468466241
 40
0.2409856468466241
 10
728.1952752092617
 20
228.3666367448075
 30
374.2096389157879
 41
1.0
 10
727.1314533497569
 20
225.29701454355
 30
374.2096389157879
 41
0.8709777826878488
 10
728.5700971797015
 20
222.3841806380454
 30
374.2096389157879
 41
0.8913391083513609
  0
POLYLINE
  5
275
330
1F
100
AcDbEntity
  8
Default
100
AcDb2dPolyline
 66
     1
 10
0.0
 20
0.0
 30
374.2096389157879
  0
VERTEX
  5
276
330
275
100
AcDbEntity
  8
Default
100
AcDbVertex
100
AcDb2dVertex
 10
739.9977046037862
 20
-232.596341987524
 30
374.2096389157879
  0
VERTEX
  5
277
330
275
100
AcDbEntity
  8
Default
100
AcDbVertex
100
AcDb2dVertex
 10
739.7759319054558
 20
-232.7269760892361
 30
374.2096389157879
  0
SEQEND
  5
278
330
275
100
AcDbEntity
  8
Default
  0
POLYLINE
  5
279
330
1F
100
AcDbEntity
  8
Default
100
AcDb2dPolyline
 66
     1
 10
0.0
 20
0.0
 30
374.2096389157879
  0
VERTEX
  5
27A
330
279
100
AcDbEntity
  8
Default
100
AcDbVertex
100
AcDb2dVertex
 10
739.7759319054558
 20
-232.7269760892361
 30
374.2096389157879
  0
VERTEX
  5
27B
330
279
100
AcDbEntity
  8
Default
100
AcDbVertex
100
AcDb2dVertex
 10
739.5769031794785
 20
-232.8442129674847
 30
374.2096389157879
  0
SEQEND
  5
27C
330
279
100
AcDbEntity
  8
Default
  0
SPLINE
  5
27D
330
1F
100
AcDbEntity
  8
Default
100
AcDbSpline
210
-0.0000000000000035
220
-0.0000000000000088
230
1.0
 70
    12
 71
     2
 72
     8
 73
     5
 74
     0
 42
0.000000001
 43
0.0000000001
 40
0.0
 40
0.0
 40
0.0
 40
0.0657021758075414
 40
0.0657021758075414
 40
0.5513779496561005
 40
0.5513779496561005
 40
0.5513779496561005
 10
739.5769031794785
 20
-232.8442129674847
 30
374.2096389157879
 41
1.0
 10
738.8545971070954
 20
-233.2695353262408
 30
374.2096389157879
 41
0.9938146782922427
 10
738.0565574010237
 20
-233.5248273216868
 30
374.2096389157879
 41
1.0
 10
730.5873442691089
 20
-235.7863938197644
 30
374.2096389157879
 41
0.7132736251541142
 10
728.1952752092617
 20
-228.3579462398104
 30
374.2096389157879
 41
1.0
  0
SPLINE
  5
27E
330
1F
100
AcDbEntity
  8
Default
100
AcDbSpline
210
0.0
220
0.0
230
1.0
 70
    12
 71
     2
 72
     6
 73
     3
 74
     0
 42
0.000000001
 43
0.0000000001
 40
0.0
 40
0.0
 40
0.0
 40
0.2409855735434258
 40
0.2409855735434258
 40
0.2409855735434258
 10
728.1952752092617
 20
-228.3579462398104
 30
374.2096389157879
 41
1.0
 10
727.1314537212864
 20
-225.2883251105893
 30
374.2096389157879
 41
0.8709778219339256
 10
728.570096324479
 20
-222.3754918646247
 30
374.2096389157879
 41
0.8913390959643272
  0
SPLINE
  5
27F
330
1F
100
AcDbEntity
  8
Default
100
AcDbSpline
210
0.0
220
0.0
230
1.0
 70
     8
 71
     3
 72
    24
 73
    20
 74
     0
 42
0.000000001
 43
0.0000000001
 40
-17.0
 40
-17.0
 40
-17.0
 40
-17.0
 40
-15.99999999439031
 40
-14.99999998878062
 40
-13.99999998317094
 40
-12.99999997756125
 40
-11.99999997195156
 40
-10.99999996634187
 40
-9.999999960732184
 40
-8.999999955122495
 40
-7.999999949512806
 40
-6.999999943903119
 40
-5.999999938293429
 40
-4.999999932683743
 40
-3.999999927074055
 40
-2.999999921464366
 40
-1.999999915854678
 40
-0.9999999102449903
 40
0.0
 40
0.0
 40
0.0
 40
0.0
 10
-699.8831354957516
 20
-190.2941420117448
 30
374.2096389157879
 10
-709.8382066313919
 20
-203.4188658549504
 30
374.2096389157879
 10
-732.1594177794553
 20
-227.8576382166491
 30
374.2096389157879
 10
-772.0043142622496
 20
-257.4654989926565
 30
374.2096389157879
 10
-816.5898397895864
 20
-279.2548619910752
 30
374.2096389157879
 10
-864.1697580292198
 20
-293.1188119790666
 30
374.2096389157879
 10
-913.2591370869459
 20
-300.0555645633642
 30
374.2096389157879
 10
-962.7144298047086
 20
-299.8225454973451
 30
374.2096389157879
 10
-1012.175636812283
 20
-299.2171563439163
 30
374.2096389157879
 10
-1061.233110910421
 20
-292.8811488056133
 30
374.2096389157879
 10
-1109.71237214311
 20
-283.0786836479249
 30
374.2096389157879
 10
-1157.147137045994
 20
-269.0413507122132
 30
374.2096389157879
 10
-1202.656553111462
 20
-249.3162594742659
 30
374.2096389157879
 10
-1244.132384246054
 20
-222.3777159339822
 30
374.2096389157879
 10
-1281.760113099503
 20
-189.5681792213055
 30
374.2096389157879
 10
-1307.072544898122
 20
-146.5310914650578
 30
374.2096389157879
 10
-1319.617472092961
 20
-98.41322850719887
 30
374.2096389157879
 10
-1326.372743498376
 20
-49.44396506659693
 30
374.2096389157879
 10
-1327.539601010229
 20
-16.46422827773237
 30
374.2096389157879
 10
-1327.540809752221
 20
0.0043452524990463
 30
374.2096389157879
  0
SPLINE
  5
280
330
1F
100
AcDbEntity
  8
Default
100
AcDbSpline
210
0.0
220
0.0
230
1.0
 70
     8
 71
     3
 72
    24
 73
    20
 74
     0
 42
0.000000001
 43
0.0000000001
 40
0.0
 40
0.0
 40
0.0
 40
0.0
 40
0.9999999102449903
 40
1.999999915854678
 40
2.999999921464366
 40
3.999999927074055
 40
4.999999932683743
 40
5.999999938293429
 40
6.999999943903119
 40
7.999999949512806
 40
8.999999955122495
 40
9.999999960732184
 40
10.99999996634187
 40
11.99999997195156
 40
12.99999997756125
 40
13.99999998317094
 40
14.99999998878062
 40
15.99999999439031
 40
17.0
 40
17.0
 40
17.0
 40
17.0
 10
-1327.540809752221
 20
0.0043452524990463
 30
374.2096389157879
 10
-1327.539601010229
 20
16.47291878273047
 30
374.2096389157879
 10
-1326.372743498376
 20
49.45265557159502
 30
374.2096389157879
 10
-1319.617472092961
 20
98.42191901219697
 30
374.2096389157879
 10
-1307.072544898122
 20
146.5397819700559
 30
374.2096389157879
 10
-1281.760113099503
 20
189.5768697263036
 30
374.2096389157879
 10
-1244.132384246054
 20
222.3864064389803
 30
374.2096389157879
 10
-1202.656553111462
 20
249.3249499792639
 30
374.2096389157879
 10
-1157.147137045994
 20
269.0500412172112
 30
374.2096389157879
 10
-1109.71237214311
 20
283.0873741529229
 30
374.2096389157879
 10
-1061.233110910421
 20
292.8898393106113
 30
374.2096389157879
 10
-1012.175636812282
 20
299.2258468489142
 30
374.2096389157879
 10
-962.7144298047085
 20
299.8312360023431
 30
374.2096389157879
 10
-913.2591370869457
 20
300.0642550683622
 30
374.2096389157879
 10
-864.1697580292195
 20
293.1275024840644
 30
374.2096389157879
 10
-816.5898397895862
 20
279.263552496073
 30
374.2096389157879
 10
-772.0043142622494
 20
257.4741894976543
 30
374.2096389157879
 10
-732.1594177794553
 20
227.866328721647
 30
374.2096389157879
 10
-709.8382066313919
 20
203.4275563599483
 30
374.2096389157879
 10
-699.8782126627077
 20
190.2969536971833
 30
374.2096389157879
  0
SPLINE
  5
281
330
1F
100
AcDbEntity
  8
Default
100
AcDbSpline
210
0.0
220
0.0
230
1.0
 70
     8
 71
     3
 72
    12
 73
     8
 74
     0
 42
0.000000001
 43
0.0000000001
 40
0.0
 40
0.0
 40
0.0
 40
0.0
 40
1.932841302156171
 40
3.834618248229879
 40
8.022019597965389
 40
12.14534094516417
 40
15.98237434364643
 40
15.98237434364643
 40
15.98237434364643
 40
15.98237434364643
 10
-699.8782126627077
 20
190.2969536971833
 30
374.2096389157879
 10
-689.981109023325
 20
177.2135230089599
 30
374.2096389157879
 10
-672.7730385364584
 20
149.6418101334022
 30
374.2096389157879
 10
-647.1668069997723
 20
86.29103536154175
 30
374.2096389157879
 10
-635.4820423802757
 20
-0.2298513448007223
 30
374.2096389157879
 10
-649.5947765498782
 20
-103.2015955462633
 30
374.2096389157879
 10
-680.2207916869319
 20
-164.4440675520562
 30
374.2096389157879
 10
-699.8831354957516
 20
-190.2941420117448
 30
374.2096389157879
  0
SPLINE
  5
282
330
1F
100
AcDbEntity
  8
Default
100
AcDbSpline
210
0.0
220
0.0
230
1.0
 70
    12
 71
     2
 72
     6
 73
     3
 74
     0
 42
0.000000001
 43
0.0000000001
 40
0.0
 40
0.0
 40
0.0
 40
0.584707951152618
 40
0.584707951152618
 40
0.584707951152618
 10
-749.3335086086407
 20
240.3671983789911
 30
374.2096389157879
 41
1.0
 10
-755.1887442492881
 20
244.9371673550042
 30
374.2096389157879
 41
0.99964613597365
 10
-761.2787372006818
 20
249.1892711520933
 30
374.2096389157879
 41
1.0
  0
SPLINE
  5
283
330
1F
100
AcDbEntity
  8
Default
100
AcDbSpline
210
0.0
220
0.0
230
1.0
 70
     8
 71
     3
 72
    12
 73
     8
 74
     0
 42
0.000000001
 43
0.0000000001
 40
0.0
 40
0.0
 40
0.0
 40
0.0
 40
1.832654236483523
 40
3.669578742657731
 40
7.371880427553498
 40
11.11625269817009
 40
14.89017125028417
 40
14.89017125028417
 40
14.89017125028417
 40
14.89017125028417
 10
-893.2252286516231
 20
-244.4701718978697
 30
374.2096389157879
 10
-877.6532125076847
 20
-244.4712689903616
 30
374.2096389157879
 10
-846.6030296823836
 20
-241.2815885318685
 30
374.2096389157879
 10
-786.6941895950709
 20
-222.5979483569079
 30
374.2096389157879
 10
-720.7824206739156
 20
-176.9620079222389
 30
374.2096389157879
 10
-668.3217424826828
 20
-95.60200514365655
 30
374.2096389157879
 10
-656.1090399843915
 20
-31.94820141241402
 30
374.2096389157879
 10
-656.1034461990333
 20
0.0043304831157549
 30
374.2096389157879
  0
SPLINE
  5
284
330
1F
100
AcDbEntity
  8
Default
100
AcDbSpline
210
0.0
220
0.0
230
1.0
 70
     8
 71
     3
 72
    12
 73
     8
 74
     0
 42
0.000000001
 43
0.0000000001
 40
0.0
 40
0.0
 40
0.0
 40
0.0
 40
1.889355098582429
 40
3.774519559296819
 40
7.516682166840942
 40
11.21816918271822
 40
14.89017237659326
 40
14.89017237659326
 40
14.89017237659326
 40
14.89017237659326
 10
-656.1034461990333
 20
0.0043304831157549
 30
374.2096389157879
 10
-656.1051675060477
 20
15.99955561988114
 30
374.2096389157879
 10
-659.1789084961115
 20
47.95906035927206
 30
374.2096389157879
 10
-677.1544970643989
 20
109.3017586916168
 30
374.2096389157879
 10
-720.7630958400942
 20
176.944713004075
 30
374.2096389157879
 10
-799.6763906371005
 20
231.6056620038855
 30
374.2096389157879
 10
-862.0891548984692
 20
244.4873480800222
 30
374.2096389157879
 10
-893.1829787630016
 20
244.479015330837
 30
374.2096389157879
  0
SPLINE
  5
285
330
1F
100
AcDbEntity
  8
Default
100
AcDbSpline
210
0.0
220
0.0
230
1.0
 70
     8
 71
     3
 72
    12
 73
     8
 74
     0
 42
0.000000001
 43
0.0000000001
 40
-15.35241690788854
 40
-15.35241690788854
 40
-15.35241690788854
 40
-15.35241690788854
 40
-11.42846766997576
 40
-7.624449320975275
 40
-3.868777776849768
 40
-1.918305221211262
 40
0.0
 40
0.0
 40
0.0
 40
0.0
 10
-893.1829787630016
 20
244.479015330837
 30
374.2096389157879
 10
-926.3905075737913
 20
244.4795511068744
 30
374.2096389157879
 10
-991.968380839121
 20
232.6566999196464
 30
374.2096389157879
 10
-1075.526636811854
 20
179.2029144414784
 30
374.2096389157879
 10
-1121.620178395634
 20
111.1332555640654
 30
374.2096389157879
 10
-1140.265937961362
 20
49.00666964418068
 30
374.2096389157879
 10
-1143.436118738922
 20
16.24442128132866
 30
374.2096389157879
 10
-1143.422639318347
 20
0.0043440588413243
 30
374.2096389157879
  0
SPLINE
  5
286
330
1F
100
AcDbEntity
  8
Default
100
AcDbSpline
210
0.0
220
0.0
230
1.0
 70
     8
 71
     3
 72
    12
 73
     8
 74
     0
 42
0.000000001
 43
0.0000000001
 40
-15.34910739099933
 40
-15.34910739099933
 40
-15.34910739099933
 40
-15.34910739099933
 40
-11.58400586625319
 40
-7.773657509622682
 40
-3.936637318219009
 40
-1.971105179282631
 40
0.0
 40
0.0
 40
0.0
 40
0.0
 10
-1143.422639318347
 20
0.0043440588413243
 30
374.2096389157879
 10
-1143.414925565008
 20
-31.85793158401223
 30
374.2096389157879
 10
-1131.347900998227
 20
-96.09432436842164
 30
374.2096389157879
 10
-1076.686528129792
 20
-178.2850280914852
 30
374.2096389157879
 10
-1006.862801597147
 20
-223.289145356722
 30
374.2096389157879
 10
-943.3053680885679
 20
-241.427410064641
 30
374.2096389157879
 10
-909.9598846474405
 20
-244.4763657241658
 30
374.2096389157879
 10
-893.2252286516231
 20
-244.4701718978697
 30
374.2096389157879
  0
SPLINE
  5
287
330
1F
100
AcDbEntity
  8
Default
100
AcDbSpline
210
0.0
220
0.0
230
1.0
 70
     8
 71
     3
 72
    24
 73
    20
 74
     0
 42
0.000000001
 43
0.0000000001
 40
-17.0
 40
-17.0
 40
-17.0
 40
-17.0
 40
-16.0
 40
-15.0
 40
-14.0
 40
-13.0
 40
-12.0
 40
-11.0
 40
-10.0
 40
-9.0
 40
-8.0
 40
-7.0
 40
-6.0
 40
-5.0
 40
-4.0
 40
-3.0
 40
-2.0
 40
-1.0
 40
0.0
 40
0.0
 40
0.0
 40
0.0
 10
-731.4661547903596
 20
225.3067941223964
 30
374.2096389157879
 10
-743.0441394729206
 20
236.0997454154614
 30
374.2096389157879
 10
-768.1136411412047
 20
255.5994711219516
 30
374.2096389157879
 10
-809.9625625453697
 20
278.3577721828762
 30
374.2096389157879
 10
-854.7701922383923
 20
294.3743833515748
 30
374.2096389157879
 10
-901.2797527718499
 20
304.5105354437321
 30
374.2096389157879
 10
-948.7235502533426
 20
307.892935148772
 30
374.2096389157879
 10
-996.2056497719764
 20
306.7261430360002
 30
374.2096389157879
 10
-1043.615770090165
 20
303.4259015339392
 30
374.2096389157879
 10
-1090.266291340595
 20
294.2036009530123
 30
374.2096389157879
 10
-1136.267296168708
 20
282.3490040076265
 30
374.2096389157879
 10
-1180.822325398587
 20
265.7852446187333
 30
374.2096389157879
 10
-1223.290960805984
 20
244.175279309751
 30
374.2096389157879
 10
-1261.440463165788
 20
215.9143882173151
 30
374.2096389157879
 10
-1296.605753961786
 20
183.3116919553993
 30
374.2096389157879
 10
-1319.127620305139
 20
140.9080886601271
 30
374.2096389157879
 10
-1330.803531702004
 20
94.68966014515293
 30
374.2096389157879
 10
-1336.402874661454
 20
47.49270848062072
 30
374.2096389157879
 10
-1337.348539185353
 20
15.82859081405179
 30
374.2096389157879
 10
-1337.355052480128
 20
0.0043452524990485
 30
374.2096389157879
  0
SPLINE
  5
288
330
1F
100
AcDbEntity
  8
Default
100
AcDbSpline
210
0.0
220
0.0
230
1.0
 70
     8
 71
     3
 72
    24
 73
    20
 74
     0
 42
0.000000001
 43
0.0000000001
 40
0.0
 40
0.0
 40
0.0
 40
0.0
 40
1.0
 40
2.0
 40
3.0
 40
4.0
 40
5.0
 40
6.0
 40
7.0
 40
8.0
 40
9.0
 40
10.0
 40
11.0
 40
12.0
 40
13.0
 40
14.0
 40
15.0
 40
16.0
 40
17.0
 40
17.0
 40
17.0
 40
17.0
 10
-1337.355052480128
 20
0.0043452524990485
 30
374.2096389157879
 10
-1337.348539185353
 20
-15.81990030905369
 30
374.2096389157879
 10
-1336.402874661454
 20
-47.48401797562261
 30
374.2096389157879
 10
-1330.803531702004
 20
-94.68096964015483
 30
374.2096389157879
 10
-1319.127620305139
 20
-140.899398155129
 30
374.2096389157879
 10
-1296.605753961786
 20
-183.3030014504013
 30
374.2096389157879
 10
-1261.440463165788
 20
-215.905697712317
 30
374.2096389157879
 10
-1223.290960805984
 20
-244.166588804753
 30
374.2096389157879
 10
-1180.822325398587
 20
-265.7765541137353
 30
374.2096389157879
 10
-1136.267296168708
 20
-282.3403135026286
 30
374.2096389157879
 10
-1090.266291340595
 20
-294.1949104480143
 30
374.2096389157879
 10
-1043.615770090165
 20
-303.4172110289412
 30
374.2096389157879
 10
-996.2056497719766
 20
-306.7174525310022
 30
374.2096389157879
 10
-948.7235502533428
 20
-307.8842446437741
 30
374.2096389157879
 10
-901.27975277185
 20
-304.5018449387342
 30
374.2096389157879
 10
-854.7701922383925
 20
-294.3656928465769
 30
374.2096389157879
 10
-809.96256254537
 20
-278.3490816778784
 30
374.2096389157879
 10
-768.1136411412047
 20
-255.5907806169537
 30
374.2096389157879
 10
-743.0441394729206
 20
-236.0910549104636
 30
374.2096389157879
 10
-731.4661547903596
 20
-225.2981036173986
 30
374.2096389157879
  0
SPLINE
  5
289
330
1F
100
AcDbEntity
  8
Default
100
AcDbSpline
210
0.0
220
0.0
230
1.0
 70
     8
 71
     3
 72
    11
 73
     7
 74
     0
 42
0.000000001
 43
0.0000000001
 40
-4.376489242092977
 40
-4.376489242092977
 40
-4.376489242092977
 40
-4.376489242092977
 40
-2.254729024945146
 40
-1.152264979760031
 40
-0.5805792687200016
 40
0.0
 40
0.0
 40
0.0
 40
0.0
 10
-1326.694253616182
 20
110.067833983241
 30
374.2096389157879
 10
-1331.230995326055
 20
92.68440781029934
 30
374.2096389157879
 10
-1336.23975822105
 20
65.78729285906213
 30
374.2096389157879
 10
-1338.996491889234
 20
33.75130043882594
 30
374.2096389157879
 10
-1339.787977042916
 20
14.67600332967715
 30
374.2096389157879
 10
-1339.916144756271
 20
4.919880942806527
 30
374.2096389157879
 10
-1339.916175373063
 20
0.004345252499049
 30
374.2096389157879
  0
SPLINE
  5
28A
330
1F
100
AcDbEntity
  8
Default
100
AcDbSpline
210
0.0
220
0.0
230
1.0
 70
     8
 71
     3
 72
    11
 73
     7
 74
     0
 42
0.000000001
 43
0.0000000001
 40
0.0
 40
0.0
 40
0.0
 40
0.0
 40
0.5805792687200016
 40
1.152264979760031
 40
2.254729024945146
 40
4.376489242092977
 40
4.376489242092977
 40
4.376489242092977
 40
4.376489242092977
 10
-1339.916175373063
 20
0.004345252499049
 30
374.2096389157879
 10
-1339.916144756271
 20
-4.911190437808429
 30
374.2096389157879
 10
-1339.787977042916
 20
-14.66731282467906
 30
374.2096389157879
 10
-1338.996491889234
 20
-33.74260993382784
 30
374.2096389157879
 10
-1336.23975822105
 20
-65.77860235406403
 30
374.2096389157879
 10
-1331.230995326055
 20
-92.67571730530123
 30
374.2096389157879
 10
-1326.694253616182
 20
-110.0591434782429
 30
374.2096389157879
  0
SPLINE
  5
28B
330
1F
100
AcDbEntity
  8
Default
100
AcDbSpline
210
0.0
220
0.0
230
1.0
 70
     8
 71
     3
 72
    10
 73
     6
 74
     0
 42
0.000000001
 43
0.0000000001
 40
0.0
 40
0.0
 40
0.0
 40
0.0
 40
1.13000657183866
 40
2.287921106073678
 40
8.404575460652143
 40
8.404575460652143
 40
8.404575460652143
 40
8.404575460652143
 10
-891.3704501726522
 20
284.1339442253058
 30
374.2096389157879
 10
-881.9389590035084
 20
282.5343341410436
 30
374.2096389157879
 10
-862.9815557858975
 20
278.451592760821
 30
374.2096389157879
 10
-827.4637343280627
 20
267.8310537365875
 30
374.2096389157879
 10
-786.5586641173089
 20
249.5386840013472
 30
374.2096389157879
 10
-744.2041586683942
 20
209.4415096895711
 30
374.2096389157879
  0
ARC
  5
28C
330
1F
100
AcDbEntity
  8
Default
100
AcDbCircle
 10
-893.4511448179415
 20
51.79243848685084
 30
374.2096389157879
 40
217.0895956184993
100
AcDbArc
 50
19.23521857288708
 51
46.56823060742627
  0
SPLINE
  5
28D
330
1F
100
AcDbEntity
  8
Default
100
AcDbSpline
210
0.0
220
0.0
230
1.0
 70
     8
 71
     3
 72
    10
 73
     6
 74
     0
 42
0.000000001
 43
0.0000000001
 40
0.0
 40
0.0
 40
0.0
 40
0.0
 40
1.13000657183866
 40
2.287921106073678
 40
8.404575460652143
 40
8.404575460652143
 40
8.404575460652143
 40
8.404575460652143
 10
-891.3704501726524
 20
-284.125253720308
 30
374.2096389157879
 10
-881.9389590035086
 20
-282.5256436360458
 30
374.2096389157879
 10
-862.9815557858979
 20
-278.4429022558232
 30
374.2096389157879
 10
-827.4637343280629
 20
-267.8223632315897
 30
374.2096389157879
 10
-786.5586641173089
 20
-249.5299934963494
 30
374.2096389157879
 10
-744.2041586683942
 20
-209.4328191845733
 30
374.2096389157879
  0
ARC
  5
28E
330
1F
100
AcDbEntity
  8
Default
100
AcDbCircle
 10
-893.4511448179415
 20
-51.78374798185294
 30
374.2096389157879
 40
217.0895956184993
100
AcDbArc
 50
313.4317693925737
 51
340.7647814271129
  0
POLYLINE
  5
28F
330
1F
100
AcDbEntity
  8
Default
100
AcDb2dPolyline
 66
     1
 10
0.0
 20
0.0
 30
374.2096389157879
  0
VERTEX
  5
290
330
28F
100
AcDbEntity
  8
Default
100
AcDbVertex
100
AcDb2dVertex
 10
-739.7759319054558
 20
232.7356665942336
 30
374.2096389157879
  0
VERTEX
  5
291
330
28F
100
AcDbEntity
  8
Default
100
AcDbVertex
100
AcDb2dVertex
 10
-739.5769031794785
 20
232.8529034724822
 30
374.2096389157879
  0
SEQEND
  5
292
330
28F
100
AcDbEntity
  8
Default
  0
SPLINE
  5
293
330
1F
100
AcDbEntity
  8
Default
100
AcDbSpline
210
0.0000000000000035
220
0.0000000000000088
230
1.0
 70
    12
 71
     2
 72
     8
 73
     5
 74
     0
 42
0.000000001
 43
0.0000000001
 40
0.0
 40
0.0
 40
0.0
 40
0.0657021758075414
 40
0.0657021758075414
 40
0.5513779496561005
 40
0.5513779496561005
 40
0.5513779496561005
 10
-739.5769031794785
 20
232.8529034724822
 30
374.2096389157879
 41
1.0
 10
-738.8545971070954
 20
233.2782258312383
 30
374.2096389157879
 41
0.9938146782922427
 10
-738.0565574010237
 20
233.5335178266843
 30
374.2096389157879
 41
1.0
 10
-730.5873442691089
 20
235.7950843247615
 30
374.2096389157879
 41
0.7132736251541142
 10
-728.1952752092617
 20
228.3666367448079
 30
374.2096389157879
 41
1.0
  0
SPLINE
  5
294
330
1F
100
AcDbEntity
  8
Default
100
AcDbSpline
210
0.0
220
0.0
230
1.0
 70
    12
 71
     2
 72
     6
 73
     3
 74
     0
 42
0.000000001
 43
0.0000000001
 40
0.0
 40
0.0
 40
0.0
 40
0.2409856468466241
 40
0.2409856468466241
 40
0.2409856468466241
 10
-728.1952752092617
 20
228.3666367448079
 30
374.2096389157879
 41
1.0
 10
-727.1314533497569
 20
225.2970145435504
 30
374.2096389157879
 41
0.8709777826878488
 10
-728.5700971797015
 20
222.3841806380457
 30
374.2096389157879
 41
0.8913391083513609
  0
POLYLINE
  5
295
330
1F
100
AcDbEntity
  8
Default
100
AcDb2dPolyline
 66
     1
 10
0.0
 20
0.0
 30
374.2096389157879
  0
VERTEX
  5
296
330
295
100
AcDbEntity
  8
Default
100
AcDbVertex
100
AcDb2dVertex
 10
-739.9977046037862
 20
-232.5963419875237
 30
374.2096389157879
  0
VERTEX
  5
297
330
295
100
AcDbEntity
  8
Default
100
AcDbVertex
100
AcDb2dVertex
 10
-739.7759319054558
 20
-232.7269760892357
 30
374.2096389157879
  0
SEQEND
  5
298
330
295
100
AcDbEntity
  8
Default
  0
POLYLINE
  5
299
330
1F
100
AcDbEntity
  8
Default
100
AcDb2dPolyline
 66
     1
 10
0.0
 20
0.0
 30
374.2096389157879
  0
VERTEX
  5
29A
330
299
100
AcDbEntity
  8
Default
100
AcDbVertex
100
AcDb2dVertex
 10
-739.7759319054558
 20
-232.7269760892357
 30
374.2096389157879
  0
VERTEX
  5
29B
330
299
100
AcDbEntity
  8
Default
100
AcDbVertex
100
AcDb2dVertex
 10
-739.5769031794785
 20
-232.8442129674844
 30
374.2096389157879
  0
SEQEND
  5
29C
330
299
100
AcDbEntity
  8
Default
  0
SPLINE
  5
29D
330
1F
100
AcDbEntity
  8
Default
100
AcDbSpline
210
0.0000000000000035
220
-0.0000000000000088
230
1.0
 70
    12
 71
     2
 72
     8
 73
     5
 74
     0
 42
0.000000001
 43
0.0000000001
 40
0.0
 40
0.0
 40
0.0
 40
0.0657021758075414
 40
0.0657021758075414
 40
0.5513779496561005
 40
0.5513779496561005
 40
0.5513779496561005
 10
-739.5769031794785
 20
-232.8442129674844
 30
374.2096389157879
 41
1.0
 10
-738.8545971070954
 20
-233.2695353262405
 30
374.2096389157879
 41
0.9938146782922427
 10
-738.0565574010237
 20
-233.5248273216865
 30
374.2096389157879
 41
1.0
 10
-730.5873442691089
 20
-235.786393819764
 30
374.2096389157879
 41
0.7132736251541142
 10
-728.1952752092617
 20
-228.35794623981
 30
374.2096389157879
 41
1.0
  0
SPLINE
  5
29E
330
1F
100
AcDbEntity
  8
Default
100
AcDbSpline
210
0.0
220
0.0
230
1.0
 70
    12
 71
     2
 72
     6
 73
     3
 74
     0
 42
0.000000001
 43
0.0000000001
 40
0.0
 40
0.0
 40
0.0
 40
0.2409855735434258
 40
0.2409855735434258
 40
0.2409855735434258
 10
-728.1952752092617
 20
-228.35794623981
 30
374.2096389157879
 41
1.0
 10
-727.1314537212864
 20
-225.288325110589
 30
374.2096389157879
 41
0.8709778219339256
 10
-728.570096324479
 20
-222.3754918646244
 30
374.2096389157879
 41
0.8913390959643272
  0
CIRCLE
  5
29F
330
1F
100
AcDbEntity
  8
Default
100
AcDbCircle
 10
0.0
 20
0.0
 30
0.0
 40
381.0
  0
ENDSEC
  0
SECTION
  2
OBJECTS
  0
DICTIONARY
  5
C
330
0
100
AcDbDictionary
281
     1
  3
ACAD_BACKGROUND
350
100
  3
ACAD_CIP_PREVIOUS_PRODUCT_INFO
350
EC
  3
ACAD_COLOR
350
E4
  3
ACAD_DETAILVIEWSTYLE
350
E1
  3
ACAD_GROUP
350
D
  3
ACAD_LAYOUT
350
1A
  3
ACAD_MATERIAL
350
43
  3
ACAD_MLEADERSTYLE
350
E0
  3
ACAD_MLINESTYLE
350
17
  3
ACAD_PLOTSETTINGS
350
19
  3
ACAD_PLOTSTYLENAME
350
E
  3
ACAD_SCALELIST
350
47
  3
ACAD_SECTIONVIEWSTYLE
350
E2
  3
ACAD_TABLESTYLE
350
DF
  3
ACAD_VISUALSTYLE
350
2A
  3
ACDB_RECOMPOSE_DATA
350
324
  3
AcDbVariableDictionary
350
A6
  0
DICTIONARY
  5
A4
330
8
100
AcDbDictionary
280
     1
281
     1
  0
SUN
  5
69
330
29
100
AcDbSun
 90
        1
290
     0
 63
     7
421
 16777215
 40
1.0
291
     1
 91
  2455826
 92
 54000000
292
     0
 70
     0
 71
   256
280
     1
  0
DICTIONARY
  5
106
330
2
100
AcDbDictionary
280
     1
281
     1
  3
ACAD_LAYERSTATES
360
107
  0
DICTIONARY
  5
ED
330
10
100
AcDbDictionary
280
     1
281
     1
  3
ADSK_XREC_LAYER_RECONCILED
360
EE
  0
DICTIONARY
  5
EF
330
6A
100
AcDbDictionary
280
     1
281
     1
  3
ADSK_XREC_LAYER_RECONCILED
360
F0
  0
DICTIONARY
  5
23C
330
1F
100
AcDbDictionary
280
     1
281
     1
  3
ACAD_SORTENTS
360
23D
  0
DICTIONARY
  5
100
102
{ACAD_REACTORS
330
C
102
}
330
C
100
AcDbDictionary
281
     1
  0
XRECORD
  5
EC
102
{ACAD_REACTORS
330
C
102
}
330
C
100
AcDbXrecord
280
     1
300
ACD
300
2016
300
ACD_F_S
  0
DICTIONARY
  5
E4
102
{ACAD_REACTORS
330
C
102
}
330
C
100
AcDbDictionary
281
     1
  0
DICTIONARY
  5
E1
102
{ACAD_REACTORS
330
C
102
}
330
C
100
AcDbDictionary
281
     1
  3
Imperial24
350
E8
  0
DICTIONARY
  5
D
102
{ACAD_REACTORS
330
C
102
}
330
C
100
AcDbDictionary
281
     1
  0
DICTIONARY
  5
1A
102
{ACAD_REACTORS
330
C
102
}
330
C
100
AcDbDictionary
281
     1
  3
Layout1
350
1E
  3
Layout2
350
26
  3
Model
350
22
  0
DICTIONARY
  5
43
102
{ACAD_REACTORS
330
C
102
}
330
C
100
AcDbDictionary
281
     1
  3
ByBlock
350
45
  3
ByLayer
350
44
  3
Global
350
46
  0
DICTIONARY
  5
E0
102
{ACAD_REACTORS
330
C
102
}
330
C
100
AcDbDictionary
281
     1
  3
Standard
350
E6
  0
DICTIONARY
  5
17
102
{ACAD_REACTORS
330
C
102
}
330
C
100
AcDbDictionary
281
     1
  3
Standard
350
18
  0
DICTIONARY
  5
19
102
{ACAD_REACTORS
330
C
102
}
330
C
100
AcDbDictionary
281
     1
  0
ACDBDICTIONARYWDFLT
  5
E
102
{ACAD_REACTORS
330
C
102
}
330
C
100
AcDbDictionary
281
     1
  3
Normal
350
F
100
AcDbDictionaryWithDefault
340
F
  0
DICTIONARY
  5
47
102
{ACAD_REACTORS
330
C
102
}
330
C
100
AcDbDictionary
281
     1
  3
A0
350
48
  3
A1
350
49
  3
A2
350
4A
  3
A3
350
4B
  3
A4
350
4C
  3
A5
350
4D
  3
A6
350
4E
  3
A7
350
4F
  3
A8
350
50
  3
A9
350
51
  3
B0
350
52
  3
B1
350
53
  3
B2
350
54
  3
B3
350
55
  3
B4
350
56
  3
B5
350
57
  3
B6
350
58
  3
B7
350
59
  3
B8
350
5A
  3
B9
350
5B
  3
C0
350
5C
  3
C1
350
5D
  3
C2
350
5E
  3
C3
350
5F
  3
C4
350
60
  3
C5
350
61
  3
C6
350
62
  3
C7
350
63
  3
C8
350
64
  3
C9
350
65
  3
D0
350
66
  3
D1
350
67
  3
D2
350
68
  0
DICTIONARY
  5
E2
102
{ACAD_REACTORS
330
C
102
}
330
C
100
AcDbDictionary
281
     1
  3
Imperial24
350
E7
  0
DICTIONARY
  5
DF
102
{ACAD_REACTORS
330
C
102
}
330
C
100
AcDbDictionary
281
     1
  3
Standard
350
E5
  0
DICTIONARY
  5
2A
102
{ACAD_REACTORS
330
C
102
}
330
C
100
AcDbDictionary
281
     1
  3
2dWireframe
350
2F
  3
3D Hidden
350
11A
  3
3dWireframe
350
11B
  3
Basic
350
32
  3
Brighten
350
36
  3
ColorChange
350
3A
  3
Conceptual
350
34
  3
Dim
350
35
  3
EdgeColorOff
350
3D
  3
Facepattern
350
39
  3
Flat
350
2B
  3
FlatWithEdges
350
2C
  3
Gouraud
350
2D
  3
GouraudWithEdges
350
2E
  3
Hidden
350
31
  3
JitterOff
350
3B
  3
Linepattern
350
38
  3
OverhangOff
350
3C
  3
Realistic
350
33
  3
Shaded
350
42
  3
Shaded with edges
350
41
  3
Shades of Gray
350
3E
  3
Sketchy
350
3F
  3
Thicken
350
37
  3
Wireframe
350
30
  3
X-Ray
350
40
  0
XRECORD
  5
324
102
{ACAD_REACTORS
330
C
102
}
330
C
100
AcDbXrecord
280
     1
 90
        1
330
E5
330
E7
330
E8
  0
DICTIONARY
  5
A6
102
{ACAD_REACTORS
330
C
102
}
330
C
100
AcDbDictionary
281
     1
  3
CANNOSCALE
350
A7
  3
CMLEADERSTYLE
350
2C8
  3
CTABLESTYLE
350
2C7
  3
CVIEWDETAILSTYLE
350
2C9
  3
CVIEWSECTIONSTYLE
350
2CA
  3
LAYEREVAL
350
2CC
  3
LAYERNOTIFY
350
2CD
  3
LIGHTINGUNITS
350
2CB
  3
MSLTSCALE
350
A8
  0
DICTIONARY
  5
107
102
{ACAD_REACTORS
330
106
102
}
330
106
100
AcDbDictionary
281
     1
  0
XRECORD
  5
EE
102
{ACAD_REACTORS
330
ED
102
}
330
ED
100
AcDbXrecord
280
     1
290
     1
  0
XRECORD
  5
F0
102
{ACAD_REACTORS
330
EF
102
}
330
EF
100
AcDbXrecord
280
     1
290
     1
  0
SORTENTSTABLE
  5
23D
102
{ACAD_REACTORS
330
23C
102
}
330
23C
100
AcDbSortentsTable
330
1F
331
232
  5
232
331
225
  5
225
331
237
  5
237
331
21C
  5
21C
331
22E
  5
22E
331
221
  5
221
331
218
  5
218
331
226
  5
226
331
21D
  5
21D
331
222
  5
222
331
219
  5
219
331
227
  5
227
331
21E
  5
21E
331
223
  5
223
331
21A
  5
21A
331
22C
  5
22C
331
21F
  5
21F
331
224
  5
224
331
228
  5
228
331
21B
  5
21B
331
236
  5
236
331
22D
  5
22D
331
220
  5
220
  0
ACDBDETAILVIEWSTYLE
  5
E8
102
{ACAD_XDICTIONARY
360
2C4
102
}
102
{ACAD_REACTORS
330
E1
102
}
330
E1
100
AcDbModelDocViewStyle
 70
     0
  3
Imperial24
290
     0
100
AcDbDetailViewStyle
 70
     0
 71
     0
 90
        3
 71
     1
340
11
 62
   256
 40
0.24
340
0
 62
   256
 40
0.24
300

 40
0.36
280
     3
 71
     2
340
16
 90
       25
 62
   256
 71
     3
340
11
 62
   256
 40
0.24
 90
        1
 40
0.75
 90
        1
300
%<\AcVar ViewType \f "%tc1">% %<\AcVar ViewDetailId>%\PSCALE %<\AcVar ViewScale \f "%sn">%
 71
     4
340
16
 90
       25
 62
   256
340
16
 90
       25
 62
   256
280
     0
  0
LAYOUT
  5
1E
102
{ACAD_REACTORS
330
1A
102
}
330
1A
100
AcDbPlotSettings
  1

  2
none_device
  4

  6

 40
0.0
 41
0.0
 42
0.0
 43
0.0
 44
0.0
 45
0.0
 46
0.0
 47
0.0
 48
0.0
 49
0.0
140
0.0
141
0.0
142
1.0
143
1.0
 70
   688
 72
     0
 73
     0
 74
     5
  7

 75
    16
147
1.0
 76
     0
 77
     2
 78
   300
148
0.0
149
0.0
100
AcDbLayout
  1
Layout1
 70
     1
 71
     1
 10
0.0
 20
0.0
 11
12.0
 21
9.0
 12
0.0
 22
0.0
 32
0.0
 14
1.000000000000000E+20
 24
1.000000000000000E+20
 34
1.000000000000000E+20
 15
-1.000000000000000E+20
 25
-1.000000000000000E+20
 35
-1.000000000000000E+20
146
0.0
 13
0.0
 23
0.0
 33
0.0
 16
1.0
 26
0.0
 36
0.0
 17
0.0
 27
1.0
 37
0.0
 76
     0
330
1B
  0
LAYOUT
  5
26
102
{ACAD_REACTORS
330
1A
102
}
330
1A
100
AcDbPlotSettings
  1

  2
none_device
  4

  6

 40
0.0
 41
0.0
 42
0.0
 43
0.0
 44
0.0
 45
0.0
 46
0.0
 47
0.0
 48
0.0
 49
0.0
140
0.0
141
0.0
142
1.0
143
1.0
 70
   688
 72
     0
 73
     0
 74
     5
  7

 75
    16
147
1.0
 76
     0
 77
     2
 78
   300
148
0.0
149
0.0
100
AcDbLayout
  1
Layout2
 70
     1
 71
     2
 10
0.0
 20
0.0
 11
0.0
 21
0.0
 12
0.0
 22
0.0
 32
0.0
 14
0.0
 24
0.0
 34
0.0
 15
0.0
 25
0.0
 35
0.0
146
0.0
 13
0.0
 23
0.0
 33
0.0
 16
1.0
 26
0.0
 36
0.0
 17
0.0
 27
1.0
 37
0.0
 76
     0
330
23
  0
LAYOUT
  5
22
102
{ACAD_REACTORS
330
1A
102
}
330
1A
100
AcDbPlotSettings
  1

  2
none_device
  4
Letter_(8.50_x_11.00_Inches)
  6

 40
6.349999999999999
 41
6.349999999999999
 42
6.350005079999999
 43
6.350005079999999
 44
215.9
 45
279.4
 46
0.0
 47
0.0
 48
0.0
 49
0.0
140
0.0
141
0.0
142
1.0
143
1.0
 70
  1712
 72
     0
 73
     0
 74
     0
  7

 75
     0
147
1.0
 76
     0
 77
     2
 78
   300
148
0.0
149
0.0
100
AcDbLayout
  1
Model
 70
     1
 71
     0
 10
0.0
 20
0.0
 11
12.0
 21
9.0
 12
0.0
 22
0.0
 32
0.0
 14
-1339.842070258066
 24
-1339.842070258066
 34
-0.0000000000009891
 15
1339.842070258066
 25
1339.842070258066
 35
834.0446526100746
146
0.0
 13
0.0
 23
0.0
 33
0.0
 16
1.0
 26
0.0
 36
0.0
 17
0.0
 27
1.0
 37
0.0
 76
     0
330
1F
331
29
  0
MATERIAL
  5
45
102
{ACAD_REACTORS
330
43
102
}
330
43
100
AcDbMaterial
  1
ByBlock
 73
     1
 78
     1
172
     1
176
     1
270
     1
274
     1
  0
MATERIAL
  5
44
102
{ACAD_REACTORS
330
43
102
}
330
43
100
AcDbMaterial
  1
ByLayer
 73
     1
 78
     1
172
     1
176
     1
270
     1
274
     1
  0
MATERIAL
  5
46
102
{ACAD_REACTORS
330
43
102
}
330
43
100
AcDbMaterial
  1
Global
 73
     1
 78
     1
172
     1
176
     1
270
     1
274
     1
  0
MLEADERSTYLE
  5
E6
102
{ACAD_REACTORS
330
E0
102
}
330
E0
100
AcDbMLeaderStyle
179
     2
170
     2
171
     1
172
     0
 90
        2
 40
0.0
 41
0.0
173
     1
 91
-1056964608
340
14
 92
       -2
290
     1
 42
0.09
291
     1
 43
0.36
  3
Standard
 44
0.18
300

342
11
174
     1
178
     6
175
     1
176
     0
 93
-1056964608
 45
0.18
292
     0
297
     0
 46
0.18
 94
-1056964608
 47
1.0
 49
1.0
140
1.0
293
     1
141
0.0
294
     1
177
     0
142
1.0
295
     1
296
     0
143
0.125
271
     0
272
     9
273
     9
298
     1
  0
MLINESTYLE
  5
18
102
{ACAD_REACTORS
330
17
102
}
330
17
100
AcDbMlineStyle
  2
STANDARD
 70
     0
  3

 62
   256
 51
90.0
 52
90.0
 71
     2
 49
0.5
 62
   256
  6
BYLAYER
 49
-0.5
 62
   256
  6
BYLAYER
  0
ACDBPLACEHOLDER
  5
F
102
{ACAD_REACTORS
330
E
102
}
330
E
  0
SCALE
  5
48
102
{ACAD_REACTORS
330
47
102
}
330
47
100
AcDbScale
 70
     0
300
1:1
140
1.0
141
1.0
290
     1
  0
SCALE
  5
49
102
{ACAD_REACTORS
330
47
102
}
330
47
100
AcDbScale
 70
     0
300
1:2
140
1.0
141
2.0
290
     0
  0
SCALE
  5
4A
102
{ACAD_REACTORS
330
47
102
}
330
47
100
AcDbScale
 70
     0
300
1:4
140
1.0
141
4.0
290
     0
  0
SCALE
  5
4B
102
{ACAD_REACTORS
330
47
102
}
330
47
100
AcDbScale
 70
     0
300
1:5
140
1.0
141
5.0
290
     0
  0
SCALE
  5
4C
102
{ACAD_REACTORS
330
47
102
}
330
47
100
AcDbScale
 70
     0
300
1:8
140
1.0
141
8.0
290
     0
  0
SCALE
  5
4D
102
{ACAD_REACTORS
330
47
102
}
330
47
100
AcDbScale
 70
     0
300
1:10
140
1.0
141
10.0
290
     0
  0
SCALE
  5
4E
102
{ACAD_REACTORS
330
47
102
}
330
47
100
AcDbScale
 70
     0
300
1:16
140
1.0
141
16.0
290
     0
  0
SCALE
  5
4F
102
{ACAD_REACTORS
330
47
102
}
330
47
100
AcDbScale
 70
     0
300
1:20
140
1.0
141
20.0
290
     0
  0
SCALE
  5
50
102
{ACAD_REACTORS
330
47
102
}
330
47
100
AcDbScale
 70
     0
300
1:30
140
1.0
141
30.0
290
     0
  0
SCALE
  5
51
102
{ACAD_REACTORS
330
47
102
}
330
47
100
AcDbScale
 70
     0
300
1:40
140
1.0
141
40.0
290
     0
  0
SCALE
  5
52
102
{ACAD_REACTORS
330
47
102
}
330
47
100
AcDbScale
 70
     0
300
1:50
140
1.0
141
50.0
290
     0
  0
SCALE
  5
53
102
{ACAD_REACTORS
330
47
102
}
330
47
100
AcDbScale
 70
     0
300
1:100
140
1.0
141
100.0
290
     0
  0
SCALE
  5
54
102
{ACAD_REACTORS
330
47
102
}
330
47
100
AcDbScale
 70
     0
300
2:1
140
2.0
141
1.0
290
     0
  0
SCALE
  5
55
102
{ACAD_REACTORS
330
47
102
}
330
47
100
AcDbScale
 70
     0
300
4:1
140
4.0
141
1.0
290
     0
  0
SCALE
  5
56
102
{ACAD_REACTORS
330
47
102
}
330
47
100
AcDbScale
 70
     0
300
8:1
140
8.0
141
1.0
290
     0
  0
SCALE
  5
57
102
{ACAD_REACTORS
330
47
102
}
330
47
100
AcDbScale
 70
     0
300
10:1
140
10.0
141
1.0
290
     0
  0
SCALE
  5
58
102
{ACAD_REACTORS
330
47
102
}
330
47
100
AcDbScale
 70
     0
300
100:1
140
100.0
141
1.0
290
     0
  0
SCALE
  5
59
102
{ACAD_REACTORS
330
47
102
}
330
47
100
AcDbScale
 70
     0
300
1/128" = 1'-0"
140
0.0078125
141
12.0
290
     0
  0
SCALE
  5
5A
102
{ACAD_REACTORS
330
47
102
}
330
47
100
AcDbScale
 70
     0
300
1/64" = 1'-0"
140
0.015625
141
12.0
290
     0
  0
SCALE
  5
5B
102
{ACAD_REACTORS
330
47
102
}
330
47
100
AcDbScale
 70
     0
300
1/32" = 1'-0"
140
0.03125
141
12.0
290
     0
  0
SCALE
  5
5C
102
{ACAD_REACTORS
330
47
102
}
330
47
100
AcDbScale
 70
     0
300
1/16" = 1'-0"
140
0.0625
141
12.0
290
     0
  0
SCALE
  5
5D
102
{ACAD_REACTORS
330
47
102
}
330
47
100
AcDbScale
 70
     0
300
3/32" = 1'-0"
140
0.09375
141
12.0
290
     0
  0
SCALE
  5
5E
102
{ACAD_REACTORS
330
47
102
}
330
47
100
AcDbScale
 70
     0
300
1/8" = 1'-0"
140
0.125
141
12.0
290
     0
  0
SCALE
  5
5F
102
{ACAD_REACTORS
330
47
102
}
330
47
100
AcDbScale
 70
     0
300
3/16" = 1'-0"
140
0.1875
141
12.0
290
     0
  0
SCALE
  5
60
102
{ACAD_REACTORS
330
47
102
}
330
47
100
AcDbScale
 70
     0
300
1/4" = 1'-0"
140
0.25
141
12.0
290
     0
  0
SCALE
  5
61
102
{ACAD_REACTORS
330
47
102
}
330
47
100
AcDbScale
 70
     0
300
3/8" = 1'-0"
140
0.375
141
12.0
290
     0
  0
SCALE
  5
62
102
{ACAD_REACTORS
330
47
102
}
330
47
100
AcDbScale
 70
     0
300
1/2" = 1'-0"
140
0.5
141
12.0
290
     0
  0
SCALE
  5
63
102
{ACAD_REACTORS
330
47
102
}
330
47
100
AcDbScale
 70
     0
300
3/4" = 1'-0"
140
0.75
141
12.0
290
     0
  0
SCALE
  5
64
102
{ACAD_REACTORS
330
47
102
}
330
47
100
AcDbScale
 70
     0
300
1" = 1'-0"
140
1.0
141
12.0
290
     0
  0
SCALE
  5
65
102
{ACAD_REACTORS
330
47
102
}
330
47
100
AcDbScale
 70
     0
300
1-1/2" = 1'-0"
140
1.5
141
12.0
290
     0
  0
SCALE
  5
66
102
{ACAD_REACTORS
330
47
102
}
330
47
100
AcDbScale
 70
     0
300
3" = 1'-0"
140
3.0
141
12.0
290
     0
  0
SCALE
  5
67
102
{ACAD_REACTORS
330
47
102
}
330
47
100
AcDbScale
 70
     0
300
6" = 1'-0"
140
6.0
141
12.0
290
     0
  0
SCALE
  5
68
102
{ACAD_REACTORS
330
47
102
}
330
47
100
AcDbScale
 70
     0
300
1'-0" = 1'-0"
140
12.0
141
12.0
290
     0
  0
ACDBSECTIONVIEWSTYLE
  5
E7
102
{ACAD_XDICTIONARY
360
2C2
102
}
102
{ACAD_REACTORS
330
E2
102
}
330
E2
100
AcDbModelDocViewStyle
 70
     0
  3
Imperial24
290
     0
100
AcDbSectionViewStyle
 70
     0
 71
     0
 90
       78
 71
     1
340
11
 62
   256
 40
0.24
340
0
340
0
 62
   256
 40
0.24
300
I, O, Q, S, X, Z
 40
0.48
 90
        3
 40
0.18
 90
        1
 71
     2
340
16
 90
       25
 62
   256
340
16
 90
       50
 62
   256
 40
0.24
 40
0.0
 40
0.24
 71
     3
340
11
 62
   256
 40
0.24
 90
        1
 40
0.75
 90
        1
300
%<\AcVar ViewType \f "%tc1">% %<\AcVar ViewSectionStartId>%-%<\AcVar ViewSectionEndId>%\PSCALE %<\AcVar ViewScale \f "%sn">%
 71
     4
 62
   256
 62
   257
300
ANSI31
 40
1.0
 90
        0
290
     0
290
     0
 90
        6
 40
0.0
 40
1.570796326794896
 40
0.2617993877991494
 40
1.308996938995747
 40
-0.2617993877991494
 40
1.832595714594046
  0
TABLESTYLE
  5
E5
102
{ACAD_XDICTIONARY
360
320
102
}
102
{ACAD_REACTORS
330
DF
102
}
330
DF
100
AcDbTableStyle
280
     0
  3
Standard
 70
     0
 71
     0
 40
0.06
 41
0.06
280
     0
281
     0
  7
Standard
140
0.18
170
     2
 62
     0
 63
     7
283
     0
 90
      512
 91
        0
  1

274
    -2
284
     1
 64
     0
275
    -2
285
     1
 65
     0
276
    -2
286
     1
 66
     0
277
    -2
287
     1
 67
     0
278
    -2
288
     1
 68
     0
279
    -2
289
     1
 69
     0
  7
Standard
140
0.25
170
     5
 62
     0
 63
     7
283
     0
 90
      512
 91
        0
  1

274
    -2
284
     1
 64
     0
275
    -2
285
     1
 65
     0
276
    -2
286
     1
 66
     0
277
    -2
287
     1
 67
     0
278
    -2
288
     1
 68
     0
279
    -2
289
     1
 69
     0
  7
Standard
140
0.18
170
     5
 62
     0
 63
     7
283
     0
 90
      512
 91
        0
  1

274
    -2
284
     1
 64
     0
275
    -2
285
     1
 65
     0
276
    -2
286
     1
 66
     0
277
    -2
287
     1
 67
     0
278
    -2
288
     1
 68
     0
279
    -2
289
     1
 69
     0
  0
VISUALSTYLE
  5
2F
102
{ACAD_REACTORS
330
2A
102
}
330
2A
100
AcDbVisualStyle
  2
2dWireframe
 70
     4
177
     3
291
     0
 70
    58
 90
        0
176
     1
 90
        2
176
     1
 90
        0
176
     1
 90
        0
176
     1
 40
0.6
176
     1
 40
30.0
176
     1
 62
     7
420
 16777215
176
     1
 90
        1
176
     1
 90
        4
176
     1
 62
     7
176
     1
 62
   257
176
     1
 90
        1
176
     1
 90
        1
176
     1
 40
1.0
176
     1
 90
        0
176
     1
 62
   257
176
     1
 40
1.0
176
     1
 90
        1
176
     1
 90
        6
176
     1
 90
        2
176
     1
 62
     7
176
     1
 90
        5
176
     1
 90
        0
176
     1
 90
        0
176
     1
290
     0
176
     1
 90
        1
176
     1
 40
0.0
176
     1
 90
        0
176
     1
290
     1
176
     1
290
     1
176
     1
290
     0
176
     1
290
     0
176
     1
290
     0
176
     1
290
     0
176
     1
290
     0
176
     1
290
     0
176
     1
290
     0
176
     1
 90
       50
176
     1
 40
0.0
176
     1
 40
1.0
176
     1
 90
        0
176
     1
 62
    18
420
        0
176
     1
 90
       50
176
     1
 90
        3
176
     1
 62
     5
420
      255
176
     1
290
     0
176
     1
 90
       50
176
     1
 90
       50
176
     1
 90
       50
176
     1
290
     0
176
     1
 90
       50
176
     1
 62
   256
176
     0
 40
1.0
176
     0
 90
        2
176
     1
  1
strokes_ogs.tif
176
     1
290
     0
176
     1
 40
1.0
176
     1
 40
1.0
176
     1
  0
VISUALSTYLE
  5
11A
102
{ACAD_REACTORS
330
2A
102
}
330
2A
100
AcDbVisualStyle
  2

 70
     6
177
     3
291
     0
 70
    58
 90
        1
176
     1
 90
        2
176
     1
 90
        2
176
     1
 90
        0
176
     1
 40
0.6
176
     1
 40
30.0
176
     1
 62
     7
420
 16777215
176
     1
 90
        2
176
     1
 90
        2
176
     1
 62
     7
176
     1
 62
   257
176
     1
 90
        2
176
     1
 90
        1
176
     1
 40
40.0
176
     1
 90
        0
176
     1
 62
   257
176
     1
 40
1.0
176
     1
 90
        1
176
     1
 90
        6
176
     1
 90
        2
176
     1
 62
     7
176
     1
 90
        3
176
     1
 90
        0
176
     1
 90
        0
176
     1
290
     0
176
     1
 90
        1
176
     1
 40
0.0
176
     1
 90
        0
176
     1
290
     0
176
     1
290
     1
176
     1
290
     1
176
     1
290
     0
176
     1
290
     0
176
     1
290
     0
176
     1
290
     0
176
     1
290
     0
176
     1
290
     0
176
     1
 90
       50
176
     1
 40
0.0
176
     1
 40
1.0
176
     1
 90
        0
176
     1
 62
    18
420
        0
176
     1
 90
       50
176
     1
 90
        3
176
     1
 62
     5
420
      255
176
     1
290
     0
176
     1
 90
       50
176
     1
 90
       50
176
     1
 90
       50
176
     1
290
     0
176
     1
 90
       50
176
     1
 62
   256
176
     0
 40
1.0
176
     0
 90
        2
176
     1
  1
strokes_ogs.tif
176
     1
290
     0
176
     1
 40
1.0
176
     1
 40
1.0
176
     1
  0
VISUALSTYLE
  5
11B
102
{ACAD_REACTORS
330
2A
102
}
330
2A
100
AcDbVisualStyle
  2

 70
     5
177
     3
291
     0
 70
    58
 90
        0
176
     1
 90
        2
176
     1
 90
        0
176
     1
 90
        0
176
     1
 40
0.6
176
     1
 40
30.0
176
     1
 62
     7
420
 16777215
176
     1
 90
        1
176
     1
 90
        4
176
     1
 62
     7
176
     1
 62
   257
176
     1
 90
        1
176
     1
 90
        1
176
     1
 40
1.0
176
     1
 90
        0
176
     1
 62
   257
176
     1
 40
1.0
176
     1
 90
        1
176
     1
 90
        6
176
     1
 90
        2
176
     1
 62
     7
176
     1
 90
        5
176
     1
 90
        0
176
     1
 90
        0
176
     1
290
     0
176
     1
 90
        1
176
     1
 40
0.0
176
     1
 90
        0
176
     1
290
     0
176
     1
290
     1
176
     1
290
     1
176
     1
290
     0
176
     1
290
     0
176
     1
290
     0
176
     1
290
     0
176
     1
290
     0
176
     1
290
     0
176
     1
 90
       50
176
     1
 40
0.0
176
     1
 40
1.0
176
     1
 90
        0
176
     1
 62
    18
420
        0
176
     1
 90
       50
176
     1
 90
        3
176
     1
 62
     5
420
      255
176
     1
290
     0
176
     1
 90
       50
176
     1
 90
       50
176
     1
 90
       50
176
     1
290
     0
176
     1
 90
       50
176
     1
 62
   256
176
     0
 40
1.0
176
     0
 90
        2
176
     1
  1
strokes_ogs.tif
176
     1
290
     0
176
     1
 40
1.0
176
     1
 40
1.0
176
     1
  0
VISUALSTYLE
  5
32
102
{ACAD_REACTORS
330
2A
102
}
330
2A
100
AcDbVisualStyle
  2
Basic
 70
     7
177
     3
291
     1
 70
    58
 90
        1
176
     1
 90
        0
176
     1
 90
        1
176
     1
 90
        0
176
     1
 40
0.6
176
     1
 40
30.0
176
     1
 62
     7
420
 16777215
176
     1
 90
        0
176
     1
 90
        4
176
     1
 62
     7
176
     1
 62
   257
176
     1
 90
        1
176
     1
 90
        1
176
     1
 40
1.0
176
     1
 90
        8
176
     1
 62
     7
176
     1
 40
1.0
176
     1
 90
        1
176
     1
 90
        6
176
     1
 90
        2
176
     1
 62
     7
176
     1
 90
        5
176
     1
 90
        0
176
     1
 90
        0
176
     1
290
     0
176
     1
 90
        1
176
     1
 40
0.0
176
     1
 90
        0
176
     1
290
     0
176
     1
290
     1
176
     1
290
     1
176
     1
290
     0
176
     1
290
     0
176
     1
290
     0
176
     1
290
     0
176
     1
290
     0
176
     1
290
     0
176
     1
 90
       50
176
     1
 40
0.0
176
     1
 40
1.0
176
     1
 90
        0
176
     1
 62
    18
420
        0
176
     1
 90
       50
176
     1
 90
        3
176
     1
 62
     5
420
      255
176
     1
290
     0
176
     1
 90
       50
176
     1
 90
       50
176
     1
 90
       50
176
     1
290
     0
176
     1
 90
       50
176
     1
 62
   256
176
     0
 40
1.0
176
     0
 90
        2
176
     1
  1
strokes_ogs.tif
176
     1
290
     0
176
     1
 40
1.0
176
     1
 40
1.0
176
     1
  0
VISUALSTYLE
  5
36
102
{ACAD_REACTORS
330
2A
102
}
330
2A
100
AcDbVisualStyle
  2
Brighten
 70
    12
177
     3
291
     1
 70
    58
 90
        2
176
     1
 90
        2
176
     1
 90
        0
176
     1
 90
        0
176
     1
 40
0.6
176
     1
 40
30.0
176
     1
 62
     7
420
 16777215
176
     1
 90
        1
176
     1
 90
        4
176
     1
 62
     7
176
     1
 62
   257
176
     1
 90
        1
176
     1
 90
        1
176
     1
 40
1.0
176
     1
 90
        8
176
     1
 62
     7
176
     1
 40
1.0
176
     1
 90
        1
176
     1
 90
        6
176
     1
 90
        2
176
     1
 62
     7
176
     1
 90
        5
176
     1
 90
        0
176
     1
 90
        0
176
     1
290
     0
176
     1
 90
        1
176
     1
 40
50.0
176
     1
 90
        0
176
     1
290
     0
176
     1
290
     1
176
     1
290
     1
176
     1
290
     0
176
     1
290
     0
176
     1
290
     0
176
     1
290
     0
176
     1
290
     0
176
     1
290
     0
176
     1
 90
       50
176
     1
 40
0.0
176
     1
 40
1.0
176
     1
 90
        0
176
     1
 62
    18
420
        0
176
     1
 90
       50
176
     1
 90
        3
176
     1
 62
     5
420
      255
176
     1
290
     0
176
     1
 90
       50
176
     1
 90
       50
176
     1
 90
       50
176
     1
290
     0
176
     1
 90
       50
176
     1
 62
   256
176
     0
 40
1.0
176
     0
 90
        2
176
     1
  1
strokes_ogs.tif
176
     1
290
     0
176
     1
 40
1.0
176
     1
 40
1.0
176
     1
  0
VISUALSTYLE
  5
3A
102
{ACAD_REACTORS
330
2A
102
}
330
2A
100
AcDbVisualStyle
  2
ColorChange
 70
    16
177
     3
291
     1
 70
    58
 90
        2
176
     1
 90
        2
176
     1
 90
        3
176
     1
 90
        0
176
     1
 40
0.6
176
     1
 40
30.0
176
     1
 62
     8
420
  8421504
176
     1
 90
        1
176
     1
 90
        4
176
     1
 62
     7
176
     1
 62
   257
176
     1
 90
        1
176
     1
 90
        1
176
     1
 40
1.0
176
     1
 90
        8
176
     1
 62
     8
420
  8421504
176
     1
 40
1.0
176
     1
 90
        1
176
     1
 90
        6
176
     1
 90
        2
176
     1
 62
     7
176
     1
 90
        5
176
     1
 90
        0
176
     1
 90
        0
176
     1
290
     0
176
     1
 90
        1
176
     1
 40
0.0
176
     1
 90
        0
176
     1
290
     0
176
     1
290
     1
176
     1
290
     1
176
     1
290
     0
176
     1
290
     0
176
     1
290
     0
176
     1
290
     0
176
     1
290
     0
176
     1
290
     0
176
     1
 90
       50
176
     1
 40
0.0
176
     1
 40
1.0
176
     1
 90
        0
176
     1
 62
    18
420
        0
176
     1
 90
       50
176
     1
 90
        3
176
     1
 62
     5
420
      255
176
     1
290
     0
176
     1
 90
       50
176
     1
 90
       50
176
     1
 90
       50
176
     1
290
     0
176
     1
 90
       50
176
     1
 62
   256
176
     0
 40
1.0
176
     0
 90
        2
176
     1
  1
strokes_ogs.tif
176
     1
290
     0
176
     1
 40
1.0
176
     1
 40
1.0
176
     1
  0
VISUALSTYLE
  5
34
102
{ACAD_REACTORS
330
2A
102
}
330
2A
100
AcDbVisualStyle
  2
Conceptual
 70
     9
177
     3
291
     0
 70
    58
 90
        3
176
     1
 90
        2
176
     1
 90
        0
176
     1
 90
        0
176
     1
 40
0.6
176
     1
 40
30.0
176
     1
 62
     7
420
 16777215
176
     1
 90
        2
176
     1
 90
        2
176
     1
 62
     7
176
     1
 62
   257
176
     1
 90
        1
176
     1
 90
        1
176
     1
 40
179.0
176
     1
 90
        8
176
     1
 62
     7
176
     1
 40
1.0
176
     1
 90
        1
176
     1
 90
        6
176
     1
 90
        2
176
     1
 62
     7
176
     1
 90
        3
176
     1
 90
        0
176
     1
 90
        0
176
     1
290
     0
176
     1
 90
        1
176
     1
 40
0.0
176
     1
 90
        0
176
     1
290
     0
176
     1
290
     1
176
     1
290
     1
176
     1
290
     0
176
     1
290
     0
176
     1
290
     0
176
     1
290
     0
176
     1
290
     0
176
     1
290
     0
176
     1
 90
       50
176
     1
 40
0.0
176
     1
 40
1.0
176
     1
 90
        0
176
     1
 62
    18
420
        0
176
     1
 90
       50
176
     1
 90
        3
176
     1
 62
     5
420
      255
176
     1
290
     0
176
     1
 90
       50
176
     1
 90
       50
176
     1
 90
       50
176
     1
290
     0
176
     1
 90
       50
176
     1
 62
   256
176
     0
 40
1.0
176
     0
 90
        2
176
     1
  1
strokes_ogs.tif
176
     1
290
     0
176
     1
 40
1.0
176
     1
 40
1.0
176
     1
  0
VISUALSTYLE
  5
35
102
{ACAD_REACTORS
330
2A
102
}
330
2A
100
AcDbVisualStyle
  2
Dim
 70
    11
177
     3
291
     1
 70
    58
 90
        2
176
     1
 90
        2
176
     1
 90
        0
176
     1
 90
        0
176
     1
 40
0.6
176
     1
 40
30.0
176
     1
 62
     7
420
 16777215
176
     1
 90
        1
176
     1
 90
        4
176
     1
 62
     7
176
     1
 62
   257
176
     1
 90
        1
176
     1
 90
        1
176
     1
 40
1.0
176
     1
 90
        8
176
     1
 62
     7
176
     1
 40
1.0
176
     1
 90
        1
176
     1
 90
        6
176
     1
 90
        2
176
     1
 62
     7
176
     1
 90
        5
176
     1
 90
        0
176
     1
 90
        0
176
     1
290
     0
176
     1
 90
        1
176
     1
 40
-50.0
176
     1
 90
        0
176
     1
290
     0
176
     1
290
     1
176
     1
290
     1
176
     1
290
     0
176
     1
290
     0
176
     1
290
     0
176
     1
290
     0
176
     1
290
     0
176
     1
290
     0
176
     1
 90
       50
176
     1
 40
0.0
176
     1
 40
1.0
176
     1
 90
        0
176
     1
 62
    18
420
        0
176
     1
 90
       50
176
     1
 90
        3
176
     1
 62
     5
420
      255
176
     1
290
     0
176
     1
 90
       50
176
     1
 90
       50
176
     1
 90
       50
176
     1
290
     0
176
     1
 90
       50
176
     1
 62
   256
176
     0
 40
1.0
176
     0
 90
        2
176
     1
  1
strokes_ogs.tif
176
     1
290
     0
176
     1
 40
1.0
176
     1
 40
1.0
176
     1
  0
VISUALSTYLE
  5
3D
102
{ACAD_REACTORS
330
2A
102
}
330
2A
100
AcDbVisualStyle
  2
EdgeColorOff
 70
    22
177
     3
291
     1
 70
    58
 90
        2
176
     0
 90
        2
176
     0
 90
        0
176
     0
 90
        0
176
     0
 40
0.6
176
     0
 40
30.0
176
     0
 62
     7
420
 16777215
176
     0
 90
        1
176
     0
 90
        4
176
     0
 62
     7
176
     0
 62
   257
176
     0
 90
        1
176
     0
 90
        1
176
     0
 40
1.0
176
     0
 90
        8
176
     2
 62
     7
176
     0
 40
1.0
176
     0
 90
        1
176
     0
 90
        6
176
     0
 90
        2
176
     0
 62
     7
176
     0
 90
        5
176
     0
 90
        0
176
     0
 90
        0
176
     0
290
     0
176
     0
 90
        1
176
     0
 40
0.0
176
     0
 90
        0
176
     0
290
     0
176
     0
290
     1
176
     0
290
     1
176
     0
290
     0
176
     0
290
     0
176
     0
290
     0
176
     0
290
     0
176
     0
290
     0
176
     0
290
     0
176
     0
 90
       50
176
     0
 40
0.0
176
     0
 40
1.0
176
     0
 90
        0
176
     0
 62
    18
420
        0
176
     0
 90
       50
176
     0
 90
        3
176
     0
 62
     5
420
      255
176
     0
290
     0
176
     0
 90
       50
176
     0
 90
       50
176
     0
 90
       50
176
     0
290
     0
176
     0
 90
       50
176
     0
 62
   256
176
     0
 40
1.0
176
     0
 90
        2
176
     0
  1
strokes_ogs.tif
176
     0
290
     0
176
     0
 40
1.0
176
     0
 40
1.0
176
     0
  0
VISUALSTYLE
  5
39
102
{ACAD_REACTORS
330
2A
102
}
330
2A
100
AcDbVisualStyle
  2
Facepattern
 70
    15
177
     3
291
     1
 70
    58
 90
        2
176
     1
 90
        2
176
     1
 90
        0
176
     1
 90
        0
176
     1
 40
0.6
176
     1
 40
30.0
176
     1
 62
     7
420
 16777215
176
     1
 90
        1
176
     1
 90
        4
176
     1
 62
     7
176
     1
 62
   257
176
     1
 90
        1
176
     1
 90
        1
176
     1
 40
1.0
176
     1
 90
        8
176
     1
 62
     7
176
     1
 40
1.0
176
     1
 90
        1
176
     1
 90
        6
176
     1
 90
        2
176
     1
 62
     7
176
     1
 90
        5
176
     1
 90
        0
176
     1
 90
        0
176
     1
290
     0
176
     1
 90
        1
176
     1
 40
0.0
176
     1
 90
        0
176
     1
290
     0
176
     1
290
     1
176
     1
290
     1
176
     1
290
     0
176
     1
290
     0
176
     1
290
     0
176
     1
290
     0
176
     1
290
     0
176
     1
290
     0
176
     1
 90
       50
176
     1
 40
0.0
176
     1
 40
1.0
176
     1
 90
        0
176
     1
 62
    18
420
        0
176
     1
 90
       50
176
     1
 90
        3
176
     1
 62
     5
420
      255
176
     1
290
     0
176
     1
 90
       50
176
     1
 90
       50
176
     1
 90
       50
176
     1
290
     0
176
     1
 90
       50
176
     1
 62
   256
176
     0
 40
1.0
176
     0
 90
        2
176
     1
  1
strokes_ogs.tif
176
     1
290
     0
176
     1
 40
1.0
176
     1
 40
1.0
176
     1
  0
VISUALSTYLE
  5
2B
102
{ACAD_REACTORS
330
2A
102
}
330
2A
100
AcDbVisualStyle
  2
Flat
 70
     0
177
     3
291
     1
 70
    58
 90
        2
176
     1
 90
        1
176
     1
 90
        1
176
     1
 90
        2
176
     1
 40
0.6
176
     1
 40
30.0
176
     1
 62
     7
420
 16777215
176
     1
 90
        0
176
     1
 90
        0
176
     1
 62
     7
176
     1
 62
   257
176
     1
 90
        1
176
     1
 90
        1
176
     1
 40
1.0
176
     1
 90
        8
176
     1
 62
     7
176
     1
 40
1.0
176
     1
 90
        1
176
     1
 90
        6
176
     1
 90
        2
176
     1
 62
     7
176
     1
 90
        5
176
     1
 90
        0
176
     1
 90
        0
176
     1
290
     0
176
     1
 90
       13
176
     1
 40
0.0
176
     1
 90
        0
176
     1
290
     0
176
     1
290
     1
176
     1
290
     1
176
     1
290
     0
176
     1
290
     0
176
     1
290
     0
176
     1
290
     0
176
     1
290
     0
176
     1
290
     0
176
     1
 90
       50
176
     1
 40
0.0
176
     1
 40
1.0
176
     1
 90
        0
176
     1
 62
    18
420
        0
176
     1
 90
       50
176
     1
 90
        3
176
     1
 62
     5
420
      255
176
     1
290
     0
176
     1
 90
       50
176
     1
 90
       50
176
     1
 90
       50
176
     1
290
     0
176
     1
 90
       50
176
     1
 62
   256
176
     0
 40
1.0
176
     0
 90
        2
176
     1
  1
strokes_ogs.tif
176
     1
290
     0
176
     1
 40
1.0
176
     1
 40
1.0
176
     1
  0
VISUALSTYLE
  5
2C
102
{ACAD_REACTORS
330
2A
102
}
330
2A
100
AcDbVisualStyle
  2
FlatWithEdges
 70
     1
177
     3
291
     1
 70
    58
 90
        2
176
     1
 90
        1
176
     1
 90
        1
176
     1
 90
        2
176
     1
 40
0.6
176
     1
 40
30.0
176
     1
 62
     7
420
 16777215
176
     1
 90
        1
176
     1
 90
        0
176
     1
 62
     7
176
     1
 62
   257
176
     1
 90
        1
176
     1
 90
        1
176
     1
 40
1.0
176
     1
 90
        0
176
     1
 62
   257
176
     1
 40
1.0
176
     1
 90
        1
176
     1
 90
        6
176
     1
 90
        2
176
     1
 62
     7
176
     1
 90
        5
176
     1
 90
        0
176
     1
 90
        0
176
     1
290
     0
176
     1
 90
       13
176
     1
 40
0.0
176
     1
 90
        0
176
     1
290
     0
176
     1
290
     1
176
     1
290
     1
176
     1
290
     0
176
     1
290
     0
176
     1
290
     0
176
     1
290
     0
176
     1
290
     0
176
     1
290
     0
176
     1
 90
       50
176
     1
 40
0.0
176
     1
 40
1.0
176
     1
 90
        0
176
     1
 62
    18
420
        0
176
     1
 90
       50
176
     1
 90
        3
176
     1
 62
     5
420
      255
176
     1
290
     0
176
     1
 90
       50
176
     1
 90
       50
176
     1
 90
       50
176
     1
290
     0
176
     1
 90
       50
176
     1
 62
   256
176
     0
 40
1.0
176
     0
 90
        2
176
     1
  1
strokes_ogs.tif
176
     1
290
     0
176
     1
 40
1.0
176
     1
 40
1.0
176
     1
  0
VISUALSTYLE
  5
2D
102
{ACAD_REACTORS
330
2A
102
}
330
2A
100
AcDbVisualStyle
  2
Gouraud
 70
     2
177
     3
291
     1
 70
    58
 90
        2
176
     1
 90
        2
176
     1
 90
        1
176
     1
 90
        2
176
     1
 40
0.6
176
     1
 40
30.0
176
     1
 62
     7
420
 16777215
176
     1
 90
        0
176
     1
 90
        0
176
     1
 62
     7
176
     1
 62
   257
176
     1
 90
        1
176
     1
 90
        1
176
     1
 40
1.0
176
     1
 90
        0
176
     1
 62
     7
176
     1
 40
1.0
176
     1
 90
        1
176
     1
 90
        6
176
     1
 90
        2
176
     1
 62
     7
176
     1
 90
        5
176
     1
 90
        0
176
     1
 90
        0
176
     1
290
     0
176
     1
 90
       13
176
     1
 40
0.0
176
     1
 90
        0
176
     1
290
     0
176
     1
290
     1
176
     1
290
     1
176
     1
290
     0
176
     1
290
     0
176
     1
290
     0
176
     1
290
     0
176
     1
290
     0
176
     1
290
     0
176
     1
 90
       50
176
     1
 40
0.0
176
     1
 40
1.0
176
     1
 90
        0
176
     1
 62
    18
420
        0
176
     1
 90
       50
176
     1
 90
        3
176
     1
 62
     5
420
      255
176
     1
290
     0
176
     1
 90
       50
176
     1
 90
       50
176
     1
 90
       50
176
     1
290
     0
176
     1
 90
       50
176
     1
 62
   256
176
     0
 40
1.0
176
     0
 90
        2
176
     1
  1
strokes_ogs.tif
176
     1
290
     0
176
     1
 40
1.0
176
     1
 40
1.0
176
     1
  0
VISUALSTYLE
  5
2E
102
{ACAD_REACTORS
330
2A
102
}
330
2A
100
AcDbVisualStyle
  2
GouraudWithEdges
 70
     3
177
     3
291
     1
 70
    58
 90
        2
176
     1
 90
        2
176
     1
 90
        1
176
     1
 90
        2
176
     1
 40
0.6
176
     1
 40
30.0
176
     1
 62
     7
420
 16777215
176
     1
 90
        1
176
     1
 90
        0
176
     1
 62
     7
176
     1
 62
   257
176
     1
 90
        1
176
     1
 90
        1
176
     1
 40
1.0
176
     1
 90
        0
176
     1
 62
   257
176
     1
 40
1.0
176
     1
 90
        1
176
     1
 90
        6
176
     1
 90
        2
176
     1
 62
     7
176
     1
 90
        5
176
     1
 90
        0
176
     1
 90
        0
176
     1
290
     0
176
     1
 90
       13
176
     1
 40
0.0
176
     1
 90
        0
176
     1
290
     0
176
     1
290
     1
176
     1
290
     1
176
     1
290
     0
176
     1
290
     0
176
     1
290
     0
176
     1
290
     0
176
     1
290
     0
176
     1
290
     0
176
     1
 90
       50
176
     1
 40
0.0
176
     1
 40
1.0
176
     1
 90
        0
176
     1
 62
    18
420
        0
176
     1
 90
       50
176
     1
 90
        3
176
     1
 62
     5
420
      255
176
     1
290
     0
176
     1
 90
       50
176
     1
 90
       50
176
     1
 90
       50
176
     1
290
     0
176
     1
 90
       50
176
     1
 62
   256
176
     0
 40
1.0
176
     0
 90
        2
176
     1
  1
strokes_ogs.tif
176
     1
290
     0
176
     1
 40
1.0
176
     1
 40
1.0
176
     1
  0
VISUALSTYLE
  5
31
102
{ACAD_REACTORS
330
2A
102
}
330
2A
100
AcDbVisualStyle
  2
Hidden
 70
     6
177
     3
291
     0
 70
    58
 90
        1
176
     1
 90
        2
176
     1
 90
        2
176
     1
 90
        0
176
     1
 40
0.6
176
     1
 40
30.0
176
     1
 62
     7
420
 16777215
176
     1
 90
        2
176
     1
 90
        2
176
     1
 62
     7
176
     1
 62
   257
176
     1
 90
        2
176
     1
 90
        1
176
     1
 40
40.0
176
     1
 90
        0
176
     1
 62
   257
176
     1
 40
1.0
176
     1
 90
        1
176
     1
 90
        6
176
     1
 90
        2
176
     1
 62
     7
176
     1
 90
        3
176
     1
 90
        0
176
     1
 90
        0
176
     1
290
     0
176
     1
 90
        1
176
     1
 40
0.0
176
     1
 90
        0
176
     1
290
     0
176
     1
290
     1
176
     1
290
     1
176
     1
290
     0
176
     1
290
     0
176
     1
290
     0
176
     1
290
     0
176
     1
290
     0
176
     1
290
     0
176
     1
 90
       50
176
     1
 40
0.0
176
     1
 40
1.0
176
     1
 90
        0
176
     1
 62
    18
420
        0
176
     1
 90
       50
176
     1
 90
        3
176
     1
 62
     5
420
      255
176
     1
290
     0
176
     1
 90
       50
176
     1
 90
       50
176
     1
 90
       50
176
     1
290
     0
176
     1
 90
       50
176
     1
 62
   256
176
     0
 40
1.0
176
     0
 90
        2
176
     1
  1
strokes_ogs.tif
176
     1
290
     0
176
     1
 40
1.0
176
     1
 40
1.0
176
     1
  0
VISUALSTYLE
  5
3B
102
{ACAD_REACTORS
330
2A
102
}
330
2A
100
AcDbVisualStyle
  2
JitterOff
 70
    20
177
     3
291
     1
 70
    58
 90
        2
176
     0
 90
        2
176
     0
 90
        0
176
     0
 90
        0
176
     0
 40
0.6
176
     0
 40
30.0
176
     0
 62
     7
420
 16777215
176
     0
 90
        1
176
     0
 90
        4
176
     0
 62
     7
176
     0
 62
   257
176
     0
 90
        1
176
     0
 90
        1
176
     0
 40
1.0
176
     0
 90
       10
176
     2
 62
     7
176
     0
 40
1.0
176
     0
 90
        1
176
     0
 90
        6
176
     0
 90
        2
176
     0
 62
     7
176
     0
 90
        5
176
     0
 90
        0
176
     0
 90
        0
176
     0
290
     0
176
     0
 90
        1
176
     0
 40
0.0
176
     0
 90
        0
176
     0
290
     0
176
     0
290
     1
176
     0
290
     1
176
     0
290
     0
176
     0
290
     0
176
     0
290
     0
176
     0
290
     0
176
     0
290
     0
176
     0
290
     0
176
     0
 90
       50
176
     0
 40
0.0
176
     0
 40
1.0
176
     0
 90
        0
176
     0
 62
    18
420
        0
176
     0
 90
       50
176
     0
 90
        3
176
     0
 62
     5
420
      255
176
     0
290
     0
176
     0
 90
       50
176
     0
 90
       50
176
     0
 90
       50
176
     0
290
     0
176
     0
 90
       50
176
     0
 62
   256
176
     0
 40
1.0
176
     0
 90
        2
176
     0
  1
strokes_ogs.tif
176
     0
290
     0
176
     0
 40
1.0
176
     0
 40
1.0
176
     0
  0
VISUALSTYLE
  5
38
102
{ACAD_REACTORS
330
2A
102
}
330
2A
100
AcDbVisualStyle
  2
Linepattern
 70
    14
177
     3
291
     1
 70
    58
 90
        2
176
     1
 90
        2
176
     1
 90
        0
176
     1
 90
        0
176
     1
 40
0.6
176
     1
 40
30.0
176
     1
 62
     7
420
 16777215
176
     1
 90
        1
176
     1
 90
        4
176
     1
 62
     7
176
     1
 62
   257
176
     1
 90
        7
176
     1
 90
        7
176
     1
 40
1.0
176
     1
 90
        8
176
     1
 62
     7
176
     1
 40
1.0
176
     1
 90
        1
176
     1
 90
        6
176
     1
 90
        2
176
     1
 62
     7
176
     1
 90
        5
176
     1
 90
        0
176
     1
 90
        0
176
     1
290
     0
176
     1
 90
        1
176
     1
 40
0.0
176
     1
 90
        0
176
     1
290
     0
176
     1
290
     1
176
     1
290
     1
176
     1
290
     0
176
     1
290
     0
176
     1
290
     0
176
     1
290
     0
176
     1
290
     0
176
     1
290
     0
176
     1
 90
       50
176
     1
 40
0.0
176
     1
 40
1.0
176
     1
 90
        0
176
     1
 62
    18
420
        0
176
     1
 90
       50
176
     1
 90
        3
176
     1
 62
     5
420
      255
176
     1
290
     0
176
     1
 90
       50
176
     1
 90
       50
176
     1
 90
       50
176
     1
290
     0
176
     1
 90
       50
176
     1
 62
   256
176
     0
 40
1.0
176
     0
 90
        2
176
     1
  1
strokes_ogs.tif
176
     1
290
     0
176
     1
 40
1.0
176
     1
 40
1.0
176
     1
  0
VISUALSTYLE
  5
3C
102
{ACAD_REACTORS
330
2A
102
}
330
2A
100
AcDbVisualStyle
  2
OverhangOff
 70
    21
177
     3
291
     1
 70
    58
 90
        2
176
     0
 90
        2
176
     0
 90
        0
176
     0
 90
        0
176
     0
 40
0.6
176
     0
 40
30.0
176
     0
 62
     7
420
 16777215
176
     0
 90
        1
176
     0
 90
        4
176
     0
 62
     7
176
     0
 62
   257
176
     0
 90
        1
176
     0
 90
        1
176
     0
 40
1.0
176
     0
 90
        9
176
     2
 62
     7
176
     0
 40
1.0
176
     0
 90
        1
176
     0
 90
        6
176
     0
 90
        2
176
     0
 62
     7
176
     0
 90
        5
176
     0
 90
        0
176
     0
 90
        0
176
     0
290
     0
176
     0
 90
        1
176
     0
 40
0.0
176
     0
 90
        0
176
     0
290
     0
176
     0
290
     1
176
     0
290
     1
176
     0
290
     0
176
     0
290
     0
176
     0
290
     0
176
     0
290
     0
176
     0
290
     0
176
     0
290
     0
176
     0
 90
       50
176
     0
 40
0.0
176
     0
 40
1.0
176
     0
 90
        0
176
     0
 62
    18
420
        0
176
     0
 90
       50
176
     0
 90
        3
176
     0
 62
     5
420
      255
176
     0
290
     0
176
     0
 90
       50
176
     0
 90
       50
176
     0
 90
       50
176
     0
290
     0
176
     0
 90
       50
176
     0
 62
   256
176
     0
 40
1.0
176
     0
 90
        2
176
     0
  1
strokes_ogs.tif
176
     0
290
     0
176
     0
 40
1.0
176
     0
 40
1.0
176
     0
  0
VISUALSTYLE
  5
33
102
{ACAD_REACTORS
330
2A
102
}
330
2A
100
AcDbVisualStyle
  2
Realistic
 70
     8
177
     3
291
     0
 70
    58
 90
        2
176
     1
 90
        3
176
     1
 90
        0
176
     1
 90
        2
176
     1
 40
0.6
176
     1
 40
30.0
176
     1
 62
     7
420
 16777215
176
     1
 90
        0
176
     1
 90
        0
176
     1
 62
     7
176
     1
 62
   257
176
     1
 90
        1
176
     1
 90
        1
176
     1
 40
1.0
176
     1
 90
        8
176
     1
 62
   257
176
     1
 40
1.0
176
     1
 90
        1
176
     1
 90
        6
176
     1
 90
        2
176
     1
 62
     7
176
     1
 90
        3
176
     1
 90
        0
176
     1
 90
        0
176
     1
290
     0
176
     1
 90
       13
176
     1
 40
0.0
176
     1
 90
        0
176
     1
290
     0
176
     1
290
     1
176
     1
290
     1
176
     1
290
     0
176
     1
290
     0
176
     1
290
     0
176
     1
290
     0
176
     1
290
     0
176
     1
290
     0
176
     1
 90
       50
176
     1
 40
0.0
176
     1
 40
1.0
176
     1
 90
        0
176
     1
 62
    18
420
        0
176
     1
 90
       50
176
     1
 90
        3
176
     1
 62
     5
420
      255
176
     1
290
     0
176
     1
 90
       50
176
     1
 90
       50
176
     1
 90
       50
176
     1
290
     0
176
     1
 90
       50
176
     1
 62
   256
176
     0
 40
1.0
176
     0
 90
        2
176
     1
  1
strokes_ogs.tif
176
     1
290
     0
176
     1
 40
1.0
176
     1
 40
1.0
176
     1
  0
VISUALSTYLE
  5
42
102
{ACAD_REACTORS
330
2A
102
}
330
2A
100
AcDbVisualStyle
  2
Shaded
 70
    27
177
     3
291
     0
 70
    58
 90
        2
176
     1
 90
        2
176
     1
 90
        1
176
     1
 90
        2
176
     1
 40
0.6
176
     1
 40
30.0
176
     1
 62
     7
420
 16777215
176
     1
 90
        0
176
     1
 90
        4
176
     1
 62
     7
176
     1
 62
   257
176
     1
 90
        1
176
     1
 90
        1
176
     1
 40
1.0
176
     1
 90
        8
176
     1
 62
   257
176
     1
 40
1.0
176
     1
 90
        1
176
     1
 90
        6
176
     1
 90
        2
176
     1
 62
     8
420
  7895160
176
     1
 90
        3
176
     1
 90
        0
176
     1
 90
        0
176
     1
290
     0
176
     1
 90
        5
176
     1
 40
0.0
176
     1
 90
        0
176
     1
290
     0
176
     1
290
     1
176
     1
290
     1
176
     1
290
     0
176
     1
290
     0
176
     1
290
     0
176
     1
290
     0
176
     1
290
     0
176
     1
290
     0
176
     1
 90
       50
176
     1
 40
0.0
176
     1
 40
1.0
176
     1
 90
        0
176
     1
 62
    18
420
        0
176
     1
 90
       50
176
     1
 90
        3
176
     1
 62
     5
420
      255
176
     1
290
     0
176
     1
 90
       50
176
     1
 90
       50
176
     1
 90
       50
176
     1
290
     0
176
     1
 90
       50
176
     1
 62
   256
176
     0
 40
1.0
176
     0
 90
        2
176
     1
  1
strokes_ogs.tif
176
     1
290
     0
176
     1
 40
1.0
176
     1
 40
1.0
176
     1
  0
VISUALSTYLE
  5
41
102
{ACAD_REACTORS
330
2A
102
}
330
2A
100
AcDbVisualStyle
  2
Shaded with edges
 70
    26
177
     3
291
     0
 70
    58
 90
        2
176
     1
 90
        2
176
     1
 90
        1
176
     1
 90
        2
176
     1
 40
0.6
176
     1
 40
30.0
176
     1
 62
     7
420
 16777215
176
     1
 90
        1
176
     1
 90
       10
176
     1
 62
     7
176
     1
 62
   257
176
     1
 90
        2
176
     1
 90
        1
176
     1
 40
1.0
176
     1
 90
        8
176
     1
 62
   257
176
     1
 40
1.0
176
     1
 90
        1
176
     1
 90
        6
176
     1
 90
        2
176
     1
 62
     7
176
     1
 90
        3
176
     1
 90
        0
176
     1
 90
        0
176
     1
290
     0
176
     1
 90
        5
176
     1
 40
0.0
176
     1
 90
        0
176
     1
290
     0
176
     1
290
     1
176
     1
290
     1
176
     1
290
     0
176
     1
290
     0
176
     1
290
     0
176
     1
290
     0
176
     1
290
     0
176
     1
290
     0
176
     1
 90
       50
176
     1
 40
0.0
176
     1
 40
1.0
176
     1
 90
        0
176
     1
 62
    18
420
        0
176
     1
 90
       50
176
     1
 90
        3
176
     1
 62
     5
420
      255
176
     1
290
     0
176
     1
 90
       50
176
     1
 90
       50
176
     1
 90
       50
176
     1
290
     0
176
     1
 90
       50
176
     1
 62
   256
176
     0
 40
1.0
176
     0
 90
        2
176
     1
  1
strokes_ogs.tif
176
     1
290
     0
176
     1
 40
1.0
176
     1
 40
1.0
176
     1
  0
VISUALSTYLE
  5
3E
102
{ACAD_REACTORS
330
2A
102
}
330
2A
100
AcDbVisualStyle
  2
Shades of Gray
 70
    23
177
     3
291
     0
 70
    58
 90
        2
176
     1
 90
        2
176
     1
 90
        3
176
     1
 90
        0
176
     1
 40
0.6
176
     1
 40
30.0
176
     1
 62
     7
420
 16777215
176
     1
 90
        2
176
     1
 90
        2
176
     1
 62
     7
176
     1
 62
     7
176
     1
 90
        1
176
     1
 90
        1
176
     1
 40
40.0
176
     1
 90
        8
176
     1
 62
     7
176
     1
 40
1.0
176
     1
 90
        1
176
     1
 90
        6
176
     1
 90
        2
176
     1
 62
     7
176
     1
 90
        3
176
     1
 90
        0
176
     1
 90
        0
176
     1
290
     0
176
     1
 90
        1
176
     1
 40
0.0
176
     1
 90
        0
176
     1
290
     0
176
     1
290
     1
176
     1
290
     1
176
     1
290
     0
176
     1
290
     0
176
     1
290
     0
176
     1
290
     0
176
     1
290
     0
176
     1
290
     0
176
     1
 90
       50
176
     1
 40
0.0
176
     1
 40
1.0
176
     1
 90
        0
176
     1
 62
    18
420
        0
176
     1
 90
       50
176
     1
 90
        3
176
     1
 62
     5
420
      255
176
     1
290
     0
176
     1
 90
       50
176
     1
 90
       50
176
     1
 90
       50
176
     1
290
     0
176
     1
 90
       50
176
     1
 62
   256
176
     0
 40
1.0
176
     0
 90
        2
176
     1
  1
strokes_ogs.tif
176
     1
290
     0
176
     1
 40
1.0
176
     1
 40
1.0
176
     1
  0
VISUALSTYLE
  5
3F
102
{ACAD_REACTORS
330
2A
102
}
330
2A
100
AcDbVisualStyle
  2
Sketchy
 70
    24
177
     3
291
     0
 70
    58
 90
        1
176
     1
 90
        2
176
     1
 90
        2
176
     1
 90
        0
176
     1
 40
0.6
176
     1
 40
30.0
176
     1
 62
     7
420
 16777215
176
     1
 90
        2
176
     1
 90
        2
176
     1
 62
     7
176
     1
 62
     7
176
     1
 90
        1
176
     1
 90
        1
176
     1
 40
40.0
176
     1
 90
       11
176
     1
 62
     7
176
     1
 40
1.0
176
     1
 90
        1
176
     1
 90
        6
176
     1
 90
        2
176
     1
 62
     7
176
     1
 90
        6
176
     1
 90
        0
176
     1
 90
        0
176
     1
290
     0
176
     1
 90
        1
176
     1
 40
0.0
176
     1
 90
        0
176
     1
290
     0
176
     1
290
     1
176
     1
290
     1
176
     1
290
     0
176
     1
290
     0
176
     1
290
     0
176
     1
290
     0
176
     1
290
     0
176
     1
290
     0
176
     1
 90
       50
176
     1
 40
0.0
176
     1
 40
1.0
176
     1
 90
        0
176
     1
 62
    18
420
        0
176
     1
 90
       50
176
     1
 90
        3
176
     1
 62
     5
420
      255
176
     1
290
     0
176
     1
 90
       50
176
     1
 90
       50
176
     1
 90
       50
176
     1
290
     0
176
     1
 90
       50
176
     1
 62
   256
176
     0
 40
1.0
176
     0
 90
        2
176
     1
  1
strokes_ogs.tif
176
     1
290
     0
176
     1
 40
1.0
176
     1
 40
1.0
176
     1
  0
VISUALSTYLE
  5
37
102
{ACAD_REACTORS
330
2A
102
}
330
2A
100
AcDbVisualStyle
  2
Thicken
 70
    13
177
     3
291
     1
 70
    58
 90
        2
176
     1
 90
        2
176
     1
 90
        0
176
     1
 90
        0
176
     1
 40
0.6
176
     1
 40
30.0
176
     1
 62
     7
420
 16777215
176
     1
 90
        1
176
     1
 90
        4
176
     1
 62
     7
176
     1
 62
   257
176
     1
 90
        1
176
     1
 90
        1
176
     1
 40
1.0
176
     1
 90
       12
176
     1
 62
     7
176
     1
 40
1.0
176
     1
 90
        1
176
     1
 90
        6
176
     1
 90
        2
176
     1
 62
     7
176
     1
 90
        5
176
     1
 90
        0
176
     1
 90
        0
176
     1
290
     0
176
     1
 90
        1
176
     1
 40
0.0
176
     1
 90
        0
176
     1
290
     0
176
     1
290
     1
176
     1
290
     1
176
     1
290
     0
176
     1
290
     0
176
     1
290
     0
176
     1
290
     0
176
     1
290
     0
176
     1
290
     0
176
     1
 90
       50
176
     1
 40
0.0
176
     1
 40
1.0
176
     1
 90
        0
176
     1
 62
    18
420
        0
176
     1
 90
       50
176
     1
 90
        3
176
     1
 62
     5
420
      255
176
     1
290
     0
176
     1
 90
       50
176
     1
 90
       50
176
     1
 90
       50
176
     1
290
     0
176
     1
 90
       50
176
     1
 62
   256
176
     0
 40
1.0
176
     0
 90
        2
176
     1
  1
strokes_ogs.tif
176
     1
290
     0
176
     1
 40
1.0
176
     1
 40
1.0
176
     1
  0
VISUALSTYLE
  5
30
102
{ACAD_REACTORS
330
2A
102
}
330
2A
100
AcDbVisualStyle
  2
Wireframe
 70
     5
177
     3
291
     0
 70
    58
 90
        0
176
     1
 90
        2
176
     1
 90
        0
176
     1
 90
        0
176
     1
 40
0.6
176
     1
 40
30.0
176
     1
 62
     7
420
 16777215
176
     1
 90
        1
176
     1
 90
        4
176
     1
 62
     7
176
     1
 62
   257
176
     1
 90
        1
176
     1
 90
        1
176
     1
 40
1.0
176
     1
 90
        0
176
     1
 62
   257
176
     1
 40
1.0
176
     1
 90
        1
176
     1
 90
        6
176
     1
 90
        2
176
     1
 62
     7
176
     1
 90
        3
176
     1
 90
        0
176
     1
 90
        0
176
     1
290
     0
176
     1
 90
        1
176
     1
 40
0.0
176
     1
 90
        0
176
     1
290
     0
176
     1
290
     1
176
     1
290
     1
176
     1
290
     0
176
     1
290
     0
176
     1
290
     0
176
     1
290
     0
176
     1
290
     0
176
     1
290
     0
176
     1
 90
       50
176
     1
 40
0.0
176
     1
 40
1.0
176
     1
 90
        0
176
     1
 62
    18
420
        0
176
     1
 90
       50
176
     1
 90
        3
176
     1
 62
     5
420
      255
176
     1
290
     0
176
     1
 90
       50
176
     1
 90
       50
176
     1
 90
       50
176
     1
290
     0
176
     1
 90
       50
176
     1
 62
   256
176
     0
 40
1.0
176
     0
 90
        2
176
     1
  1
strokes_ogs.tif
176
     1
290
     0
176
     1
 40
1.0
176
     1
 40
1.0
176
     1
  0
VISUALSTYLE
  5
40
102
{ACAD_REACTORS
330
2A
102
}
330
2A
100
AcDbVisualStyle
  2
X-Ray
 70
    25
177
     3
291
     0
 70
    58
 90
        2
176
     1
 90
        2
176
     1
 90
        1
176
     1
 90
        1
176
     1
 40
0.5
176
     1
 40
30.0
176
     1
 62
     7
420
 16777215
176
     1
 90
        1
176
     1
 90
        0
176
     1
 62
     7
176
     1
 62
   257
176
     1
 90
        1
176
     1
 90
        1
176
     1
 40
1.0
176
     1
 90
        8
176
     1
 62
     7
176
     1
 40
1.0
176
     1
 90
        1
176
     1
 90
        6
176
     1
 90
        2
176
     1
 62
     7
176
     1
 90
        3
176
     1
 90
        0
176
     1
 90
        0
176
     1
290
     0
176
     1
 90
       13
176
     1
 40
0.0
176
     1
 90
        0
176
     1
290
     0
176
     1
290
     1
176
     1
290
     1
176
     1
290
     0
176
     1
290
     0
176
     1
290
     0
176
     1
290
     0
176
     1
290
     0
176
     1
290
     0
176
     1
 90
       50
176
     1
 40
0.0
176
     1
 40
1.0
176
     1
 90
        0
176
     1
 62
    18
420
        0
176
     1
 90
       50
176
     1
 90
        3
176
     1
 62
     5
420
      255
176
     1
290
     0
176
     1
 90
       50
176
     1
 90
       50
176
     1
 90
       50
176
     1
290
     0
176
     1
 90
       50
176
     1
 62
   256
176
     0
 40
1.0
176
     0
 90
        2
176
     1
  1
strokes_ogs.tif
176
     1
290
     0
176
     1
 40
1.0
176
     1
 40
1.0
176
     1
  0
DICTIONARYVAR
  5
A7
102
{ACAD_REACTORS
330
A6
102
}
330
A6
100
DictionaryVariables
280
     0
  1
1:1
  0
DICTIONARYVAR
  5
2C8
102
{ACAD_REACTORS
330
A6
102
}
330
A6
100
DictionaryVariables
280
     0
  1
STANDARD
  0
DICTIONARYVAR
  5
2C7
102
{ACAD_REACTORS
330
A6
102
}
330
A6
100
DictionaryVariables
280
     0
  1
STANDARD
  0
DICTIONARYVAR
  5
2C9
102
{ACAD_REACTORS
330
A6
102
}
330
A6
100
DictionaryVariables
280
     0
  1
Imperial24
  0
DICTIONARYVAR
  5
2CA
102
{ACAD_REACTORS
330
A6
102
}
330
A6
100
DictionaryVariables
280
     0
  1
Imperial24
  0
DICTIONARYVAR
  5
2CC
102
{ACAD_REACTORS
330
A6
102
}
330
A6
100
DictionaryVariables
280
     0
  1
1
  0
DICTIONARYVAR
  5
2CD
102
{ACAD_REACTORS
330
A6
102
}
330
A6
100
DictionaryVariables
280
     0
  1
15
  0
DICTIONARYVAR
  5
2CB
102
{ACAD_REACTORS
330
A6
102
}
330
A6
100
DictionaryVariables
280
     0
  1
0
  0
DICTIONARYVAR
  5
A8
102
{ACAD_REACTORS
330
A6
102
}
330
A6
100
DictionaryVariables
280
     0
  1
1
  0
DICTIONARY
  5
2C4
330
E8
100
AcDbDictionary
280
     1
281
     1
  3
ACAD_XREC_ROUNDTRIP
360
323
  0
DICTIONARY
  5
2C2
330
E7
100
AcDbDictionary
280
     1
281
     1
  3
ACAD_XREC_ROUNDTRIP
360
322
  0
DICTIONARY
  5
320
330
E5
100
AcDbDictionary
280
     1
281
     1
  3
ACAD_ROUNDTRIP_2008_TABLESTYLE_CELLSTYLEMAP
360
321
  0
XRECORD
  5
323
102
{ACAD_REACTORS
330
2C4
102
}
330
2C4
100
AcDbXrecord
280
     1
102
DISPLAYNAME
  1
Imperial24
102
FLAGS
 90
        0
  0
XRECORD
  5
322
102
{ACAD_REACTORS
330
2C2
102
}
330
2C2
100
AcDbXrecord
280
     1
102
DISPLAYNAME
  1
Imperial24
102
FLAGS
 90
        0
  0
CELLSTYLEMAP
  5
321
102
{ACAD_REACTORS
330
320
102
}
330
320
100
AcDbCellStyleMap
 90
        3
300
CELLSTYLE
  1
TABLEFORMAT_BEGIN
 90
        5
170
     1
 91
        0
 92
    32768
 62
   257
 93
        1
300
CONTENTFORMAT
  1
CONTENTFORMAT_BEGIN
 90
        0
 91
        0
 92
      512
 93
        0
300

 40
0.0
140
1.0
 94
        5
 62
     0
340
11
144
0.25
309
CONTENTFORMAT_END
171
     0
 94
        0
309
TABLEFORMAT_END
  1
CELLSTYLE_BEGIN
 90
        1
 91
        1
300
_TITLE
309
CELLSTYLE_END
300
CELLSTYLE
  1
TABLEFORMAT_BEGIN
 90
        5
170
     1
 91
        0
 92
        0
 62
   257
 93
        1
300
CONTENTFORMAT
  1
CONTENTFORMAT_BEGIN
 90
        0
 91
        0
 92
      512
 93
        0
300

 40
0.0
140
1.0
 94
        5
 62
     0
340
11
144
0.18
309
CONTENTFORMAT_END
171
     0
 94
        0
309
TABLEFORMAT_END
  1
CELLSTYLE_BEGIN
 90
        2
 91
        1
300
_HEADER
309
CELLSTYLE_END
300
CELLSTYLE
  1
TABLEFORMAT_BEGIN
 90
        5
170
     1
 91
        0
 92
        0
 62
   257
 93
        1
300
CONTENTFORMAT
  1
CONTENTFORMAT_BEGIN
 90
        0
 91
        0
 92
      512
 93
        0
300

 40
0.0
140
1.0
 94
        2
 62
     0
340
11
144
0.18
309
CONTENTFORMAT_END
171
     0
 94
        0
309
TABLEFORMAT_END
  1
CELLSTYLE_BEGIN
 90
        3
 91
        2
300
_DATA
309
CELLSTYLE_END
  0
ENDSEC
  0
SECTION
  2
ACDSDATA
 70
     2
 71
     8
  0
ACDSSCHEMA
 90
        0
  1
AcDb3DSolid_ASM_Data
  2
AcDbDs::ID
280
    10
 91
        8
  2
ASM_Data
280
    15
 91
        0
101
ACDSRECORD
 95
        0
 90
        1
  2
AcDbDs::TreatedAsObjectData
280
     1
291
     1
101
ACDSRECORD
 95
        0
 90
        2
  2
AcDbDs::Legacy
280
     1
291
     1
101
ACDSRECORD
  1
AcDbDs::ID
 90
        3
  2
AcDs:Indexable
280
     1
291
     1
101
ACDSRECORD
  1
AcDbDs::ID
 90
        4
  2
AcDbDs::HandleAttribute
280
     7
282
     1
  0
ACDSSCHEMA
 90
        1
  1
AcDbDs::TreatedAsObjectDataSchema
  2
AcDbDs::TreatedAsObjectData
280
     1
 91
        0
  0
ACDSSCHEMA
 90
        2
  1
AcDbDs::LegacySchema
  2
AcDbDs::Legacy
280
     1
 91
        0
  0
ACDSSCHEMA
 90
        3
  1
AcDbDs::IndexedPropertySchema
  2
AcDs:Indexable
280
     1
 91
        0
  0
ACDSSCHEMA
 90
        4
  1
AcDbDs::HandleAttributeSchema
  2
AcDbDs::HandleAttribute
280
     7
 91
        1
284
     1
  0
ACDSSCHEMA
 90
        5
  1
AcDb_Thumbnail_Schema
  2
AcDbDs::ID
280
    10
 91
        8
  2
Thumbnail_Data
280
    15
 91
        0
101
ACDSRECORD
 95
        5
 90
        1
  2
AcDbDs::TreatedAsObjectData
280
     1
291
     1
101
ACDSRECORD
 95
        5
 90
        2
  2
AcDbDs::Legacy
280
     1
291
     1
101
ACDSRECORD
  1
AcDbDs::ID
 90
        3
  2
AcDs:Indexable
280
     1
291
     1
101
ACDSRECORD
  1
AcDbDs::ID
 90
        4
  2
AcDbDs::HandleAttribute
280
     7
282
     1
  0
ACDSRECORD
 90
        5
  2
AcDbDs::ID
280
    10
320
22
  2
Thumbnail_Data
280
    15
 94
     1609
310
89504E470D0A1A0A0000000D4948445200000100000000670803000000D82A6C0200000300504C5445000000000000C8C8C80000000000000000000000000000000000000000000000000000330000660000990000CC0000FF0033000033330033660033990033CC0033FF0066000066330066660066990066CC0066FF0099
310
000099330099660099990099CC0099FF00CC0000CC3300CC6600CC9900CCCC00CCFF00FF0000FF3300FF6600FF9900FFCC00FFFF3300003300333300663300993300CC3300FF3333003333333333663333993333CC3333FF3366003366333366663366993366CC3366FF3399003399333399663399993399CC3399FF33CC00
310
33CC3333CC6633CC9933CCCC33CCFF33FF0033FF3333FF6633FF9933FFCC33FFFF6600006600336600666600996600CC6600FF6633006633336633666633996633CC6633FF6666006666336666666666996666CC6666FF6699006699336699666699996699CC6699FF66CC0066CC3366CC6666CC9966CCCC66CCFF66FF0066
310
FF3366FF6666FF9966FFCC66FFFF9900009900339900669900999900CC9900FF9933009933339933669933999933CC9933FF9966009966339966669966999966CC9966FF9999009999339999669999999999CC9999FF99CC0099CC3399CC6699CC9999CCCC99CCFF99FF0099FF3399FF6699FF9999FFCC99FFFFCC0000CC00
310
33CC0066CC0099CC00CCCC00FFCC3300CC3333CC3366CC3399CC33CCCC33FFCC6600CC6633CC6666CC6699CC66CCCC66FFCC9900CC9933CC9966CC9999CC99CCCC99FFCCCC00CCCC33CCCC66CCCC99CCCCCCCCCCFFCCFF00CCFF33CCFF66CCFF99CCFFCCCCFFFFFF0000FF0033FF0066FF0099FF00CCFF00FFFF3300FF3333
310
FF3366FF3399FF33CCFF33FFFF6600FF6633FF6666FF6699FF66CCFF66FFFF9900FF9933FF9966FF9999FF99CCFF99FFFFCC00FFCC33FFCC66FFCC99FFCCCCFFCCFFFFFF00FFFF33FFFF66FFFF99FFFFCCFFFFFF0000000D0D0D1A1A1A2828283535354343435050505D5D5D6B6B6B787878868686939393A1A1A1AEAEAEBB
310
BBBBC9C9C9D6D6D6E4E4E4F1F1F1FFFFFF00000000000000000000000000000000000000000000000000000000000008F1915C000001554944415478DAED9B410E83300C04F3FFFFEEBD12A2D4C44E8590AA0AEFCCA1055A0EBBB1886D923100000000000000007E8C369CE5872F43FDC109CFF1AFBCB00C004F07B600381E
310
82F20C001D879E06A83A3632400303CA13C35910031C93410C3865828EA9A0641D0051B56F3978A4C3CE1D0167F90000E08DCD2C580BDD2FD53F357266179324ADDAE2FA64886A213FE47CCB02507376F87E69D4447F0EF65999528DB4DFF978036A75DF0C38DFAA16019085AE0C482FCC9A1AA03A549A1AA08101D70D1844
310
80C53320EB6A6AC02CE2C234385D7ABC01AA27B9CB7940A75450EB5531E75478FA7C7E2D54D677CB935009742908A5AAFFBD0E87FAFF2DBB04BD06FA666C0C000060167095EF6C818A12D86BF87305E838FEAE0E4C0B25ED0D60B13406D81960BF5F801D23B1152E4B0342AFD872B5789CFF6C0DF0CE856B330CAB21E77A98
310
0D0300000000000000000000FFE305CACC849EF505272C0000000049454E44AE4260820303738FEFE7F8AB6295325084FDEEF9CE16BC49806B0177EB28AA1B904E0790BE74BF7404AC463D2D013CDCA2BB95360F3079BACE6F6D124062418A09C83D9538F5BD87BFFEB575004D3963DDD04480E0A1E81E0152418ABD60EAA5
310
A4E7AE6BC52E0192A7BB0A27CD4E507AB8A6EBDE24401CF22DEEA19C803B4D6041003FCC0936977609700FF5011201BC4D809FFDD7037A81D249AF7B81ED7180E84D15D78032121CB48E7B04080381478C04C75880EEC60244B22B511A114FA2359868B0D103A8D62F6EEB01DC14A45E0FA8E397ACE4881AD6378A505F8AEE
310
E5549578E72E49947FD3042F6D35ED2D24EDCA7094316B1DF76755983B51F819CAF86721FFAB79815CDA43A646B06786F6EDB57383DF50003D3B6C66666666666666066BE03B46629C1FF70C31E096A9286D7C900D5EFDFA8B7A0EB86F107EE728FADE61F4DDE3F0F9032C8384E510C126C0F208C1679282CF2566D9E42C9F
310
20784649F89CA231AB2CF7F81D61E5152E2BA000F30AA7CCD23EAEFB706099A5BBDCE204975BDCB2CBC39F2F007FC2849D3162A7CCC09F3364274D392D678DFD0151F46E3BB4C024850000000049454E44AE426082
  0
ENDSEC
  0
EOF
