  0
SECTION
  2
HEADER
  9
$ACADVER
  1
AC1027
  9
$ACADMAINTVER
 70
   105
  9
$DWGCODEPAGE
  3
ANSI_1252
  9
$LASTSAVEDBY
  1
Sandra
  9
$REQUIREDVERSIONS
160
                 0
  9
$INSBASE
 10
0.0
 20
0.0
 30
0.0
  9
$EXTMIN
 10
-1284.38518204749
 20
-1284.38518204749
 30
0.0
  9
$EXTMAX
 10
1284.38518204749
 20
1284.38518204749
 30
377.9346008300783
  9
$LIMMIN
 10
0.0
 20
0.0
  9
$LIMMAX
 10
12.0
 20
9.0
  9
$ORTHOMODE
 70
     1
  9
$REGENMODE
 70
     1
  9
$FILLMODE
 70
     1
  9
$QTEXTMODE
 70
     0
  9
$MIRRTEXT
 70
     1
  9
$LTSCALE
 40
1.0
  9
$ATTMODE
 70
     1
  9
$TEXTSIZE
 40
0.2
  9
$TRACEWID
 40
0.05
  9
$TEXTSTYLE
  7
Standard
  9
$CLAYER
  8
Default
  9
$CELTYPE
  6
ByLayer
  9
$CECOLOR
 62
   256
  9
$CELTSCALE
 40
1.0
  9
$DISPSILH
 70
     0
  9
$DIMSCALE
 40
1.0
  9
$DIMASZ
 40
0.18
  9
$DIMEXO
 40
0.0625
  9
$DIMDLI
 40
0.38
  9
$DIMRND
 40
0.0
  9
$DIMDLE
 40
0.0
  9
$DIMEXE
 40
0.18
  9
$DIMTP
 40
0.0
  9
$DIMTM
 40
0.0
  9
$DIMTXT
 40
0.18
  9
$DIMCEN
 40
0.09
  9
$DIMTSZ
 40
0.0
  9
$DIMTOL
 70
     0
  9
$DIMLIM
 70
     0
  9
$DIMTIH
 70
     1
  9
$DIMTOH
 70
     1
  9
$DIMSE1
 70
     0
  9
$DIMSE2
 70
     0
  9
$DIMTAD
 70
     0
  9
$DIMZIN
 70
     0
  9
$DIMBLK
  1

  9
$DIMASO
 70
     1
  9
$DIMSHO
 70
     1
  9
$DIMPOST
  1

  9
$DIMAPOST
  1

  9
$DIMALT
 70
     0
  9
$DIMALTD
 70
     2
  9
$DIMALTF
 40
25.4
  9
$DIMLFAC
 40
1.0
  9
$DIMTOFL
 70
     0
  9
$DIMTVP
 40
0.0
  9
$DIMTIX
 70
     0
  9
$DIMSOXD
 70
     0
  9
$DIMSAH
 70
     0
  9
$DIMBLK1
  1

  9
$DIMBLK2
  1

  9
$DIMSTYLE
  2
Standard
  9
$DIMCLRD
 70
     0
  9
$DIMCLRE
 70
     0
  9
$DIMCLRT
 70
     0
  9
$DIMTFAC
 40
1.0
  9
$DIMGAP
 40
0.09
  9
$DIMJUST
 70
     0
  9
$DIMSD1
 70
     0
  9
$DIMSD2
 70
     0
  9
$DIMTOLJ
 70
     1
  9
$DIMTZIN
 70
     0
  9
$DIMALTZ
 70
     0
  9
$DIMALTTZ
 70
     0
  9
$DIMUPT
 70
     0
  9
$DIMDEC
 70
     4
  9
$DIMTDEC
 70
     4
  9
$DIMALTU
 70
     2
  9
$DIMALTTD
 70
     2
  9
$DIMTXSTY
  7
Standard
  9
$DIMAUNIT
 70
     0
  9
$DIMADEC
 70
     0
  9
$DIMALTRND
 40
0.0
  9
$DIMAZIN
 70
     0
  9
$DIMDSEP
 70
    46
  9
$DIMATFIT
 70
     3
  9
$DIMFRAC
 70
     0
  9
$DIMLDRBLK
  1

  9
$DIMLUNIT
 70
     2
  9
$DIMLWD
 70
    -2
  9
$DIMLWE
 70
    -2
  9
$DIMTMOVE
 70
     2
  9
$DIMFXL
 40
1.0
  9
$DIMFXLON
 70
     0
  9
$DIMJOGANG
 40
0.7853981633974483
  9
$DIMTFILL
 70
     0
  9
$DIMTFILLCLR
 70
     0
  9
$DIMARCSYM
 70
     0
  9
$DIMLTYPE
  6

  9
$DIMLTEX1
  6

  9
$DIMLTEX2
  6

  9
$DIMTXTDIRECTION
 70
     0
  9
$LUNITS
 70
     2
  9
$LUPREC
 70
     3
  9
$SKETCHINC
 40
0.1
  9
$FILLETRAD
 40
0.5
  9
$AUNITS
 70
     0
  9
$AUPREC
 70
     0
  9
$MENU
  1
.
  9
$ELEVATION
 40
0.0
  9
$PELEVATION
 40
0.0
  9
$THICKNESS
 40
0.0
  9
$LIMCHECK
 70
     0
  9
$CHAMFERA
 40
0.0
  9
$CHAMFERB
 40
0.0
  9
$CHAMFERC
 40
0.0
  9
$CHAMFERD
 40
0.0
  9
$SKPOLY
 70
     0
  9
$TDCREATE
 40
2456645.635907431
  9
$TDUCREATE
 40
2456645.802574097
  9
$TDUPDATE
 40
2457854.461417975
  9
$TDUUPDATE
 40
2457854.628084642
  9
$TDINDWG
 40
0.0092597454
  9
$TDUSRTIMER
 40
0.0092597454
  9
$USRTIMER
 70
     1
  9
$ANGBASE
 50
0.0
  9
$ANGDIR
 70
     0
  9
$PDMODE
 70
     0
  9
$PDSIZE
 40
0.0
  9
$PLINEWID
 40
0.0
  9
$SPLFRAME
 70
     0
  9
$SPLINETYPE
 70
     6
  9
$SPLINESEGS
 70
     8
  9
$HANDSEED
  5
5D115
  9
$SURFTAB1
 70
     6
  9
$SURFTAB2
 70
     6
  9
$SURFTYPE
 70
     6
  9
$SURFU
 70
     6
  9
$SURFV
 70
     6
  9
$UCSBASE
  2

  9
$UCSNAME
  2

  9
$UCSORG
 10
0.0
 20
0.0
 30
0.0
  9
$UCSXDIR
 10
1.0
 20
0.0
 30
0.0
  9
$UCSYDIR
 10
0.0
 20
1.0
 30
0.0
  9
$UCSORTHOREF
  2

  9
$UCSORTHOVIEW
 70
     0
  9
$UCSORGTOP
 10
0.0
 20
0.0
 30
0.0
  9
$UCSORGBOTTOM
 10
0.0
 20
0.0
 30
0.0
  9
$UCSORGLEFT
 10
0.0
 20
0.0
 30
0.0
  9
$UCSORGRIGHT
 10
0.0
 20
0.0
 30
0.0
  9
$UCSORGFRONT
 10
0.0
 20
0.0
 30
0.0
  9
$UCSORGBACK
 10
0.0
 20
0.0
 30
0.0
  9
$PUCSBASE
  2

  9
$PUCSNAME
  2

  9
$PUCSORG
 10
0.0
 20
0.0
 30
0.0
  9
$PUCSXDIR
 10
1.0
 20
0.0
 30
0.0
  9
$PUCSYDIR
 10
0.0
 20
1.0
 30
0.0
  9
$PUCSORTHOREF
  2

  9
$PUCSORTHOVIEW
 70
     0
  9
$PUCSORGTOP
 10
0.0
 20
0.0
 30
0.0
  9
$PUCSORGBOTTOM
 10
0.0
 20
0.0
 30
0.0
  9
$PUCSORGLEFT
 10
0.0
 20
0.0
 30
0.0
  9
$PUCSORGRIGHT
 10
0.0
 20
0.0
 30
0.0
  9
$PUCSORGFRONT
 10
0.0
 20
0.0
 30
0.0
  9
$PUCSORGBACK
 10
0.0
 20
0.0
 30
0.0
  9
$USERI1
 70
     0
  9
$USERI2
 70
     0
  9
$USERI3
 70
     0
  9
$USERI4
 70
     0
  9
$USERI5
 70
     0
  9
$USERR1
 40
0.0
  9
$USERR2
 40
0.0
  9
$USERR3
 40
0.0
  9
$USERR4
 40
0.0
  9
$USERR5
 40
0.0
  9
$WORLDVIEW
 70
     1
  9
$SHADEDGE
 70
     3
  9
$SHADEDIF
 70
    70
  9
$TILEMODE
 70
     1
  9
$MAXACTVP
 70
    64
  9
$PINSBASE
 10
0.0
 20
0.0
 30
0.0
  9
$PLIMCHECK
 70
     0
  9
$PEXTMIN
 10
1.000000000000000E+20
 20
1.000000000000000E+20
 30
1.000000000000000E+20
  9
$PEXTMAX
 10
-1.000000000000000E+20
 20
-1.000000000000000E+20
 30
-1.000000000000000E+20
  9
$PLIMMIN
 10
0.0
 20
0.0
  9
$PLIMMAX
 10
12.0
 20
9.0
  9
$UNITMODE
 70
     0
  9
$VISRETAIN
 70
     1
  9
$PLINEGEN
 70
     0
  9
$PSLTSCALE
 70
     1
  9
$TREEDEPTH
 70
  3020
  9
$CMLSTYLE
  2
Standard
  9
$CMLJUST
 70
     0
  9
$CMLSCALE
 40
1.0
  9
$PROXYGRAPHICS
 70
     1
  9
$MEASUREMENT
 70
     0
  9
$CELWEIGHT
370
    -1
  9
$ENDCAPS
280
     0
  9
$JOINSTYLE
280
     0
  9
$LWDISPLAY
290
     0
  9
$INSUNITS
 70
     4
  9
$HYPERLINKBASE
  1

  9
$STYLESHEET
  1

  9
$XEDIT
290
     1
  9
$CEPSNTYPE
380
     0
  9
$PSTYLEMODE
290
     1
  9
$FINGERPRINTGUID
  2
{412965D3-79FA-4A43-93E9-EFC21FF2704C}
  9
$VERSIONGUID
  2
{C996153F-1D51-49DC-BB0B-EC589873EFFC}
  9
$EXTNAMES
290
     1
  9
$PSVPSCALE
 40
0.0
  9
$OLESTARTUP
290
     0
  9
$SORTENTS
280
   127
  9
$INDEXCTL
280
     0
  9
$HIDETEXT
280
     1
  9
$XCLIPFRAME
280
     0
  9
$HALOGAP
280
     0
  9
$OBSCOLOR
 70
   257
  9
$OBSLTYPE
280
     0
  9
$INTERSECTIONDISPLAY
280
     0
  9
$INTERSECTIONCOLOR
 70
   257
  9
$DIMASSOC
280
     2
  9
$PROJECTNAME
  1

  9
$CAMERADISPLAY
290
     0
  9
$LENSLENGTH
 40
50.0
  9
$CAMERAHEIGHT
 40
0.0
  9
$STEPSPERSEC
 40
2.0
  9
$STEPSIZE
 40
6.0
  9
$3DDWFPREC
 40
2.0
  9
$PSOLWIDTH
 40
0.25
  9
$PSOLHEIGHT
 40
4.0
  9
$LOFTANG1
 40
1.570796326794896
  9
$LOFTANG2
 40
1.570796326794896
  9
$LOFTMAG1
 40
0.0
  9
$LOFTMAG2
 40
0.0
  9
$LOFTPARAM
 70
     7
  9
$LOFTNORMALS
280
     1
  9
$LATITUDE
 40
37.795
  9
$LONGITUDE
 40
-122.394
  9
$NORTHDIRECTION
 40
0.0
  9
$TIMEZONE
 70
 -8000
  9
$LIGHTGLYPHDISPLAY
280
     1
  9
$TILEMODELIGHTSYNCH
280
     1
  9
$CMATERIAL
347
44
  9
$SOLIDHIST
280
     0
  9
$SHOWHIST
280
     1
  9
$DWFFRAME
280
     2
  9
$DGNFRAME
280
     0
  9
$REALWORLDSCALE
290
     1
  9
$INTERFERECOLOR
 62
     1
  9
$INTERFEREOBJVS
345
33
  9
$INTERFEREVPVS
346
30
  9
$CSHADOW
280
     0
  9
$SHADOWPLANELOCATION
 40
0.0
  0
ENDSEC
  0
SECTION
  2
CLASSES
  0
CLASS
  1
ACDBDICTIONARYWDFLT
  2
AcDbDictionaryWithDefault
  3
ObjectDBX Classes
 90
        0
 91
        1
280
     0
281
     0
  0
CLASS
  1
VISUALSTYLE
  2
AcDbVisualStyle
  3
ObjectDBX Classes
 90
     4095
 91
       26
280
     0
281
     0
  0
CLASS
  1
MATERIAL
  2
AcDbMaterial
  3
ObjectDBX Classes
 90
     1153
 91
        3
280
     0
281
     0
  0
CLASS
  1
SCALE
  2
AcDbScale
  3
ObjectDBX Classes
 90
     1153
 91
       33
280
     0
281
     0
  0
CLASS
  1
SUN
  2
AcDbSun
  3
SCENEOE
 90
     1153
 91
        1
280
     0
281
     0
  0
CLASS
  1
DICTIONARYVAR
  2
AcDbDictionaryVar
  3
ObjectDBX Classes
 90
        0
 91
        9
280
     0
281
     0
  0
CLASS
  1
TABLESTYLE
  2
AcDbTableStyle
  3
ObjectDBX Classes
 90
     4095
 91
        1
280
     0
281
     0
  0
CLASS
  1
MLEADERSTYLE
  2
AcDbMLeaderStyle
  3
ACDB_MLEADERSTYLE_CLASS
 90
     4095
 91
        1
280
     0
281
     0
  0
CLASS
  1
ACDBSECTIONVIEWSTYLE
  2
AcDbSectionViewStyle
  3
ObjectDBX Classes
 90
     1025
 91
        1
280
     0
281
     0
  0
CLASS
  1
ACDBDETAILVIEWSTYLE
  2
AcDbDetailViewStyle
  3
ObjectDBX Classes
 90
     1025
 91
        1
280
     0
281
     0
  0
CLASS
  1
SOLID_BACKGROUND
  2
AcDbSolidBackground
  3
SCENEOE
 90
     4095
 91
        0
280
     0
281
     0
  0
CLASS
  1
NPOCOLLECTION
  2
AcDbImpNonPersistentObjectsCollection
  3
ObjectDBX Classes
 90
     1153
 91
        0
280
     0
281
     0
  0
CLASS
  1
SORTENTSTABLE
  2
AcDbSortentsTable
  3
ObjectDBX Classes
 90
        0
 91
        2
280
     0
281
     0
  0
CLASS
  1
CELLSTYLEMAP
  2
AcDbCellStyleMap
  3
ObjectDBX Classes
 90
     1152
 91
        1
280
     0
281
     0
  0
ENDSEC
  0
SECTION
  2
TABLES
  0
TABLE
  2
VPORT
  5
8
102
{ACAD_XDICTIONARY
360
5CB0A
102
}
330
0
100
AcDbSymbolTable
 70
     1
  0
VPORT
  5
29
330
8
100
AcDbSymbolTableRecord
100
AcDbViewportTableRecord
  2
*Active
 70
     0
 10
0.0
 20
0.0
 11
1.0
 21
1.0
 12
-889.1384299760948
 22
632.4747341299585
 13
0.0
 23
0.0
 14
0.5
 24
0.5
 15
0.5
 25
0.5
 16
-0.0000000000043201
 26
0.0
 36
19929.59960475513
 17
1262.807628225233
 27
-495.6308497619941
 37
354.6715087890622
 40
4140.50100956362
 41
2.472938144329897
 42
50.0
 43
0.0
 44
0.0
 50
0.0
 51
0.0
 71
     0
 72
   100
 73
     1
 74
     3
 75
     0
 76
     0
 77
     0
 78
     0
281
     0
 65
     1
110
0.0
120
0.0
130
0.0
111
1.0
121
0.0
131
0.0
112
0.0
122
1.0
132
0.0
 79
     0
146
0.0
348
2F
 60
     3
 61
     5
292
     1
282
     1
141
0.0
142
0.0
 63
   250
421
  3355443
361
69
1001
ACAD_NAV_VCDISPLAY
1070
     3
  0
ENDTAB
  0
TABLE
  2
LTYPE
  5
5
330
0
100
AcDbSymbolTable
 70
     1
  0
LTYPE
  5
14
330
5
100
AcDbSymbolTableRecord
100
AcDbLinetypeTableRecord
  2
ByBlock
 70
     0
  3

 72
    65
 73
     0
 40
0.0
  0
LTYPE
  5
15
330
5
100
AcDbSymbolTableRecord
100
AcDbLinetypeTableRecord
  2
ByLayer
 70
     0
  3

 72
    65
 73
     0
 40
0.0
  0
LTYPE
  5
16
330
5
100
AcDbSymbolTableRecord
100
AcDbLinetypeTableRecord
  2
Continuous
 70
     0
  3
Solid line
 72
    65
 73
     0
 40
0.0
  0
ENDTAB
  0
TABLE
  2
LAYER
  5
2
102
{ACAD_XDICTIONARY
360
5CB5A
102
}
330
0
100
AcDbSymbolTable
 70
     4
  0
LAYER
  5
10
102
{ACAD_XDICTIONARY
360
5CB53
102
}
330
2
100
AcDbSymbolTableRecord
100
AcDbLayerTableRecord
  2
0
 70
     0
 62
     7
  6
Continuous
370
    -3
390
F
347
46
348
0
  0
LAYER
  5
6A
102
{ACAD_XDICTIONARY
360
5CB55
102
}
330
2
100
AcDbSymbolTableRecord
100
AcDbLayerTableRecord
  2
Default
 70
     0
 62
     7
  6
Continuous
370
    -3
390
F
347
46
348
0
  0
ENDTAB
  0
TABLE
  2
STYLE
  5
3
330
0
100
AcDbSymbolTable
 70
     1
  0
STYLE
  5
11
330
3
100
AcDbSymbolTableRecord
100
AcDbTextStyleTableRecord
  2
Standard
 70
     0
 40
0.0
 41
1.0
 50
0.0
 71
     0
 42
0.2
  3
txt
  4

  0
ENDTAB
  0
TABLE
  2
VIEW
  5
6
330
0
100
AcDbSymbolTable
 70
     1
  0
ENDTAB
  0
TABLE
  2
UCS
  5
7
330
0
100
AcDbSymbolTable
 70
     0
  0
ENDTAB
  0
TABLE
  2
APPID
  5
9
330
0
100
AcDbSymbolTable
 70
     3
  0
APPID
  5
12
330
9
100
AcDbSymbolTableRecord
100
AcDbRegAppTableRecord
  2
ACAD
 70
     0
  0
APPID
  5
5CB60
330
9
100
AcDbSymbolTableRecord
100
AcDbRegAppTableRecord
  2
ACAD_NAV_VCDISPLAY
 70
     0
  0
APPID
  5
5CD81
330
9
100
AcDbSymbolTableRecord
100
AcDbRegAppTableRecord
  2
ACAD_EXEMPT_FROM_CAD_STANDARDS
 70
     0
  0
ENDTAB
  0
TABLE
  2
DIMSTYLE
  5
A
330
0
100
AcDbSymbolTable
 70
     1
100
AcDbDimStyleTable
 71
     1
340
27
  0
DIMSTYLE
105
27
330
A
100
AcDbSymbolTableRecord
100
AcDbDimStyleTableRecord
  2
Standard
 70
     0
340
11
  0
ENDTAB
  0
TABLE
  2
BLOCK_RECORD
  5
1
330
0
100
AcDbSymbolTable
 70
     1
  0
BLOCK_RECORD
  5
1F
102
{ACAD_XDICTIONARY
360
5CCE0
102
}
330
1
100
AcDbSymbolTableRecord
100
AcDbBlockTableRecord
  2
*Model_Space
340
22
 70
     0
280
     1
281
     0
  0
BLOCK_RECORD
  5
1B
330
1
100
AcDbSymbolTableRecord
100
AcDbBlockTableRecord
  2
*Paper_Space
340
1E
 70
     0
280
     1
281
     0
  0
BLOCK_RECORD
  5
23
330
1
100
AcDbSymbolTableRecord
100
AcDbBlockTableRecord
  2
*Paper_Space0
340
26
 70
     0
280
     1
281
     0
  0
ENDTAB
  0
ENDSEC
  0
SECTION
  2
BLOCKS
  0
BLOCK
  5
20
330
1F
100
AcDbEntity
  8
0
100
AcDbBlockBegin
  2
*Model_Space
 70
     0
 10
0.0
 20
0.0
 30
0.0
  3
*Model_Space
  1

  0
ENDBLK
  5
21
330
1F
100
AcDbEntity
  8
0
100
AcDbBlockEnd
  0
BLOCK
  5
1C
330
1B
100
AcDbEntity
 67
     1
  8
0
100
AcDbBlockBegin
  2
*Paper_Space
 70
     0
 10
0.0
 20
0.0
 30
0.0
  3
*Paper_Space
  1

  0
ENDBLK
  5
1D
330
1B
100
AcDbEntity
 67
     1
  8
0
100
AcDbBlockEnd
  0
BLOCK
  5
24
330
23
100
AcDbEntity
 67
     1
  8
0
100
AcDbBlockBegin
  2
*Paper_Space0
 70
     0
 10
0.0
 20
0.0
 30
0.0
  3
*Paper_Space0
  1

  0
ENDBLK
  5
25
330
23
100
AcDbEntity
 67
     1
  8
0
100
AcDbBlockEnd
  0
ENDSEC
  0
SECTION
  2
ENTITIES
  0
SPLINE
  5
5CE41
330
1F
100
AcDbEntity
  8
Default
100
AcDbSpline
210
0.0
220
0.0
230
1.0
 70
    24
 71
     2
 72
     6
 73
     3
 74
     0
 42
0.000000001
 43
0.0000000001
 40
0.0
 40
0.0
 40
0.0
 40
0.071889705667429
 40
0.071889705667429
 40
0.071889705667429
 10
206.4999552322929
 20
1259.87418204749
 30
377.9346008300781
 10
207.4129544942711
 20
1259.87418204749
 30
377.9346008300781
 10
208.3259537562494
 20
1259.87418204749
 30
377.9346008300781
  0
SPLINE
  5
5CE42
330
1F
100
AcDbEntity
  8
Default
100
AcDbSpline
210
0.0
220
0.0
230
1.0
 70
    24
 71
     2
 72
     6
 73
     3
 74
     0
 42
0.000000001
 43
0.0000000001
 40
0.0
 40
0.0
 40
0.0
 40
0.071889705667429
 40
0.071889705667429
 40
0.071889705667429
 10
-206.393995591438
 20
1259.87418204749
 30
377.9346008300781
 10
-207.3069948534162
 20
1259.87418204749
 30
377.9346008300781
 10
-208.2199941153945
 20
1259.87418204749
 30
377.9346008300781
  0
SPLINE
  5
5CE43
330
1F
100
AcDbEntity
  8
Default
100
AcDbSpline
210
0.0
220
0.0
230
1.0
 70
    24
 71
     2
 72
     6
 73
     3
 74
     0
 42
0.000000001
 43
0.0000000001
 40
0.0
 40
0.0
 40
0.0
 40
0.0653749093108864
 40
0.0653749093108864
 40
0.0653749093108864
 10
-11.70722017957314
 20
639.0680528606044
 30
377.9346008300781
 10
-10.87695883132846
 20
639.0680528606044
 30
377.9346008300781
 10
-10.04669748307651
 20
639.0680528606044
 30
377.9346008300781
  0
SPLINE
  5
5CE44
330
1F
100
AcDbEntity
  8
Default
100
AcDbSpline
210
0.0
220
0.0
230
1.0
 70
    24
 71
     2
 72
     6
 73
     3
 74
     0
 42
0.000000001
 43
0.0000000001
 40
0.0
 40
0.0
 40
0.0
 40
0.0653749093108864
 40
0.0653749093108864
 40
0.0653749093108864
 10
11.8131798204281
 20
639.0680528606044
 30
377.9346008300781
 10
10.98291847217615
 20
639.0680528606044
 30
377.9346008300781
 10
10.15265712393147
 20
639.0680528606044
 30
377.9346008300781
  0
SPLINE
  5
5CE45
330
1F
100
AcDbEntity
  8
Default
100
AcDbSpline
210
-0.0000000000000057
220
0.0000000000000056
230
1.0
 70
    12
 71
     2
 72
     6
 73
     3
 74
     0
 42
0.000000001
 43
0.0000000001
 40
0.0
 40
0.0
 40
0.0
 40
0.6213186892081751
 40
0.6213186892081751
 40
0.6213186892081751
 10
10.02169491692029
 20
627.9631968074227
 30
377.9346008300781
 41
1.0
 10
10.09157619337384
 20
617.924427817903
 30
377.9346008300782
 41
0.7078628796196968
 10
0.0529797103386045
 20
617.8330666200454
 30
377.9346008300781
 41
1.0
  0
SPLINE
  5
5CE46
330
1F
100
AcDbEntity
  8
Default
100
AcDbSpline
210
-0.0000000000000057
220
-0.0000000000000056
230
1.0
 70
    12
 71
     2
 72
     6
 73
     3
 74
     0
 42
0.000000001
 43
0.0000000001
 40
0.0
 40
0.0
 40
0.0
 40
0.6213184385489916
 40
0.6213184385489916
 40
0.6213184385489916
 10
0.0529797103386045
 20
617.8330666200454
 30
377.9346008300781
 41
1.0
 10
-9.985602094055593
 20
617.9244422817028
 30
377.9346008300781
 41
0.7078638982414072
 10
-9.915735276065333
 20
627.9631968251123
 30
377.9346008300781
 41
1.0
  0
SPLINE
  5
5CE47
330
1F
100
AcDbEntity
  8
Default
100
AcDbSpline
210
0.0
220
0.0
230
1.0
 70
    24
 71
     2
 72
     6
 73
     3
 74
     0
 42
0.000000001
 43
0.0000000001
 40
0.0
 40
0.0
 40
0.0
 40
0.0653749093108864
 40
0.0653749093108864
 40
0.0653749093108864
 10
208.3259537562494
 20
1243.872182047489
 30
377.9346008300781
 10
207.4956924079975
 20
1243.872182047489
 30
377.9346008300781
 10
206.6654310597528
 20
1243.872182047489
 30
377.9346008300781
  0
SPLINE
  5
5CE48
330
1F
100
AcDbEntity
  8
Default
100
AcDbSpline
210
0.0
220
0.0
230
1.0
 70
    24
 71
     2
 72
     6
 73
     3
 74
     0
 42
0.000000001
 43
0.0000000001
 40
0.0
 40
0.0
 40
0.0
 40
0.071889705667429
 40
0.071889705667429
 40
0.071889705667429
 10
186.6315522801974
 20
1259.87418204749
 30
377.9346008300781
 10
185.7185530182264
 20
1259.87418204749
 30
377.9346008300781
 10
184.8055537562482
 20
1259.87418204749
 30
377.9346008300781
  0
SPLINE
  5
5CE49
330
1F
100
AcDbEntity
  8
Default
100
AcDbSpline
210
0.0
220
0.0
230
1.0
 70
    24
 71
     2
 72
     6
 73
     3
 74
     0
 42
0.000000001
 43
0.0000000001
 40
0.0
 40
0.0
 40
0.0
 40
0.0653749093108864
 40
0.0653749093108864
 40
0.0653749093108864
 10
184.8055537562482
 20
1243.872182047489
 30
377.9346008300781
 10
185.6358151045001
 20
1243.872182047489
 30
377.9346008300781
 10
186.4660764527448
 20
1243.872182047489
 30
377.9346008300781
  0
SPLINE
  5
5CE4A
330
1F
100
AcDbEntity
  8
Default
100
AcDbSpline
210
0.0
220
0.0
230
1.0
 70
    24
 71
     2
 72
     6
 73
     3
 74
     0
 42
0.000000001
 43
0.0000000001
 40
0.0
 40
0.0
 40
0.0
 40
0.071889705667429
 40
0.071889705667429
 40
0.071889705667429
 10
-186.5255926393497
 20
1259.87418204749
 30
377.9346008300781
 10
-185.6125933773642
 20
1259.87418204749
 30
377.9346008300781
 10
-184.6995941153932
 20
1259.87418204749
 30
377.9346008300781
  0
SPLINE
  5
5CE4B
330
1F
100
AcDbEntity
  8
Default
100
AcDbSpline
210
0.0
220
0.0
230
1.0
 70
    24
 71
     2
 72
     6
 73
     3
 74
     0
 42
0.000000001
 43
0.0000000001
 40
0.0
 40
0.0
 40
0.0
 40
0.0653749093108864
 40
0.0653749093108864
 40
0.0653749093108864
 10
-208.2199941153945
 20
1243.872182047489
 30
377.9346008300781
 10
-207.3897327671425
 20
1243.872182047489
 30
377.9346008300781
 10
-206.5594714188978
 20
1243.872182047489
 30
377.9346008300781
  0
SPLINE
  5
5CE4C
330
1F
100
AcDbEntity
  8
Default
100
AcDbSpline
210
0.0
220
0.0
230
1.0
 70
    24
 71
     2
 72
     6
 73
     3
 74
     0
 42
0.000000001
 43
0.0000000001
 40
0.0
 40
0.0
 40
0.0
 40
0.0653749093108864
 40
0.0653749093108864
 40
0.0653749093108864
 10
-184.6995941153932
 20
1243.872182047489
 30
377.9346008300781
 10
-185.5298554636379
 20
1243.872182047489
 30
377.9346008300781
 10
-186.3601168118898
 20
1243.872182047489
 30
377.9346008300781
  0
SPLINE
  5
5CE4D
330
1F
100
AcDbEntity
  8
Default
100
AcDbSpline
210
0.0
220
0.0
230
1.0
 70
     8
 71
     3
 72
    12
 73
     8
 74
     0
 42
0.000000001
 43
0.0000000001
 40
0.0
 40
0.0
 40
0.0
 40
0.0
 40
1.91838585290454
 40
3.787697327406727
 40
7.628973434916602
 40
11.46360448765835
 40
15.3782305416976
 40
15.3782305416976
 40
15.3782305416976
 40
15.3782305416976
 10
0.0529048843322926
 20
1153.57368558171
 30
377.9346008300781
 10
16.2946265864316
 20
1153.58817378819
 30
377.9346008300781
 10
48.36754481845265
 20
1150.469331442891
 30
377.9346008300781
 10
110.5719567074716
 20
1132.03021413538
 30
377.9346008300781
 10
179.0724834569205
 20
1085.894505864662
 30
377.9346008300781
 10
232.7851542463991
 20
1001.385828343726
 30
377.9346008300781
 10
244.5174836904057
 20
935.6314351328528
 30
377.9346008300781
 10
244.5276232740375
 20
902.4910138389058
 30
377.9346008300781
  0
SPLINE
  5
5CE4E
330
1F
100
AcDbEntity
  8
Default
100
AcDbSpline
210
0.0
220
0.0
230
1.0
 70
     8
 71
     3
 72
    12
 73
     8
 74
     0
 42
0.000000001
 43
0.0000000001
 40
-14.91612104830391
 40
-14.91612104830391
 40
-14.91612104830391
 40
-14.91612104830391
 40
-11.23173116836975
 40
-7.52134715466137
 40
-3.77515601886866
 40
-1.889436739208308
 40
0.0
 40
0.0
 40
0.0
 40
0.0
 10
244.5276232740375
 20
902.4910138389058
 30
377.9346008300781
 10
244.5350057959381
 20
871.2820336013246
 30
377.9346008300781
 10
231.6707299035129
 20
808.6878218822349
 30
377.9346008300781
 10
177.0416158749663
 20
729.4930463777873
 30
377.9346008300781
 10
109.3794542395421
 20
685.6911200458726
 30
377.9346008300781
 10
48.01305409281622
 20
667.6431257986332
 30
377.9346008300781
 10
16.0492704672738
 20
664.556916550724
 30
377.9346008300781
 10
0.0529995918491295
 20
664.5553988951396
 30
377.9346008300781
  0
SPLINE
  5
5CE4F
330
1F
100
AcDbEntity
  8
Default
100
AcDbSpline
210
0.0
220
0.0
230
1.0
 70
     8
 71
     3
 72
    12
 73
     8
 74
     0
 42
0.000000001
 43
0.0000000001
 40
-14.91612102967629
 40
-14.91612102967629
 40
-14.91612102967629
 40
-14.91612102967629
 40
-11.14156523886652
 40
-7.393161344914191
 40
-3.681958122248531
 40
-1.83908820525715
 40
0.0
 40
0.0
 40
0.0
 40
0.0
 10
0.0529995918491295
 20
664.5553988951396
 30
377.9346008300781
 10
-31.90467257211867
 20
664.5603423787033
 30
377.9346008300781
 10
-95.59747692398241
 20
676.8316469934307
 30
377.9346008300781
 10
-176.9616911423859
 20
729.5122820085907
 30
377.9346008300781
 10
-222.5600194674321
 20
795.6433835364751
 30
377.9346008300781
 10
-241.2340685232471
 20
855.7407123506909
 30
377.9346008300781
 10
-244.4225745318822
 20
886.896958687279
 30
377.9346008300781
 10
-244.4216963583735
 20
902.495216471234
 30
377.9346008300781
  0
SPLINE
  5
5CE50
330
1F
100
AcDbEntity
  8
Default
100
AcDbSpline
210
0.0
220
0.0
230
1.0
 70
     8
 71
     3
 72
    12
 73
     8
 74
     0
 42
0.000000001
 43
0.0000000001
 40
0.0
 40
0.0
 40
0.0
 40
0.0
 40
1.968953222664886
 40
3.918858638804648
 40
7.748286961365543
 40
11.50259787367827
 40
15.37794659634141
 40
15.37794659634141
 40
15.37794659634141
 40
15.37794659634141
 10
-244.4216963583735
 20
902.495216471234
 30
377.9346008300781
 10
-244.4301393539704
 20
919.1845496616297
 30
377.9346008300781
 10
-241.4184353780352
 20
952.3778738077089
 30
377.9346008300781
 10
-223.5544633115992
 20
1015.775275800784
 30
377.9346008300781
 10
-179.3389475386925
 20
1085.27402055723
 30
377.9346008300781
 10
-97.44645702878779
 20
1140.983697117817
 30
377.9346008300781
 10
-32.73866550444518
 20
1153.575901510112
 30
377.9346008300781
 10
0.0529048843322926
 20
1153.57368558171
 30
377.9346008300781
  0
SPLINE
  5
5CE51
330
1F
100
AcDbEntity
  8
Default
100
AcDbSpline
210
0.0
220
0.0
230
1.0
 70
     8
 71
     3
 72
    12
 73
     8
 74
     0
 42
0.000000001
 43
0.0000000001
 40
0.0
 40
0.0
 40
0.0
 40
0.0
 40
2.315241172828345
 40
4.66252058763445
 40
9.309249842901856
 40
13.89761326846572
 40
18.23362376580278
 40
18.23362376580278
 40
18.23362376580278
 40
18.23362376580278
 10
0.0529798204238432
 20
1270.066806736502
 30
377.9346008300781
 10
-19.56162618780808
 20
1270.260711238501
 30
377.9346008300781
 10
-59.04454559765008
 20
1267.723447393671
 30
377.9346008300781
 10
-136.4421633797742
 20
1251.793113657071
 30
377.9346008300781
 10
-227.1509477731511
 20
1212.088192737827
 30
377.9346008300781
 10
-316.2066775760309
 20
1137.530118514196
 30
377.9346008300781
 10
-357.6256470866197
 20
1073.228135252968
 30
377.9346008300781
 10
-371.7434024590607
 20
1039.301909510324
 30
377.9346008300781
  0
SPLINE
  5
5CE52
330
1F
100
AcDbEntity
  8
Default
100
AcDbSpline
210
0.0
220
0.0
230
1.0
 70
     8
 71
     3
 72
    12
 73
     8
 74
     0
 42
0.000000001
 43
0.0000000001
 40
-5.0
 40
-5.0
 40
-5.0
 40
-5.0
 40
-4.0
 40
-3.0
 40
-2.0
 40
-1.0
 40
0.0
 40
0.0
 40
0.0
 40
0.0
 10
-371.7434024590607
 20
1039.301909510324
 30
377.9346008300781
 10
-374.6261817510736
 20
1032.367760600853
 30
377.9346008300781
 10
-379.7701426335466
 20
1018.241853194531
 30
377.9346008300781
 10
-385.4121080775426
 20
996.3964049692348
 30
377.9346008300781
 10
-388.2779672000456
 20
973.9951800277777
 30
377.9346008300781
 10
-387.0614272481967
 20
951.3482885424656
 30
377.9346008300781
 10
-382.189408464385
 20
936.9688782393678
 30
377.9346008300781
 10
-378.6971865179207
 20
930.3177554768954
 30
377.9346008300781
  0
SPLINE
  5
5CE53
330
1F
100
AcDbEntity
  8
Default
100
AcDbSpline
210
0.0
220
0.0
230
1.0
 70
     8
 71
     3
 72
    24
 73
    20
 74
     0
 42
0.000000001
 43
0.0000000001
 40
0.0
 40
0.0
 40
0.0
 40
0.0
 40
1.0
 40
2.0
 40
3.0
 40
4.0
 40
5.0
 40
6.0
 40
7.0
 40
8.0
 40
9.0
 40
10.0
 40
11.0
 40
12.0
 40
13.0
 40
14.0
 40
15.0
 40
16.0
 40
17.0
 40
17.0
 40
17.0
 40
17.0
 10
-378.6971865179207
 20
930.3177554768954
 30
377.9346008300781
 10
-374.3244397571966
 20
921.9654110064821
 30
377.9346008300781
 10
-364.0804994455598
 20
906.118789563845
 30
377.9346008300781
 10
-347.0183186937561
 20
883.5654328498913
 30
377.9346008300781
 10
-328.4856407689499
 20
862.2151475296851
 30
377.9346008300781
 10
-309.8937502097092
 20
840.9280759715384
 30
377.9346008300781
 10
-291.186392622853
 20
819.7376845960388
 30
377.9346008300781
 10
-271.9221027905646
 20
799.0502175169349
 30
377.9346008300781
 10
-252.0382715707297
 20
778.9575754518501
 30
377.9346008300781
 10
-231.7529499955404
 20
759.2767799050034
 30
377.9346008300781
 10
-211.811150998305
 20
739.2323990727327
 30
377.9346008300781
 10
-190.4805328230855
 20
720.6582554725355
 30
377.9346008300781
 10
-167.8127462739853
 20
703.7370648546693
 30
377.9346008300781
 10
-143.7997115487583
 20
688.7780154044667
 30
377.9346008300781
 10
-118.5655926615786
 20
675.9797154855496
 30
377.9346008300781
 10
-92.23180166169777
 20
665.6185921456308
 30
377.9346008300781
 10
-64.99648089841366
 20
657.9290199020997
 30
377.9346008300781
 10
-37.13973044493332
 20
652.946010939464
 30
377.9346008300781
 10
-9.368709801483873
 20
651.2072632557665
 30
377.9346008300781
 10
0.0529798204238432
 20
651.2072632557665
 30
377.9346008300781
  0
SPLINE
  5
5CE54
330
1F
100
AcDbEntity
  8
Default
100
AcDbSpline
210
0.0
220
0.0
230
1.0
 70
     8
 71
     3
 72
    24
 73
    20
 74
     0
 42
0.000000001
 43
0.0000000001
 40
-17.0
 40
-17.0
 40
-17.0
 40
-17.0
 40
-16.0
 40
-15.0
 40
-14.0
 40
-13.0
 40
-12.0
 40
-11.0
 40
-10.0
 40
-9.0
 40
-8.0
 40
-7.0
 40
-6.0
 40
-5.0
 40
-4.0
 40
-3.0
 40
-2.0
 40
-1.0
 40
0.0
 40
0.0
 40
0.0
 40
0.0
 10
0.0529798204238432
 20
651.2072632557665
 30
377.9346008300781
 10
9.474669442346112
 20
651.2072632557665
 30
377.9346008300781
 10
37.24569008578828
 20
652.946010939464
 30
377.9346008300781
 10
65.10244053926863
 20
657.9290199020997
 30
377.9346008300781
 10
92.33776130254545
 20
665.6185921456308
 30
377.9346008300781
 10
118.6715523024263
 20
675.9797154855496
 30
377.9346008300781
 10
143.9056711896132
 20
688.7780154044667
 30
377.9346008300781
 10
167.918705914833
 20
703.7370648546693
 30
377.9346008300781
 10
190.5864924639404
 20
720.6582554725355
 30
377.9346008300781
 10
211.9171106391527
 20
739.2323990727327
 30
377.9346008300781
 10
231.8589096363953
 20
759.2767799050034
 30
377.9346008300781
 10
252.1442312115773
 20
778.9575754518501
 30
377.9346008300781
 10
272.0280624314196
 20
799.0502175169349
 30
377.9346008300781
 10
291.2923522637079
 20
819.7376845960388
 30
377.9346008300781
 10
309.9997098505714
 20
840.9280759715384
 30
377.9346008300781
 10
328.5916004098049
 20
862.2151475296851
 30
377.9346008300781
 10
347.1242783346111
 20
883.5654328498913
 30
377.9346008300781
 10
364.1864590864147
 20
906.118789563845
 30
377.9346008300781
 10
374.4303993980516
 20
921.9654110064821
 30
377.9346008300781
 10
378.8031461587757
 20
930.3177554768954
 30
377.9346008300781
  0
SPLINE
  5
5CE55
330
1F
100
AcDbEntity
  8
Default
100
AcDbSpline
210
0.0
220
0.0
230
1.0
 70
     8
 71
     3
 72
    12
 73
     8
 74
     0
 42
0.000000001
 43
0.0000000001
 40
0.0
 40
0.0
 40
0.0
 40
0.0
 40
1.0
 40
2.0
 40
3.0
 40
4.0
 40
5.0
 40
5.0
 40
5.0
 40
5.0
 10
378.8031461587757
 20
930.3177554768954
 30
377.9346008300781
 10
382.29536810524
 20
936.9688782393678
 30
377.9346008300781
 10
387.1673868890516
 20
951.3482885424656
 30
377.9346008300781
 10
388.3839268409006
 20
973.9951800277777
 30
377.9346008300781
 10
385.5180677183976
 20
996.3964049692348
 30
377.9346008300781
 10
379.8761022743943
 20
1018.241853194531
 30
377.9346008300781
 10
374.7321413919285
 20
1032.367760600853
 30
377.9346008300781
 10
371.8493620999229
 20
1039.301909510324
 30
377.9346008300781
  0
SPLINE
  5
5CE56
330
1F
100
AcDbEntity
  8
Default
100
AcDbSpline
210
0.0
220
0.0
230
1.0
 70
     8
 71
     3
 72
    12
 73
     8
 74
     0
 42
0.000000001
 43
0.0000000001
 40
-18.23362376580278
 40
-18.23362376580278
 40
-18.23362376580278
 40
-18.23362376580278
 40
-13.89761326846572
 40
-9.309249842901856
 40
-4.66252058763445
 40
-2.315241172828345
 40
0.0
 40
0.0
 40
0.0
 40
0.0
 10
371.8493620999229
 20
1039.301909510324
 30
377.9346008300781
 10
357.7316067274746
 20
1073.228135252968
 30
377.9346008300781
 10
316.3126372168786
 20
1137.530118514196
 30
377.9346008300781
 10
227.2569074140133
 20
1212.088192737827
 30
377.9346008300781
 10
136.5481230206292
 20
1251.793113657071
 30
377.9346008300781
 10
59.15050523851232
 20
1267.723447393671
 30
377.9346008300781
 10
19.66758582866305
 20
1270.260711238501
 30
377.9346008300781
 10
0.0529798204238432
 20
1270.066806736502
 30
377.9346008300781
  0
SPLINE
  5
5CE57
330
1F
100
AcDbEntity
  8
Default
100
AcDbSpline
210
0.0
220
0.0
230
1.0
 70
     8
 71
     3
 72
    19
 73
    15
 74
     0
 42
0.000000001
 43
0.0000000001
 40
-12.0
 40
-12.0
 40
-12.0
 40
-12.0
 40
-11.0
 40
-10.0
 40
-9.0
 40
-8.0
 40
-7.0
 40
-6.0
 40
-5.0
 40
-4.0
 40
-3.0
 40
-2.0
 40
-1.0
 40
0.0
 40
0.0
 40
0.0
 40
0.0
 10
216.9095457616945
 20
744.1847211586664
 30
377.9346008300781
 10
233.7376524555379
 20
760.5969897668765
 30
377.9346008300781
 10
268.095614031919
 20
792.4966221694648
 30
377.9346008300781
 10
319.5103879550238
 20
841.1745199803409
 30
377.9346008300781
 10
363.3797366836675
 20
895.3546736906664
 30
377.9346008300781
 10
404.8843635442621
 20
956.2832860169528
 30
377.9346008300781
 10
390.4729703151256
 20
1029.263038745694
 30
377.9346008300781
 10
359.5737819101719
 20
1092.187980056171
 30
377.9346008300781
 10
316.3898216552566
 20
1148.517598695358
 30
377.9346008300781
 10
263.8152634284138
 20
1195.772154055545
 30
377.9346008300781
 10
204.0766291887062
 20
1233.60854900951
 30
377.9346008300781
 10
139.0728604981354
 20
1261.373342565968
 30
377.9346008300781
 10
70.51034877953634
 20
1278.582686963755
 30
377.9346008300781
 10
23.54509051020568
 20
1282.57712394947
 30
377.9346008300781
 10
0.0529798204238432
 20
1282.58135745411
 30
377.9346008300781
  0
SPLINE
  5
5CE58
330
1F
100
AcDbEntity
  8
Default
100
AcDbSpline
210
0.0
220
0.0
230
1.0
 70
     8
 71
     3
 72
    19
 73
    15
 74
     0
 42
0.000000001
 43
0.0000000001
 40
0.0
 40
0.0
 40
0.0
 40
0.0
 40
1.0
 40
2.0
 40
3.0
 40
4.0
 40
5.0
 40
6.0
 40
7.0
 40
8.0
 40
9.0
 40
10.0
 40
11.0
 40
12.0
 40
12.0
 40
12.0
 40
12.0
 10
0.0529798204238432
 20
1282.58135745411
 30
377.9346008300781
 10
-23.43913086935072
 20
1282.57712394947
 30
377.9346008300781
 10
-70.40438913867411
 20
1278.582686963755
 30
377.9346008300781
 10
-138.9669008572805
 20
1261.373342565968
 30
377.9346008300781
 10
-203.9706695478585
 20
1233.60854900951
 30
377.9346008300781
 10
-263.7093037875516
 20
1195.772154055545
 30
377.9346008300781
 10
-316.2838620144016
 20
1148.517598695358
 30
377.9346008300781
 10
-359.4678222693169
 20
1092.187980056171
 30
377.9346008300781
 10
-390.3670106742707
 20
1029.263038745694
 30
377.9346008300781
 10
-404.7784039034072
 20
956.2832860169528
 30
377.9346008300781
 10
-363.2737770428125
 20
895.3546736906664
 30
377.9346008300781
 10
-319.4044283141616
 20
841.1745199803409
 30
377.9346008300781
 10
-267.989654391064
 20
792.4966221694648
 30
377.9346008300781
 10
-233.631692814683
 20
760.5969897668765
 30
377.9346008300781
 10
-216.8035861208395
 20
744.1847211586664
 30
377.9346008300781
  0
ARC
  5
5CE59
330
1F
100
AcDbEntity
  8
Default
100
AcDbCircle
 10
-399.1790803220488
 20
1514.444687571582
 30
377.9346008300781
 40
963.8493256671051
100
AcDbArc
 50
307.4872399680688
 51
311.9163693614852
  0
SPLINE
  5
5CE5A
330
1F
100
AcDbEntity
  8
Default
100
AcDbSpline
210
0.0
220
0.0
230
1.0
 70
     8
 71
     3
 72
    19
 73
    15
 74
     0
 42
0.000000001
 43
0.0000000001
 40
0.0000000000000001
 40
0.0000000000000001
 40
0.0000000000000001
 40
0.0000000000000001
 40
1.0
 40
2.0
 40
3.0
 40
4.0
 40
5.0
 40
6.0
 40
7.0
 40
8.0
 40
9.0
 40
10.0
 40
11.0
 40
12.0
 40
12.0
 40
12.0
 40
12.0
 10
244.7158134939978
 20
797.2244366677514
 30
377.9346008300781
 10
250.6453817684755
 20
802.5477926796048
 30
377.9346008300781
 10
262.4046842450202
 20
813.3056707004106
 30
377.9346008300781
 10
279.6462517083796
 20
829.8694337355646
 30
377.9346008300781
 10
296.269521757627
 20
847.0541914927107
 30
377.9346008300781
 10
312.4295972578416
 20
864.671852083873
 30
377.9346008300781
 10
328.5313556704873
 20
882.3385188380743
 30
377.9346008300781
 10
343.8434489381484
 20
900.7296286787314
 30
377.9346008300781
 10
357.7179892453291
 20
920.1579243452888
 30
377.9346008300781
 10
370.0399091305749
 20
940.8864284774608
 30
377.9346008300781
 10
374.8542208407102
 20
964.5977387771964
 30
377.9346008300781
 10
374.1893511891626
 20
988.5878976720887
 30
377.9346008300781
 10
369.4714332189774
 20
1012.09365791144
 30
377.9346008300781
 10
364.3025637101541
 20
1027.198977460352
 30
377.9346008300781
 10
361.3176032972419
 20
1034.586686282246
 30
377.9346008300781
  0
ARC
  5
5CE5B
330
1F
100
AcDbEntity
  8
Default
100
AcDbCircle
 10
399.2848900907134
 20
1514.444687571582
 30
377.9346008300781
 40
963.8493256671051
100
AcDbArc
 50
228.0836306385149
 51
232.5127600319311
  0
SPLINE
  5
5CE5C
330
1F
100
AcDbEntity
  8
Default
100
AcDbSpline
210
0.0
220
0.0
230
1.0
 70
     8
 71
     3
 72
    19
 73
    15
 74
     0
 42
0.000000001
 43
0.0000000001
 40
0.0000000000000001
 40
0.0000000000000001
 40
0.0000000000000001
 40
0.0000000000000001
 40
1.0
 40
2.0
 40
3.0
 40
4.0
 40
5.0
 40
6.0
 40
7.0
 40
8.0
 40
9.0
 40
10.0
 40
11.0
 40
12.0
 40
12.0
 40
12.0
 40
12.0
 10
-244.6100037253332
 20
797.2244366677514
 30
377.9346008300781
 10
-250.539571999811
 20
802.5477926796048
 30
377.9346008300781
 10
-262.2988744763629
 20
813.3056707004106
 30
377.9346008300781
 10
-279.540441939715
 20
829.8694337355646
 30
377.9346008300781
 10
-296.1637119889624
 20
847.0541914927107
 30
377.9346008300781
 10
-312.323787489177
 20
864.671852083873
 30
377.9346008300781
 10
-328.4255459018227
 20
882.3385188380743
 30
377.9346008300781
 10
-343.7376391694838
 20
900.7296286787314
 30
377.9346008300781
 10
-357.6121794766573
 20
920.1579243452888
 30
377.9346008300781
 10
-369.9340993619103
 20
940.8864284774608
 30
377.9346008300781
 10
-374.7484110720457
 20
964.5977387771964
 30
377.9346008300781
 10
-374.083541420498
 20
988.5878976720887
 30
377.9346008300781
 10
-369.3656234503055
 20
1012.09365791144
 30
377.9346008300781
 10
-364.1967539414896
 20
1027.198977460352
 30
377.9346008300781
 10
-361.2117935285774
 20
1034.586686282246
 30
377.9346008300781
  0
POLYLINE
  5
5CE5D
330
1F
100
AcDbEntity
  8
Default
100
AcDb2dPolyline
 66
     1
 10
0.0
 20
0.0
 30
377.9346008300781
  0
VERTEX
  5
5CE5E
330
5CE5D
100
AcDbEntity
  8
Default
100
AcDbVertex
100
AcDb2dVertex
 10
26.34197982042815
 20
652.5093946507332
 30
377.9346008300781
  0
VERTEX
  5
5CE5F
330
5CE5D
100
AcDbEntity
  8
Default
100
AcDbVertex
100
AcDb2dVertex
 10
26.34197982042815
 20
618.3670529350783
 30
377.9346008300781
  0
SEQEND
  5
5CE60
330
5CE5D
100
AcDbEntity
  8
Default
  0
SPLINE
  5
5CE61
330
1F
100
AcDbEntity
  8
Default
100
AcDbSpline
210
0.0
220
0.0
230
1.0
 70
    12
 71
     2
 72
     6
 73
     3
 74
     0
 42
0.000000001
 43
0.0000000001
 40
0.0
 40
0.0
 40
0.0
 40
0.2355890798875016
 40
0.2355890798875016
 40
0.2355890798875016
 10
26.34197982042815
 20
618.3670529350783
 30
377.9346008300781
 41
1.0
 10
26.34018263941971
 20
614.5588501160491
 30
377.9346008300781
 41
0.707440409735664
 10
22.5319798204232
 20
614.5570528606058
 30
377.9346008300781
 41
1.0
  0
SPLINE
  5
5CE62
330
1F
100
AcDbEntity
  8
Default
100
AcDbSpline
210
0.0
220
0.0
230
1.0
 70
    24
 71
     2
 72
     6
 73
     3
 74
     0
 42
0.000000001
 43
0.0000000001
 40
0.0
 40
0.0
 40
0.0
 40
0.3520000000000003
 40
0.3520000000000003
 40
0.3520000000000003
 10
22.5319798204232
 20
614.5570528606058
 30
377.9346008300781
 10
18.06157982042487
 20
614.5570528606058
 30
377.9346008300781
 10
13.59117982042653
 20
614.5570528606058
 30
377.9346008300781
  0
SPLINE
  5
5CE63
330
1F
100
AcDbEntity
  8
Default
100
AcDbSpline
210
0.0
220
0.0
230
1.0
 70
    12
 71
     2
 72
     6
 73
     3
 74
     0
 42
0.000000001
 43
0.0000000001
 40
0.0
 40
0.0
 40
0.0
 40
0.1098876245644455
 40
0.1098876245644455
 40
0.1098876245644455
 10
13.59117982042653
 20
614.5570528606058
 30
377.9346008300781
 41
1.0
 10
11.81720957590869
 20
614.5610826880528
 30
377.9346008300781
 41
0.7087112325863247
 10
11.8131798204281
 20
616.3350529327417
 30
377.9346008300781
 41
1.0
  0
POLYLINE
  5
5CE64
330
1F
100
AcDbEntity
  8
Default
100
AcDb2dPolyline
 66
     1
 10
0.0
 20
0.0
 30
377.9346008300781
  0
VERTEX
  5
5CE65
330
5CE64
100
AcDbEntity
  8
Default
100
AcDbVertex
100
AcDb2dVertex
 10
11.8131798204281
 20
616.3350529327417
 30
377.9346008300781
  0
VERTEX
  5
5CE66
330
5CE64
100
AcDbEntity
  8
Default
100
AcDbVertex
100
AcDb2dVertex
 10
11.8131798204281
 20
651.5311337280145
 30
377.9346008300781
  0
SEQEND
  5
5CE67
330
5CE64
100
AcDbEntity
  8
Default
  0
SPLINE
  5
5CE68
330
1F
100
AcDbEntity
  8
Default
100
AcDbSpline
210
0.0
220
0.0
230
1.0
 70
    12
 71
     2
 72
     6
 73
     3
 74
     0
 42
0.000000001
 43
0.0000000001
 40
-0.3669232257852178
 40
-0.3669232257852178
 40
-0.3669232257852178
 40
0.0
 40
0.0
 40
0.0
 10
9.566783969699372
 20
651.4296949331801
 30
377.9346008300781
 41
0.999999991999253
 10
9.514089827427142
 20
646.7700680683956
 30
377.9346008300781
 41
0.9999999958523481
 10
9.461555628311089
 20
642.1104393976129
 30
377.9346008300781
 41
1.0
  0
SPLINE
  5
5CE69
330
1F
100
AcDbEntity
  8
Default
100
AcDbSpline
210
0.0
220
0.0
230
1.0
 70
     8
 71
     3
 72
    11
 73
     7
 74
     0
 42
0.000000001
 43
0.0000000001
 40
-0.5061957594563899
 40
-0.5061957594563899
 40
-0.5061957594563899
 40
-0.5061957594563899
 40
-0.2779307972340258
 40
-0.1436576036068027
 40
-0.0724650654421722
 40
0.0
 40
0.0
 40
0.0
 40
0.0
 10
9.461555628311089
 20
642.1104393976129
 30
377.9346008300781
 10
9.468896850057262
 20
640.1206510493757
 30
377.9346008300781
 10
7.554648522994739
 20
637.3849287181401
 30
377.9346008300781
 10
4.186900553607756
 20
635.8507959389644
 30
377.9346008300781
 10
1.883086250405085
 20
635.3240011730158
 30
377.9346008300781
 10
0.6664333511303085
 20
635.2495581521252
 30
377.9346008300781
 10
0.0529798204238432
 20
635.2453479993019
 30
377.9346008300781
  0
SPLINE
  5
5CE6A
330
1F
100
AcDbEntity
  8
Default
100
AcDbSpline
210
0.0
220
0.0
230
1.0
 70
     8
 71
     3
 72
    11
 73
     7
 74
     0
 42
0.000000001
 43
0.0000000001
 40
0.0
 40
0.0
 40
0.0
 40
0.0
 40
0.0724650654421701
 40
0.143657603606799
 40
0.2779307972340275
 40
0.5061957594563471
 40
0.5061957594563471
 40
0.5061957594563471
 40
0.5061957594563471
 10
0.0529798204238432
 20
635.2453479993019
 30
377.9346008300781
 10
-0.5604737102753461
 20
635.2495581521252
 30
377.9346008300781
 10
-1.777126609557399
 20
635.3240011730177
 30
377.9346008300781
 10
-4.080940912752794
 20
635.8507959389644
 30
377.9346008300781
 10
-7.448688882132501
 20
637.3849287181401
 30
377.9346008300781
 10
-9.3629372092023
 20
640.1206510493794
 30
377.9346008300781
 10
-9.355595987441574
 20
642.1104393976129
 30
377.9346008300781
  0
SPLINE
  5
5CE6B
330
1F
100
AcDbEntity
  8
Default
100
AcDbSpline
210
0.0
220
0.0
230
1.0
 70
    12
 71
     2
 72
     6
 73
     3
 74
     0
 42
0.000000001
 43
0.0000000001
 40
0.0
 40
0.0
 40
0.0
 40
0.3669232203978866
 40
0.3669232203978866
 40
0.3669232203978866
 10
-9.355595987441574
 20
642.1104393976129
 30
377.9346008300781
 41
1.0
 10
-9.408128221481547
 20
646.7700680195739
 30
377.9346008300781
 41
0.9999999957871185
 10
-9.46082165078269
 20
651.4296948214487
 30
377.9346008300781
 41
0.9999999918734237
  0
POLYLINE
  5
5CE6C
330
1F
100
AcDbEntity
  8
Default
100
AcDb2dPolyline
 66
     1
 10
0.0
 20
0.0
 30
377.9346008300781
  0
VERTEX
  5
5CE6D
330
5CE6C
100
AcDbEntity
  8
Default
100
AcDbVertex
100
AcDb2dVertex
 10
-26.23602017957319
 20
652.5093946507332
 30
377.9346008300781
  0
VERTEX
  5
5CE6E
330
5CE6C
100
AcDbEntity
  8
Default
100
AcDbVertex
100
AcDb2dVertex
 10
-26.23602017957319
 20
618.3670529350783
 30
377.9346008300781
  0
SEQEND
  5
5CE6F
330
5CE6C
100
AcDbEntity
  8
Default
  0
SPLINE
  5
5CE70
330
1F
100
AcDbEntity
  8
Default
100
AcDbSpline
210
0.0
220
0.0
230
1.0
 70
    12
 71
     2
 72
     6
 73
     3
 74
     0
 42
0.000000001
 43
0.0000000001
 40
0.0
 40
0.0
 40
0.0
 40
0.2355890798875016
 40
0.2355890798875016
 40
0.2355890798875016
 10
-26.23602017957319
 20
618.3670529350783
 30
377.9346008300781
 41
1.0
 10
-26.23422299856475
 20
614.5588501160491
 30
377.9346008300781
 41
0.707440409735664
 10
-22.42602017957552
 20
614.5570528606058
 30
377.9346008300781
 41
1.0
  0
SPLINE
  5
5CE71
330
1F
100
AcDbEntity
  8
Default
100
AcDbSpline
210
0.0
220
0.0
230
1.0
 70
    24
 71
     2
 72
     6
 73
     3
 74
     0
 42
0.000000001
 43
0.0000000001
 40
0.0
 40
0.0
 40
0.0
 40
0.3520000000000003
 40
0.3520000000000003
 40
0.3520000000000003
 10
-22.42602017957552
 20
614.5570528606058
 30
377.9346008300781
 10
-17.95562017957718
 20
614.5570528606058
 30
377.9346008300781
 10
-13.48522017957157
 20
614.5570528606058
 30
377.9346008300781
  0
SPLINE
  5
5CE72
330
1F
100
AcDbEntity
  8
Default
100
AcDbSpline
210
0.0
220
0.0
230
1.0
 70
    12
 71
     2
 72
     6
 73
     3
 74
     0
 42
0.000000001
 43
0.0000000001
 40
0.0
 40
0.0
 40
0.0
 40
0.1098876245644455
 40
0.1098876245644455
 40
0.1098876245644455
 10
-13.48522017957157
 20
614.5570528606058
 30
377.9346008300781
 41
1.0
 10
-11.71124993504645
 20
614.5610826880528
 30
377.9346008300781
 41
0.7087112325863247
 10
-11.70722017957314
 20
616.3350529327417
 30
377.9346008300781
 41
1.0
  0
POLYLINE
  5
5CE73
330
1F
100
AcDbEntity
  8
Default
100
AcDb2dPolyline
 66
     1
 10
0.0
 20
0.0
 30
377.9346008300781
  0
VERTEX
  5
5CE74
330
5CE73
100
AcDbEntity
  8
Default
100
AcDbVertex
100
AcDb2dVertex
 10
-11.70722017957314
 20
616.3350529327417
 30
377.9346008300781
  0
VERTEX
  5
5CE75
330
5CE73
100
AcDbEntity
  8
Default
100
AcDbVertex
100
AcDb2dVertex
 10
-11.70722017957314
 20
651.5311337280145
 30
377.9346008300781
  0
SEQEND
  5
5CE76
330
5CE73
100
AcDbEntity
  8
Default
  0
LINE
  5
5CE77
330
1F
100
AcDbEntity
  8
Default
100
AcDbLine
 10
-9.954616119647198
 20
651.4506786365436
 30
377.9346008300781
 11
-9.954619902985086
 21
629.1799329084751
 31
377.9346008300781
  0
ARC
  5
5CE78
330
1F
100
AcDbEntity
  8
Default
100
AcDbCircle
 10
89295475.51902734
 20
613.9185106137556
 30
377.9346008300781
 40
89295485.47364856
100
AcDbArc
 50
179.999990207606
 51
179.9999987473748
  0
SPLINE
  5
5CE79
330
1F
100
AcDbEntity
  8
Default
100
AcDbSpline
210
0.0
220
0.0
230
1.0
 70
    12
 71
     2
 72
     6
 73
     3
 74
     0
 42
0.000000001
 43
0.0000000001
 40
0.0
 40
0.0
 40
0.0
 40
0.0784842030870699
 40
0.0784842030870699
 40
0.0784842030870699
 10
-9.954621208633852
 20
615.8707073437962
 30
377.9346008300781
 41
1.0
 10
-9.953701060460389
 20
614.6016265003309
 30
377.9346008300781
 41
0.7071217743558634
 10
-8.684620179561989
 20
614.6024823530733
 30
377.9346008300781
 41
1.0
  0
POLYLINE
  5
5CE7A
330
1F
100
AcDbEntity
  8
Default
100
AcDb2dPolyline
 66
     1
 10
0.0
 20
0.0
 30
377.9346008300781
  0
VERTEX
  5
5CE7B
330
5CE7A
100
AcDbEntity
  8
Default
100
AcDbVertex
100
AcDb2dVertex
 10
-8.684620179561989
 20
614.6024823530733
 30
377.9346008300781
  0
VERTEX
  5
5CE7C
330
5CE7A
100
AcDbEntity
  8
Default
100
AcDbVertex
100
AcDb2dVertex
 10
8.790579820416951
 20
614.6024823530733
 30
377.9346008300781
  0
SEQEND
  5
5CE7D
330
5CE7A
100
AcDbEntity
  8
Default
  0
SPLINE
  5
5CE7E
330
1F
100
AcDbEntity
  8
Default
100
AcDbSpline
210
0.0
220
0.0
230
1.0
 70
    12
 71
     2
 72
     6
 73
     3
 74
     0
 42
0.000000001
 43
0.0000000001
 40
-0.0784842030870699
 40
-0.0784842030870699
 40
-0.0784842030870699
 40
0.0
 40
0.0
 40
0.0
 10
8.790579820416951
 20
614.6024823530733
 30
377.9346008300781
 41
1.0
 10
10.05966070131535
 20
614.6016265003309
 30
377.9346008300781
 41
0.7071217743558634
 10
10.06058084948881
 20
615.8707073437962
 30
377.9346008300781
 41
1.0
  0
ARC
  5
5CE7F
330
1F
100
AcDbEntity
  8
Default
100
AcDbCircle
 10
-89295475.41306769
 20
613.9185106137556
 30
377.9346008300781
 40
89295485.47364856
100
AcDbArc
 50
0.0000012526251775
 51
0.0000097923939382
  0
LINE
  5
5CE80
330
1F
100
AcDbEntity
  8
Default
100
AcDbLine
 10
10.06057954383277
 20
629.1799329084751
 30
377.9346008300781
 11
10.06057576050216
 21
651.4506786368237
 31
377.9346008300781
  0
POLYLINE
  5
5CE81
330
1F
100
AcDbEntity
  8
Default
100
AcDb2dPolyline
 66
     1
 10
0.0
 20
0.0
 30
377.9346008300781
  0
VERTEX
  5
5CE82
330
5CE81
100
AcDbEntity
  8
Default
100
AcDbVertex
100
AcDb2dVertex
 10
-344.2003676311129
 20
872.2930300351581
 30
377.9346008300781
  0
VERTEX
  5
5CE83
330
5CE81
100
AcDbEntity
  8
Default
100
AcDbVertex
100
AcDb2dVertex
 10
-344.2003676311129
 20
849.3816737482447
 30
377.9346008300781
  0
SEQEND
  5
5CE84
330
5CE81
100
AcDbEntity
  8
Default
  0
SPLINE
  5
5CE85
330
1F
100
AcDbEntity
  8
Default
100
AcDbSpline
210
0.0
220
0.0
230
1.0
 70
    12
 71
     2
 72
     6
 73
     3
 74
     0
 42
0.000000001
 43
0.0000000001
 40
0.0
 40
0.0
 40
0.0
 40
0.2355890798875016
 40
0.2355890798875016
 40
0.2355890798875016
 10
-344.2003676311129
 20
849.3816737482447
 30
377.9346008300781
 41
1.0
 10
-344.1985704501044
 20
845.5734709292155
 30
377.9346008300781
 41
0.707440409735664
 10
-340.3903676311152
 20
845.5716736737722
 30
377.9346008300781
 41
1.0
  0
SPLINE
  5
5CE86
330
1F
100
AcDbEntity
  8
Default
100
AcDbSpline
210
0.0
220
0.0
230
1.0
 70
    24
 71
     2
 72
     6
 73
     3
 74
     0
 42
0.000000001
 43
0.0000000001
 40
0.0
 40
0.0
 40
0.0
 40
0.3520000000000003
 40
0.3520000000000003
 40
0.3520000000000003
 10
-340.3903676311152
 20
845.5716736737722
 30
377.9346008300781
 10
-335.9199676311168
 20
845.5716736737722
 30
377.9346008300781
 10
-331.4495676311185
 20
845.5716736737722
 30
377.9346008300781
  0
SPLINE
  5
5CE87
330
1F
100
AcDbEntity
  8
Default
100
AcDbSpline
210
0.0
220
0.0
230
1.0
 70
    12
 71
     2
 72
     6
 73
     3
 74
     0
 42
0.000000001
 43
0.0000000001
 40
0.0
 40
0.0
 40
0.0
 40
0.1098876245644455
 40
0.1098876245644455
 40
0.1098876245644455
 10
-331.4495676311185
 20
845.5716736737722
 30
377.9346008300781
 41
1.0
 10
-329.6755973865861
 20
845.5757035012194
 30
377.9346008300781
 41
0.7087112325863247
 10
-329.6715676311128
 20
847.3496737459081
 30
377.9346008300781
 41
1.0
  0
POLYLINE
  5
5CE88
330
1F
100
AcDbEntity
  8
Default
100
AcDb2dPolyline
 66
     1
 10
0.0
 20
0.0
 30
377.9346008300781
  0
VERTEX
  5
5CE89
330
5CE88
100
AcDbEntity
  8
Default
100
AcDbVertex
100
AcDb2dVertex
 10
-329.6715676311128
 20
847.3496737459081
 30
377.9346008300781
  0
VERTEX
  5
5CE8A
330
5CE88
100
AcDbEntity
  8
Default
100
AcDbVertex
100
AcDb2dVertex
 10
-329.6715676311128
 20
854.935928662795
 30
377.9346008300781
  0
SEQEND
  5
5CE8B
330
5CE88
100
AcDbEntity
  8
Default
  0
POLYLINE
  5
5CE8C
330
1F
100
AcDbEntity
  8
Default
100
AcDb2dPolyline
 66
     1
 10
0.0
 20
0.0
 30
377.9346008300781
  0
VERTEX
  5
5CE8D
330
5CE8C
100
AcDbEntity
  8
Default
100
AcDbVertex
100
AcDb2dVertex
 10
208.3259537562494
 20
1229.190056061457
 30
377.9346008300781
  0
VERTEX
  5
5CE8E
330
5CE8C
100
AcDbEntity
  8
Default
100
AcDbVertex
100
AcDb2dVertex
 10
208.3259537562494
 20
1282.607181975352
 30
377.9346008300781
  0
SEQEND
  5
5CE8F
330
5CE8C
100
AcDbEntity
  8
Default
  0
SPLINE
  5
5CE90
330
1F
100
AcDbEntity
  8
Default
100
AcDbSpline
210
0.0
220
0.0
230
1.0
 70
    12
 71
     2
 72
     6
 73
     3
 74
     0
 42
0.000000001
 43
0.0000000001
 40
0.0
 40
0.0
 40
0.0
 40
0.109941564851661
 40
0.109941564851661
 40
0.109941564851661
 10
208.3259537562494
 20
1282.607181975352
 30
377.9346008300781
 41
1.0
 10
208.3267928313957
 20
1284.384342900237
 30
377.9346008300781
 41
0.7074405726109262
 10
210.1039537562479
 20
1284.38518204749
 30
377.9346008300781
 41
1.0
  0
SPLINE
  5
5CE91
330
1F
100
AcDbEntity
  8
Default
100
AcDbSpline
210
0.0
220
0.0
230
1.0
 70
    24
 71
     2
 72
     6
 73
     3
 74
     0
 42
0.000000001
 43
0.0000000001
 40
0.0
 40
0.0
 40
0.0
 40
0.3520000000000003
 40
0.3520000000000003
 40
0.3520000000000003
 10
210.1039537562479
 20
1284.38518204749
 30
377.9346008300781
 10
214.5743537562462
 20
1284.38518204749
 30
377.9346008300781
 10
219.0447537562518
 20
1284.38518204749
 30
377.9346008300781
  0
SPLINE
  5
5CE92
330
1F
100
AcDbEntity
  8
Default
100
AcDbSpline
210
-0.0000000000000149
220
-0.0000000000000149
230
1.0
 70
    12
 71
     2
 72
     6
 73
     3
 74
     0
 42
0.000000001
 43
0.0000000001
 40
0.0
 40
0.0
 40
0.0
 40
0.2356186331260159
 40
0.2356186331260159
 40
0.2356186331260159
 10
219.0447537562518
 20
1284.38518204749
 30
377.9346008300781
 41
1.0
 10
222.8547053732778
 20
1284.385133590042
 30
377.9346008300782
 41
0.7071157676638843
 10
222.8547537562495
 20
1280.575181973016
 30
377.9346008300781
 41
1.0
  0
POLYLINE
  5
5CE93
330
1F
100
AcDbEntity
  8
Default
100
AcDb2dPolyline
 66
     1
 10
0.0
 20
0.0
 30
377.9346008300781
  0
VERTEX
  5
5CE94
330
5CE93
100
AcDbEntity
  8
Default
100
AcDbVertex
100
AcDb2dVertex
 10
222.8547537562495
 20
1280.575181973016
 30
377.9346008300781
  0
VERTEX
  5
5CE95
330
5CE93
100
AcDbEntity
  8
Default
100
AcDbVertex
100
AcDb2dVertex
 10
222.8547537562495
 20
1223.171182121963
 30
377.9346008300781
  0
SEQEND
  5
5CE96
330
5CE93
100
AcDbEntity
  8
Default
  0
SPLINE
  5
5CE97
330
1F
100
AcDbEntity
  8
Default
100
AcDbSpline
210
0.0
220
0.0
230
1.0
 70
    12
 71
     2
 72
     6
 73
     3
 74
     0
 42
0.000000001
 43
0.0000000001
 40
0.0
 40
0.0
 40
0.0
 40
0.0812712606071793
 40
0.0812712606071793
 40
0.0812712606071793
 10
222.8547537562495
 20
1223.171182121963
 30
377.9346008300781
 41
1.0
 10
222.8542659275859
 20
1222.137479631151
 30
377.9346008300781
 41
0.8990755992813575
 10
222.331602222484
 20
1221.245647960457
 30
377.9346008300781
 41
0.8677830616044564
  0
POLYLINE
  5
5CE98
330
1F
100
AcDbEntity
  8
Default
100
AcDb2dPolyline
 66
     1
 10
0.0
 20
0.0
 30
377.9346008300781
  0
VERTEX
  5
5CE99
330
5CE98
100
AcDbEntity
  8
Default
100
AcDbVertex
100
AcDb2dVertex
 10
-208.2199941153945
 20
1229.190056061457
 30
377.9346008300781
  0
VERTEX
  5
5CE9A
330
5CE98
100
AcDbEntity
  8
Default
100
AcDbVertex
100
AcDb2dVertex
 10
-208.2199941153945
 20
1282.607181975352
 30
377.9346008300781
  0
SEQEND
  5
5CE9B
330
5CE98
100
AcDbEntity
  8
Default
  0
SPLINE
  5
5CE9C
330
1F
100
AcDbEntity
  8
Default
100
AcDbSpline
210
0.0
220
0.0
230
1.0
 70
    12
 71
     2
 72
     6
 73
     3
 74
     0
 42
0.000000001
 43
0.0000000001
 40
0.0
 40
0.0
 40
0.0
 40
0.109941564851661
 40
0.109941564851661
 40
0.109941564851661
 10
-208.2199941153945
 20
1282.607181975352
 30
377.9346008300781
 41
1.0
 10
-208.2208331905413
 20
1284.384342900237
 30
377.9346008300781
 41
0.7074405726109262
 10
-209.9979941153929
 20
1284.38518204749
 30
377.9346008300781
 41
1.0
  0
SPLINE
  5
5CE9D
330
1F
100
AcDbEntity
  8
Default
100
AcDbSpline
210
0.0
220
0.0
230
1.0
 70
    24
 71
     2
 72
     6
 73
     3
 74
     0
 42
0.000000001
 43
0.0000000001
 40
0.0
 40
0.0
 40
0.0
 40
0.3520000000000003
 40
0.3520000000000003
 40
0.3520000000000003
 10
-209.9979941153929
 20
1284.38518204749
 30
377.9346008300781
 10
-214.4683941153912
 20
1284.38518204749
 30
377.9346008300781
 10
-218.9387941153896
 20
1284.38518204749
 30
377.9346008300781
  0
SPLINE
  5
5CE9E
330
1F
100
AcDbEntity
  8
Default
100
AcDbSpline
210
0.0000000000000149
220
-0.0000000000000149
230
1.0
 70
    12
 71
     2
 72
     6
 73
     3
 74
     0
 42
0.000000001
 43
0.0000000001
 40
0.0
 40
0.0
 40
0.0
 40
0.2356186331260159
 40
0.2356186331260159
 40
0.2356186331260159
 10
-218.9387941153896
 20
1284.38518204749
 30
377.9346008300781
 41
1.0
 10
-222.7487457324159
 20
1284.385133590042
 30
377.9346008300782
 41
0.7071157676638843
 10
-222.7487941153945
 20
1280.575181973016
 30
377.9346008300781
 41
1.0
  0
POLYLINE
  5
5CE9F
330
1F
100
AcDbEntity
  8
Default
100
AcDb2dPolyline
 66
     1
 10
0.0
 20
0.0
 30
377.9346008300781
  0
VERTEX
  5
5CEA0
330
5CE9F
100
AcDbEntity
  8
Default
100
AcDbVertex
100
AcDb2dVertex
 10
-222.7487941153945
 20
1280.575181973016
 30
377.9346008300781
  0
VERTEX
  5
5CEA1
330
5CE9F
100
AcDbEntity
  8
Default
100
AcDbVertex
100
AcDb2dVertex
 10
-222.7487941153945
 20
1223.171182121963
 30
377.9346008300781
  0
SEQEND
  5
5CEA2
330
5CE9F
100
AcDbEntity
  8
Default
  0
SPLINE
  5
5CEA3
330
1F
100
AcDbEntity
  8
Default
100
AcDbSpline
210
0.0
220
0.0
230
1.0
 70
    12
 71
     2
 72
     6
 73
     3
 74
     0
 42
0.000000001
 43
0.0000000001
 40
0.0
 40
0.0
 40
0.0
 40
0.0812712606071793
 40
0.0812712606071793
 40
0.0812712606071793
 10
-222.7487941153945
 20
1223.171182121963
 30
377.9346008300781
 41
1.0
 10
-222.7483062867309
 20
1222.137479631151
 30
377.9346008300781
 41
0.8990755992813575
 10
-222.225642581629
 20
1221.245647960457
 30
377.9346008300781
 41
0.8677830616044564
  0
POLYLINE
  5
5CEA4
330
1F
100
AcDbEntity
  8
Default
100
AcDb2dPolyline
 66
     1
 10
0.0
 20
0.0
 30
377.9346008300781
  0
VERTEX
  5
5CEA5
330
5CEA4
100
AcDbEntity
  8
Default
100
AcDbVertex
100
AcDb2dVertex
 10
344.3063272719678
 20
872.2930300351581
 30
377.9346008300781
  0
VERTEX
  5
5CEA6
330
5CEA4
100
AcDbEntity
  8
Default
100
AcDbVertex
100
AcDb2dVertex
 10
344.3063272719678
 20
849.3816737482447
 30
377.9346008300781
  0
SEQEND
  5
5CEA7
330
5CEA4
100
AcDbEntity
  8
Default
  0
SPLINE
  5
5CEA8
330
1F
100
AcDbEntity
  8
Default
100
AcDbSpline
210
0.0
220
0.0
230
1.0
 70
    12
 71
     2
 72
     6
 73
     3
 74
     0
 42
0.000000001
 43
0.0000000001
 40
0.0
 40
0.0
 40
0.0
 40
0.2355890798875016
 40
0.2355890798875016
 40
0.2355890798875016
 10
344.3063272719678
 20
849.3816737482447
 30
377.9346008300781
 41
1.0
 10
344.3045300909667
 20
845.5734709292155
 30
377.9346008300781
 41
0.707440409735664
 10
340.4963272719701
 20
845.5716736737722
 30
377.9346008300781
 41
1.0
  0
SPLINE
  5
5CEA9
330
1F
100
AcDbEntity
  8
Default
100
AcDbSpline
210
0.0
220
0.0
230
1.0
 70
    24
 71
     2
 72
     6
 73
     3
 74
     0
 42
0.000000001
 43
0.0000000001
 40
0.0
 40
0.0
 40
0.0
 40
0.3520000000000003
 40
0.3520000000000003
 40
0.3520000000000003
 10
340.4963272719701
 20
845.5716736737722
 30
377.9346008300781
 10
336.0259272719645
 20
845.5716736737722
 30
377.9346008300781
 10
331.5555272719662
 20
845.5716736737722
 30
377.9346008300781
  0
SPLINE
  5
5CEAA
330
1F
100
AcDbEntity
  8
Default
100
AcDbSpline
210
0.0
220
0.0
230
1.0
 70
    12
 71
     2
 72
     6
 73
     3
 74
     0
 42
0.000000001
 43
0.0000000001
 40
0.0
 40
0.0
 40
0.0
 40
0.1098876245644455
 40
0.1098876245644455
 40
0.1098876245644455
 10
331.5555272719662
 20
845.5716736737722
 30
377.9346008300781
 41
1.0
 10
329.7815570274411
 20
845.5757035012194
 30
377.9346008300781
 41
0.7087112325863247
 10
329.7775272719678
 20
847.3496737459081
 30
377.9346008300781
 41
1.0
  0
POLYLINE
  5
5CEAB
330
1F
100
AcDbEntity
  8
Default
100
AcDb2dPolyline
 66
     1
 10
0.0
 20
0.0
 30
377.9346008300781
  0
VERTEX
  5
5CEAC
330
5CEAB
100
AcDbEntity
  8
Default
100
AcDbVertex
100
AcDb2dVertex
 10
329.7775272719678
 20
847.3496737459081
 30
377.9346008300781
  0
VERTEX
  5
5CEAD
330
5CEAB
100
AcDbEntity
  8
Default
100
AcDbVertex
100
AcDb2dVertex
 10
329.7775272719678
 20
854.935928662795
 30
377.9346008300781
  0
SEQEND
  5
5CEAE
330
5CEAB
100
AcDbEntity
  8
Default
  0
ARC
  5
5CEAF
330
1F
100
AcDbEntity
  8
Default
100
AcDbCircle
 10
89295279.00625338
 20
1218.72263980064
 30
377.9346008300781
 40
89295485.47364856
100
AcDbArc
 50
179.999990207606
 51
179.9999911428279
  0
LINE
  5
5CEB0
330
1F
100
AcDbEntity
  8
Default
100
AcDbLine
 10
-206.4673938387991
 20
1233.984062095358
 30
377.9346008300781
 11
-206.4673851277025
 21
1283.04049318428
 31
377.9346008300781
  0
SPLINE
  5
5CEB1
330
1F
100
AcDbEntity
  8
Default
100
AcDbSpline
210
0.0000000000000448
220
-0.0000000000000449
230
1.0
 70
    12
 71
     2
 72
     6
 73
     3
 74
     0
 42
0.000000001
 43
0.0000000001
 40
0.0
 40
0.0
 40
0.0
 40
0.0784456575506041
 40
0.0784456575506041
 40
0.0784456575506041
 10
-206.4673851277025
 20
1283.04049318428
 30
377.9346008300781
 41
1.0
 10
-206.4658693488513
 20
1284.308968413465
 30
377.9346008300782
 41
0.7071077818591104
 10
-205.1973941153833
 20
1284.307456602259
 30
377.9346008300781
 41
1.0
  0
SPLINE
  5
5CEB2
330
1F
100
AcDbEntity
  8
Default
100
AcDbSpline
210
0.0
220
0.0
230
1.0
 70
    12
 71
     2
 72
     6
 73
     3
 74
     0
 42
0.000000001
 43
0.0000000001
 40
0.0
 40
0.0
 40
0.0
 40
0.0351460068279919
 40
0.0351460068279919
 40
0.0351460068279919
 10
-205.1973941153833
 20
1284.307456602259
 30
377.9346008300781
 41
1.0
 10
-204.7560416917026
 20
1284.387908675269
 30
377.9346008300781
 41
0.9924246250463484
 10
-204.3083941153004
 20
1284.35830892394
 30
377.9346008300781
 41
1.0
  0
SPLINE
  5
5CEB3
330
1F
100
AcDbEntity
  8
Default
100
AcDbSpline
210
0.0
220
0.0
230
1.0
 70
    24
 71
     2
 72
     6
 73
     3
 74
     0
 42
0.000000001
 43
0.0000000001
 40
-0.6179999945348698
 40
-0.6179999945348698
 40
-0.6179999945348698
 40
0.0
 40
0.0
 40
0.0
 10
-204.3083941153004
 20
1284.35830892394
 30
377.9346008300781
 10
-196.4597941847009
 20
1284.358308923936
 30
377.9346008300781
 10
-188.6111942541088
 20
1284.358308923936
 30
377.9346008300781
  0
SPLINE
  5
5CEB4
330
1F
100
AcDbEntity
  8
Default
100
AcDbSpline
210
0.0
220
0.0
230
1.0
 70
    12
 71
     2
 72
     6
 73
     3
 74
     0
 42
0.000000001
 43
0.0000000001
 40
0.0
 40
0.0
 40
0.0
 40
0.0351460122197656
 40
0.0351460122197656
 40
0.0351460122197656
 10
-188.6111942541088
 20
1284.358308923936
 30
377.9346008300781
 41
1.0
 10
-188.1635466097345
 20
1284.387908666298
 30
377.9346008300781
 41
0.9924246303389436
 10
-187.7221941154043
 20
1284.30745660604
 30
377.9346008300781
 41
1.0
  0
SPLINE
  5
5CEB5
330
1F
100
AcDbEntity
  8
Default
100
AcDbSpline
210
0.0
220
0.0
230
1.0
 70
    12
 71
     2
 72
     6
 73
     3
 74
     0
 42
0.000000001
 43
0.0000000001
 40
0.0
 40
0.0
 40
0.0
 40
0.0784456577816192
 40
0.0784456577816192
 40
0.0784456577816192
 10
-187.7221941154043
 20
1284.30745660604
 30
377.9346008300781
 41
1.0
 10
-186.4537188829913
 20
1284.308968404122
 30
377.9346008300781
 41
0.707107785543906
 10
-186.4522027256448
 20
1283.040493176011
 30
377.9346008300781
 41
1.0
  0
LINE
  5
5CEB6
330
1F
100
AcDbEntity
  8
Default
100
AcDbLine
 10
-186.4522027256448
 20
1283.040493176011
 30
377.9346008300781
 11
-186.4521954539364
 21
1240.235289875665
 31
377.9346008300781
  0
POLYLINE
  5
5CEB7
330
1F
100
AcDbEntity
  8
Default
100
AcDb2dPolyline
 66
     1
 10
0.0
 20
0.0
 30
377.9346008300781
  0
VERTEX
  5
5CEB8
330
5CEB7
100
AcDbEntity
  8
Default
100
AcDbVertex
100
AcDb2dVertex
 10
-184.6995941153932
 20
1241.059409442598
 30
377.9346008300781
  0
VERTEX
  5
5CEB9
330
5CEB7
100
AcDbEntity
  8
Default
100
AcDbVertex
100
AcDb2dVertex
 10
-184.6995941153932
 20
1282.607181975352
 30
377.9346008300781
  0
SEQEND
  5
5CEBA
330
5CEB7
100
AcDbEntity
  8
Default
  0
SPLINE
  5
5CEBB
330
1F
100
AcDbEntity
  8
Default
100
AcDbSpline
210
0.0
220
0.0
230
1.0
 70
    12
 71
     2
 72
     6
 73
     3
 74
     0
 42
0.000000001
 43
0.0000000001
 40
0.0
 40
0.0
 40
0.0
 40
0.109941564851661
 40
0.109941564851661
 40
0.109941564851661
 10
-184.6995941153932
 20
1282.607181975352
 30
377.9346008300781
 41
1.0
 10
-184.6987550402468
 20
1284.384342900237
 30
377.9346008300781
 41
0.7074405726109262
 10
-182.9215941153948
 20
1284.38518204749
 30
377.9346008300781
 41
1.0
  0
SPLINE
  5
5CEBC
330
1F
100
AcDbEntity
  8
Default
100
AcDbSpline
210
0.0
220
0.0
230
1.0
 70
    24
 71
     2
 72
     6
 73
     3
 74
     0
 42
0.000000001
 43
0.0000000001
 40
0.0
 40
0.0
 40
0.0
 40
0.3520000000000003
 40
0.3520000000000003
 40
0.3520000000000003
 10
-182.9215941153948
 20
1284.38518204749
 30
377.9346008300781
 10
-178.4511941153891
 20
1284.38518204749
 30
377.9346008300781
 10
-173.9807941153908
 20
1284.38518204749
 30
377.9346008300781
  0
SPLINE
  5
5CEBD
330
1F
100
AcDbEntity
  8
Default
100
AcDbSpline
210
-0.0000000000000149
220
-0.0000000000000149
230
1.0
 70
    12
 71
     2
 72
     6
 73
     3
 74
     0
 42
0.000000001
 43
0.0000000001
 40
0.0
 40
0.0
 40
0.0
 40
0.2356186331260159
 40
0.2356186331260159
 40
0.2356186331260159
 10
-173.9807941153908
 20
1284.38518204749
 30
377.9346008300781
 41
1.0
 10
-170.1708424983721
 20
1284.385133590042
 30
377.9346008300782
 41
0.7071157676638843
 10
-170.1707941153931
 20
1280.575181973016
 30
377.9346008300781
 41
1.0
  0
POLYLINE
  5
5CEBE
330
1F
100
AcDbEntity
  8
Default
100
AcDb2dPolyline
 66
     1
 10
0.0
 20
0.0
 30
377.9346008300781
  0
VERTEX
  5
5CEBF
330
5CEBE
100
AcDbEntity
  8
Default
100
AcDbVertex
100
AcDb2dVertex
 10
-170.1707941153931
 20
1280.575181973016
 30
377.9346008300781
  0
VERTEX
  5
5CEC0
330
5CEBE
100
AcDbEntity
  8
Default
100
AcDbVertex
100
AcDb2dVertex
 10
-170.1707941153931
 20
1247.535827370464
 30
377.9346008300781
  0
SEQEND
  5
5CEC1
330
5CEBE
100
AcDbEntity
  8
Default
  0
ARC
  5
5CEC2
330
1F
100
AcDbEntity
  8
Default
100
AcDbCircle
 10
-89295278.90029373
 20
1218.72263980064
 30
377.9346008300781
 40
89295485.47364856
100
AcDbArc
 50
0.0000088571720369
 51
0.0000097923939382
  0
LINE
  5
5CEC3
330
1F
100
AcDbEntity
  8
Default
100
AcDbLine
 10
206.5733534796541
 20
1233.984062095358
 30
377.9346008300781
 11
206.5733447685575
 21
1283.04049318428
 31
377.9346008300781
  0
SPLINE
  5
5CEC4
330
1F
100
AcDbEntity
  8
Default
100
AcDbSpline
210
-0.0000000000000448
220
-0.0000000000000449
230
1.0
 70
    12
 71
     2
 72
     6
 73
     3
 74
     0
 42
0.000000001
 43
0.0000000001
 40
0.0
 40
0.0
 40
0.0
 40
0.0784456575506041
 40
0.0784456575506041
 40
0.0784456575506041
 10
206.5733447685575
 20
1283.04049318428
 30
377.9346008300781
 41
1.0
 10
206.5718289897063
 20
1284.308968413465
 30
377.9346008300782
 41
0.7071077818591104
 10
205.3033537562383
 20
1284.307456602259
 30
377.9346008300781
 41
1.0
  0
SPLINE
  5
5CEC5
330
1F
100
AcDbEntity
  8
Default
100
AcDbSpline
210
0.0
220
0.0
230
1.0
 70
    12
 71
     2
 72
     6
 73
     3
 74
     0
 42
0.000000001
 43
0.0000000001
 40
0.0
 40
0.0
 40
0.0
 40
0.0351460068279919
 40
0.0351460068279919
 40
0.0351460068279919
 10
205.3033537562383
 20
1284.307456602259
 30
377.9346008300781
 41
1.0
 10
204.8620013325576
 20
1284.387908675269
 30
377.9346008300781
 41
0.9924246250463484
 10
204.4143537561481
 20
1284.35830892394
 30
377.9346008300781
 41
1.0
  0
SPLINE
  5
5CEC6
330
1F
100
AcDbEntity
  8
Default
100
AcDbSpline
210
0.0
220
0.0
230
1.0
 70
    24
 71
     2
 72
     6
 73
     3
 74
     0
 42
0.000000001
 43
0.0000000001
 40
-0.6179999945348698
 40
-0.6179999945348698
 40
-0.6179999945348698
 40
0.0
 40
0.0
 40
0.0
 10
204.4143537561481
 20
1284.35830892394
 30
377.9346008300781
 10
196.5657538255559
 20
1284.358308923936
 30
377.9346008300781
 10
188.7171538949637
 20
1284.358308923936
 30
377.9346008300781
  0
SPLINE
  5
5CEC7
330
1F
100
AcDbEntity
  8
Default
100
AcDbSpline
210
0.0
220
0.0
230
1.0
 70
    12
 71
     2
 72
     6
 73
     3
 74
     0
 42
0.000000001
 43
0.0000000001
 40
0.0
 40
0.0
 40
0.0
 40
0.0351460122197656
 40
0.0351460122197656
 40
0.0351460122197656
 10
188.7171538949637
 20
1284.358308923936
 30
377.9346008300781
 41
1.0
 10
188.2695062505968
 20
1284.387908666298
 30
377.9346008300781
 41
0.9924246303389436
 10
187.828153756252
 20
1284.30745660604
 30
377.9346008300781
 41
1.0
  0
SPLINE
  5
5CEC8
330
1F
100
AcDbEntity
  8
Default
100
AcDbSpline
210
0.0
220
0.0
230
1.0
 70
    12
 71
     2
 72
     6
 73
     3
 74
     0
 42
0.000000001
 43
0.0000000001
 40
0.0
 40
0.0
 40
0.0
 40
0.0784456577816192
 40
0.0784456577816192
 40
0.0784456577816192
 10
187.828153756252
 20
1284.30745660604
 30
377.9346008300781
 41
1.0
 10
186.559678523839
 20
1284.308968404122
 30
377.9346008300781
 41
0.707107785543906
 10
186.5581631223335
 20
1283.040493176011
 30
377.9346008300781
 41
1.0
  0
LINE
  5
5CEC9
330
1F
100
AcDbEntity
  8
Default
100
AcDbLine
 10
186.5581623664925
 20
1283.040493176011
 30
377.9346008300781
 11
186.5581550761212
 21
1240.235289880998
 31
377.9346008300781
  0
POLYLINE
  5
5CECA
330
1F
100
AcDbEntity
  8
Default
100
AcDb2dPolyline
 66
     1
 10
0.0
 20
0.0
 30
377.9346008300781
  0
VERTEX
  5
5CECB
330
5CECA
100
AcDbEntity
  8
Default
100
AcDbVertex
100
AcDb2dVertex
 10
184.8055537562482
 20
1241.059409442598
 30
377.9346008300781
  0
VERTEX
  5
5CECC
330
5CECA
100
AcDbEntity
  8
Default
100
AcDbVertex
100
AcDb2dVertex
 10
184.8055537562482
 20
1282.607181975352
 30
377.9346008300781
  0
SEQEND
  5
5CECD
330
5CECA
100
AcDbEntity
  8
Default
  0
SPLINE
  5
5CECE
330
1F
100
AcDbEntity
  8
Default
100
AcDbSpline
210
0.0
220
0.0
230
1.0
 70
    12
 71
     2
 72
     6
 73
     3
 74
     0
 42
0.000000001
 43
0.0000000001
 40
0.0
 40
0.0
 40
0.0
 40
0.109941564851661
 40
0.109941564851661
 40
0.109941564851661
 10
184.8055537562482
 20
1282.607181975352
 30
377.9346008300781
 41
1.0
 10
184.8047146810872
 20
1284.384342900237
 30
377.9346008300781
 41
0.7074405726109262
 10
183.0275537562497
 20
1284.38518204749
 30
377.9346008300781
 41
1.0
  0
SPLINE
  5
5CECF
330
1F
100
AcDbEntity
  8
Default
100
AcDbSpline
210
0.0
220
0.0
230
1.0
 70
    24
 71
     2
 72
     6
 73
     3
 74
     0
 42
0.000000001
 43
0.0000000001
 40
0.0
 40
0.0
 40
0.0
 40
0.3520000000000003
 40
0.3520000000000003
 40
0.3520000000000003
 10
183.0275537562497
 20
1284.38518204749
 30
377.9346008300781
 10
178.5571537562514
 20
1284.38518204749
 30
377.9346008300781
 10
174.0867537562531
 20
1284.38518204749
 30
377.9346008300781
  0
SPLINE
  5
5CED0
330
1F
100
AcDbEntity
  8
Default
100
AcDbSpline
210
0.0000000000000149
220
-0.0000000000000149
230
1.0
 70
    12
 71
     2
 72
     6
 73
     3
 74
     0
 42
0.000000001
 43
0.0000000001
 40
0.0
 40
0.0
 40
0.0
 40
0.2356186331260159
 40
0.2356186331260159
 40
0.2356186331260159
 10
174.0867537562531
 20
1284.38518204749
 30
377.9346008300781
 41
1.0
 10
170.2768021392198
 20
1284.385133590042
 30
377.9346008300782
 41
0.7071157676638843
 10
170.2767537562481
 20
1280.575181973016
 30
377.9346008300781
 41
1.0
  0
POLYLINE
  5
5CED1
330
1F
100
AcDbEntity
  8
Default
100
AcDb2dPolyline
 66
     1
 10
0.0
 20
0.0
 30
377.9346008300781
  0
VERTEX
  5
5CED2
330
5CED1
100
AcDbEntity
  8
Default
100
AcDbVertex
100
AcDb2dVertex
 10
170.2767537562481
 20
1280.575181973016
 30
377.9346008300781
  0
VERTEX
  5
5CED3
330
5CED1
100
AcDbEntity
  8
Default
100
AcDbVertex
100
AcDb2dVertex
 10
170.2767537562481
 20
1247.535827370468
 30
377.9346008300781
  0
SEQEND
  5
5CED4
330
5CED1
100
AcDbEntity
  8
Default
  0
ARC
  5
5CED5
330
1F
100
AcDbEntity
  8
Default
100
AcDbCircle
 10
-89295157.44872022
 20
844.9331314269221
 30
377.9346008300781
 40
89295485.47364856
100
AcDbArc
 50
0.0000012526251775
 51
0.000005131292172
  0
SPLINE
  5
5CED6
330
1F
100
AcDbEntity
  8
Default
100
AcDbSpline
210
0.0
220
0.0
230
1.0
 70
    12
 71
     2
 72
     6
 73
     3
 74
     0
 42
0.000000001
 43
0.0000000001
 40
0.0
 40
0.0
 40
0.0
 40
0.0784842030870699
 40
0.0784842030870699
 40
0.0784842030870699
 10
328.0249283010285
 20
846.8853281569627
 30
377.9346008300781
 41
1.0
 10
328.0240081528623
 20
845.6162473134973
 30
377.9346008300781
 41
0.7071217743558634
 10
326.7549272719639
 20
845.6171031662398
 30
377.9346008300781
 41
1.0
  0
POLYLINE
  5
5CED7
330
1F
100
AcDbEntity
  8
Default
100
AcDb2dPolyline
 66
     1
 10
0.0
 20
0.0
 30
377.9346008300781
  0
VERTEX
  5
5CED8
330
5CED7
100
AcDbEntity
  8
Default
100
AcDbVertex
100
AcDb2dVertex
 10
326.7549272719639
 20
845.6171031662398
 30
377.9346008300781
  0
VERTEX
  5
5CED9
330
5CED7
100
AcDbEntity
  8
Default
100
AcDbVertex
100
AcDb2dVertex
 10
321.4894804438531
 20
845.6171031662398
 30
377.9346008300781
  0
SEQEND
  5
5CEDA
330
5CED7
100
AcDbEntity
  8
Default
  0
ARC
  5
5CEDB
330
1F
100
AcDbEntity
  8
Default
100
AcDbCircle
 10
89295157.55467988
 20
844.9331314269221
 30
377.9346008300781
 40
89295485.47364856
100
AcDbArc
 50
179.9999948687078
 51
179.9999987473748
  0
SPLINE
  5
5CEDC
330
1F
100
AcDbEntity
  8
Default
100
AcDbSpline
210
0.0
220
0.0
230
1.0
 70
    12
 71
     2
 72
     6
 73
     3
 74
     0
 42
0.000000001
 43
0.0000000001
 40
0.0
 40
0.0
 40
0.0
 40
0.0784842030870699
 40
0.0784842030870699
 40
0.0784842030870699
 10
-327.9189686601735
 20
846.8853281569627
 30
377.9346008300781
 41
1.0
 10
-327.918048512
 20
845.6162473134973
 30
377.9346008300781
 41
0.7071217743558634
 10
-326.6489676311016
 20
845.6171031662398
 30
377.9346008300781
 41
1.0
  0
POLYLINE
  5
5CEDD
330
1F
100
AcDbEntity
  8
Default
100
AcDb2dPolyline
 66
     1
 10
0.0
 20
0.0
 30
377.9346008300781
  0
VERTEX
  5
5CEDE
330
5CEDD
100
AcDbEntity
  8
Default
100
AcDbVertex
100
AcDb2dVertex
 10
-326.6489676311016
 20
845.6171031662398
 30
377.9346008300781
  0
VERTEX
  5
5CEDF
330
5CEDD
100
AcDbEntity
  8
Default
100
AcDbVertex
100
AcDb2dVertex
 10
-321.3835208030055
 20
845.6171031662398
 30
377.9346008300781
  0
SEQEND
  5
5CEE0
330
5CEDD
100
AcDbEntity
  8
Default
  0
SPLINE
  5
5CEE1
330
1F
100
AcDbEntity
  8
Default
100
AcDbSpline
210
0.0000000000000149
220
-0.0000000000000055
230
1.0
 70
    12
 71
     2
 72
     6
 73
     3
 74
     0
 42
0.000000001
 43
0.0000000001
 40
0.1699723053228755
 40
0.1699723053228755
 40
0.1699723053228755
 40
0.6213186892081751
 40
0.6213186892081751
 40
0.6213186892081751
 10
-206.1280112406735
 20
1230.318663760274
 30
377.9346008300781
 41
0.8838882857041388
 10
-207.5660897611224
 20
1236.711758232845
 30
377.9346008300782
 41
0.7877819625056607
 10
-202.3000019796441
 20
1240.611507743266
 30
377.9346008300781
 41
1.0
  0
SPLINE
  5
5CEE2
330
1F
100
AcDbEntity
  8
Default
100
AcDbSpline
210
0.0
220
0.0
230
1.0
 70
    12
 71
     2
 72
     6
 73
     3
 74
     0
 42
0.000000001
 43
0.0000000001
 40
0.0
 40
0.0
 40
0.0
 40
0.5780956337957553
 40
0.5780956337957553
 40
0.5780956337957553
 10
-202.3000019796441
 20
1240.611507743266
 30
377.9346008300781
 41
1.0
 10
-194.9059051083304
 20
1245.881477230927
 30
377.9346008300781
 41
0.7281867164683567
 10
-188.9078897210625
 20
1239.064655511281
 30
377.9346008300781
 41
0.9621819287679231
  0
SPLINE
  5
5CEE3
330
1F
100
AcDbEntity
  8
Default
100
AcDbSpline
210
-0.0000000000000011
220
0.0000000000000093
230
1.0
 70
    12
 71
     2
 72
     6
 73
     3
 74
     0
 42
0.000000001
 43
0.0000000001
 40
0.0432228048386966
 40
0.0432228048386966
 40
0.0432228048386966
 40
0.6213186892081751
 40
0.6213186892081751
 40
0.6213186892081751
 10
189.0138480803593
 20
1239.064656127079
 30
377.9346008300781
 41
0.9621818109507904
 10
195.011862587658
 20
1245.88149498147
 30
377.9346008300781
 41
0.728185760549657
 10
202.4059617986218
 20
1240.61150761385
 30
377.9346008300781
 41
1.0
  0
SPLINE
  5
5CEE4
330
1F
100
AcDbEntity
  8
Default
100
AcDbSpline
210
0.0
220
0.0
230
1.0
 70
    12
 71
     2
 72
     6
 73
     3
 74
     0
 42
0.000000001
 43
0.0000000001
 40
0.0
 40
0.0
 40
0.0
 40
0.4513461501451067
 40
0.4513461501451067
 40
0.4513461501451067
 10
202.4059617986218
 20
1240.61150761385
 30
377.9346008300781
 41
1.0
 10
207.6720381458595
 20
1236.711754714959
 30
377.9346008300781
 41
0.7877827267526954
 10
206.2339666963758
 20
1230.318666003428
 30
377.9346008300781
 41
0.8838886685644926
  0
SPLINE
  5
5CEEF
330
1F
100
AcDbEntity
  8
Default
100
AcDbSpline
210
0.0
220
0.0
230
1.0
 70
    24
 71
     2
 72
     6
 73
     3
 74
     0
 42
0.000000001
 43
0.0000000001
 40
0.0
 40
0.0
 40
0.0
 40
0.071889705667429
 40
0.071889705667429
 40
0.071889705667429
 10
206.4999552322929
 20
-1259.87418204749
 30
377.9346008300781
 10
207.4129544942711
 20
-1259.87418204749
 30
377.9346008300781
 10
208.3259537562494
 20
-1259.87418204749
 30
377.9346008300781
  0
SPLINE
  5
5CEF0
330
1F
100
AcDbEntity
  8
Default
100
AcDbSpline
210
0.0
220
0.0
230
1.0
 70
    24
 71
     2
 72
     6
 73
     3
 74
     0
 42
0.000000001
 43
0.0000000001
 40
0.0
 40
0.0
 40
0.0
 40
0.071889705667429
 40
0.071889705667429
 40
0.071889705667429
 10
-206.393995591438
 20
-1259.87418204749
 30
377.9346008300781
 10
-207.3069948534162
 20
-1259.87418204749
 30
377.9346008300781
 10
-208.2199941153945
 20
-1259.87418204749
 30
377.9346008300781
  0
SPLINE
  5
5CEF1
330
1F
100
AcDbEntity
  8
Default
100
AcDbSpline
210
0.0
220
0.0
230
1.0
 70
    24
 71
     2
 72
     6
 73
     3
 74
     0
 42
0.000000001
 43
0.0000000001
 40
0.0
 40
0.0
 40
0.0
 40
0.0653749093108864
 40
0.0653749093108864
 40
0.0653749093108864
 10
-11.70722017957314
 20
-639.0680528606044
 30
377.9346008300781
 10
-10.87695883132846
 20
-639.0680528606044
 30
377.9346008300781
 10
-10.04669748307651
 20
-639.0680528606044
 30
377.9346008300781
  0
SPLINE
  5
5CEF2
330
1F
100
AcDbEntity
  8
Default
100
AcDbSpline
210
0.0
220
0.0
230
1.0
 70
    24
 71
     2
 72
     6
 73
     3
 74
     0
 42
0.000000001
 43
0.0000000001
 40
0.0
 40
0.0
 40
0.0
 40
0.0653749093108864
 40
0.0653749093108864
 40
0.0653749093108864
 10
11.8131798204281
 20
-639.0680528606044
 30
377.9346008300781
 10
10.98291847217615
 20
-639.0680528606044
 30
377.9346008300781
 10
10.15265712393147
 20
-639.0680528606044
 30
377.9346008300781
  0
SPLINE
  5
5CEF3
330
1F
100
AcDbEntity
  8
Default
100
AcDbSpline
210
-0.0000000000000057
220
-0.0000000000000056
230
1.0
 70
    12
 71
     2
 72
     6
 73
     3
 74
     0
 42
0.000000001
 43
0.0000000001
 40
0.0
 40
0.0
 40
0.0
 40
0.6213186892081751
 40
0.6213186892081751
 40
0.6213186892081751
 10
10.02169491692029
 20
-627.9631968074227
 30
377.9346008300781
 41
1.0
 10
10.09157619337384
 20
-617.924427817903
 30
377.9346008300782
 41
0.7078628796196968
 10
0.0529797103386045
 20
-617.8330666200454
 30
377.9346008300781
 41
1.0
  0
SPLINE
  5
5CEF4
330
1F
100
AcDbEntity
  8
Default
100
AcDbSpline
210
-0.0000000000000057
220
0.0000000000000056
230
1.0
 70
    12
 71
     2
 72
     6
 73
     3
 74
     0
 42
0.000000001
 43
0.0000000001
 40
0.0
 40
0.0
 40
0.0
 40
0.6213184385489916
 40
0.6213184385489916
 40
0.6213184385489916
 10
0.0529797103386045
 20
-617.8330666200454
 30
377.9346008300781
 41
1.0
 10
-9.985602094055593
 20
-617.9244422817028
 30
377.9346008300781
 41
0.7078638982414072
 10
-9.915735276065333
 20
-627.9631968251123
 30
377.9346008300781
 41
1.0
  0
SPLINE
  5
5CEF5
330
1F
100
AcDbEntity
  8
Default
100
AcDbSpline
210
0.0
220
0.0
230
1.0
 70
    24
 71
     2
 72
     6
 73
     3
 74
     0
 42
0.000000001
 43
0.0000000001
 40
0.0
 40
0.0
 40
0.0
 40
0.0653749093108864
 40
0.0653749093108864
 40
0.0653749093108864
 10
208.3259537562494
 20
-1243.872182047489
 30
377.9346008300781
 10
207.4956924079975
 20
-1243.872182047489
 30
377.9346008300781
 10
206.6654310597528
 20
-1243.872182047489
 30
377.9346008300781
  0
SPLINE
  5
5CEF6
330
1F
100
AcDbEntity
  8
Default
100
AcDbSpline
210
0.0
220
0.0
230
1.0
 70
    24
 71
     2
 72
     6
 73
     3
 74
     0
 42
0.000000001
 43
0.0000000001
 40
0.0
 40
0.0
 40
0.0
 40
0.071889705667429
 40
0.071889705667429
 40
0.071889705667429
 10
186.6315522801974
 20
-1259.87418204749
 30
377.9346008300781
 10
185.7185530182264
 20
-1259.87418204749
 30
377.9346008300781
 10
184.8055537562482
 20
-1259.87418204749
 30
377.9346008300781
  0
SPLINE
  5
5CEF7
330
1F
100
AcDbEntity
  8
Default
100
AcDbSpline
210
0.0
220
0.0
230
1.0
 70
    24
 71
     2
 72
     6
 73
     3
 74
     0
 42
0.000000001
 43
0.0000000001
 40
0.0
 40
0.0
 40
0.0
 40
0.0653749093108864
 40
0.0653749093108864
 40
0.0653749093108864
 10
184.8055537562482
 20
-1243.872182047489
 30
377.9346008300781
 10
185.6358151045001
 20
-1243.872182047489
 30
377.9346008300781
 10
186.4660764527448
 20
-1243.872182047489
 30
377.9346008300781
  0
SPLINE
  5
5CEF8
330
1F
100
AcDbEntity
  8
Default
100
AcDbSpline
210
0.0
220
0.0
230
1.0
 70
    24
 71
     2
 72
     6
 73
     3
 74
     0
 42
0.000000001
 43
0.0000000001
 40
0.0
 40
0.0
 40
0.0
 40
0.071889705667429
 40
0.071889705667429
 40
0.071889705667429
 10
-186.5255926393497
 20
-1259.87418204749
 30
377.9346008300781
 10
-185.6125933773642
 20
-1259.87418204749
 30
377.9346008300781
 10
-184.6995941153932
 20
-1259.87418204749
 30
377.9346008300781
  0
SPLINE
  5
5CEF9
330
1F
100
AcDbEntity
  8
Default
100
AcDbSpline
210
0.0
220
0.0
230
1.0
 70
    24
 71
     2
 72
     6
 73
     3
 74
     0
 42
0.000000001
 43
0.0000000001
 40
0.0
 40
0.0
 40
0.0
 40
0.0653749093108864
 40
0.0653749093108864
 40
0.0653749093108864
 10
-208.2199941153945
 20
-1243.872182047489
 30
377.9346008300781
 10
-207.3897327671425
 20
-1243.872182047489
 30
377.9346008300781
 10
-206.5594714188978
 20
-1243.872182047489
 30
377.9346008300781
  0
SPLINE
  5
5CEFA
330
1F
100
AcDbEntity
  8
Default
100
AcDbSpline
210
0.0
220
0.0
230
1.0
 70
    24
 71
     2
 72
     6
 73
     3
 74
     0
 42
0.000000001
 43
0.0000000001
 40
0.0
 40
0.0
 40
0.0
 40
0.0653749093108864
 40
0.0653749093108864
 40
0.0653749093108864
 10
-184.6995941153932
 20
-1243.872182047489
 30
377.9346008300781
 10
-185.5298554636379
 20
-1243.872182047489
 30
377.9346008300781
 10
-186.3601168118898
 20
-1243.872182047489
 30
377.9346008300781
  0
SPLINE
  5
5CEFB
330
1F
100
AcDbEntity
  8
Default
100
AcDbSpline
210
0.0
220
0.0
230
1.0
 70
     8
 71
     3
 72
    12
 73
     8
 74
     0
 42
0.000000001
 43
0.0000000001
 40
0.0
 40
0.0
 40
0.0
 40
0.0
 40
1.91838585290454
 40
3.787697327406727
 40
7.628973434916602
 40
11.46360448765835
 40
15.3782305416976
 40
15.3782305416976
 40
15.3782305416976
 40
15.3782305416976
 10
0.0529048843322926
 20
-1153.57368558171
 30
377.9346008300781
 10
16.2946265864316
 20
-1153.58817378819
 30
377.9346008300781
 10
48.36754481845265
 20
-1150.469331442891
 30
377.9346008300781
 10
110.5719567074716
 20
-1132.03021413538
 30
377.9346008300781
 10
179.0724834569205
 20
-1085.894505864662
 30
377.9346008300781
 10
232.7851542463991
 20
-1001.385828343726
 30
377.9346008300781
 10
244.5174836904057
 20
-935.6314351328528
 30
377.9346008300781
 10
244.5276232740375
 20
-902.4910138389058
 30
377.9346008300781
  0
SPLINE
  5
5CEFC
330
1F
100
AcDbEntity
  8
Default
100
AcDbSpline
210
0.0
220
0.0
230
1.0
 70
     8
 71
     3
 72
    12
 73
     8
 74
     0
 42
0.000000001
 43
0.0000000001
 40
-14.91612104830391
 40
-14.91612104830391
 40
-14.91612104830391
 40
-14.91612104830391
 40
-11.23173116836975
 40
-7.52134715466137
 40
-3.77515601886866
 40
-1.889436739208308
 40
0.0
 40
0.0
 40
0.0
 40
0.0
 10
244.5276232740375
 20
-902.4910138389058
 30
377.9346008300781
 10
244.5350057959381
 20
-871.2820336013246
 30
377.9346008300781
 10
231.6707299035129
 20
-808.6878218822349
 30
377.9346008300781
 10
177.0416158749663
 20
-729.4930463777873
 30
377.9346008300781
 10
109.3794542395421
 20
-685.6911200458726
 30
377.9346008300781
 10
48.01305409281622
 20
-667.6431257986332
 30
377.9346008300781
 10
16.0492704672738
 20
-664.556916550724
 30
377.9346008300781
 10
0.0529995918491295
 20
-664.5553988951396
 30
377.9346008300781
  0
SPLINE
  5
5CEFD
330
1F
100
AcDbEntity
  8
Default
100
AcDbSpline
210
0.0
220
0.0
230
1.0
 70
     8
 71
     3
 72
    12
 73
     8
 74
     0
 42
0.000000001
 43
0.0000000001
 40
-14.91612102967629
 40
-14.91612102967629
 40
-14.91612102967629
 40
-14.91612102967629
 40
-11.14156523886652
 40
-7.393161344914191
 40
-3.681958122248531
 40
-1.83908820525715
 40
0.0
 40
0.0
 40
0.0
 40
0.0
 10
0.0529995918491295
 20
-664.5553988951396
 30
377.9346008300781
 10
-31.90467257211867
 20
-664.5603423787033
 30
377.9346008300781
 10
-95.59747692398241
 20
-676.8316469934307
 30
377.9346008300781
 10
-176.9616911423859
 20
-729.5122820085907
 30
377.9346008300781
 10
-222.5600194674321
 20
-795.6433835364751
 30
377.9346008300781
 10
-241.2340685232471
 20
-855.7407123506909
 30
377.9346008300781
 10
-244.4225745318822
 20
-886.896958687279
 30
377.9346008300781
 10
-244.4216963583735
 20
-902.495216471234
 30
377.9346008300781
  0
SPLINE
  5
5CEFE
330
1F
100
AcDbEntity
  8
Default
100
AcDbSpline
210
0.0
220
0.0
230
1.0
 70
     8
 71
     3
 72
    12
 73
     8
 74
     0
 42
0.000000001
 43
0.0000000001
 40
0.0
 40
0.0
 40
0.0
 40
0.0
 40
1.968953222664886
 40
3.918858638804648
 40
7.748286961365543
 40
11.50259787367827
 40
15.37794659634141
 40
15.37794659634141
 40
15.37794659634141
 40
15.37794659634141
 10
-244.4216963583735
 20
-902.495216471234
 30
377.9346008300781
 10
-244.4301393539704
 20
-919.1845496616297
 30
377.9346008300781
 10
-241.4184353780352
 20
-952.3778738077089
 30
377.9346008300781
 10
-223.5544633115992
 20
-1015.775275800784
 30
377.9346008300781
 10
-179.3389475386925
 20
-1085.27402055723
 30
377.9346008300781
 10
-97.44645702878779
 20
-1140.983697117817
 30
377.9346008300781
 10
-32.73866550444518
 20
-1153.575901510112
 30
377.9346008300781
 10
0.0529048843322926
 20
-1153.57368558171
 30
377.9346008300781
  0
SPLINE
  5
5CEFF
330
1F
100
AcDbEntity
  8
Default
100
AcDbSpline
210
0.0
220
0.0
230
1.0
 70
     8
 71
     3
 72
    12
 73
     8
 74
     0
 42
0.000000001
 43
0.0000000001
 40
0.0
 40
0.0
 40
0.0
 40
0.0
 40
2.315241172828345
 40
4.66252058763445
 40
9.309249842901856
 40
13.89761326846572
 40
18.23362376580278
 40
18.23362376580278
 40
18.23362376580278
 40
18.23362376580278
 10
0.0529798204238432
 20
-1270.066806736502
 30
377.9346008300781
 10
-19.56162618780808
 20
-1270.260711238501
 30
377.9346008300781
 10
-59.04454559765008
 20
-1267.723447393671
 30
377.9346008300781
 10
-136.4421633797742
 20
-1251.793113657071
 30
377.9346008300781
 10
-227.1509477731511
 20
-1212.088192737827
 30
377.9346008300781
 10
-316.2066775760309
 20
-1137.530118514196
 30
377.9346008300781
 10
-357.6256470866197
 20
-1073.228135252968
 30
377.9346008300781
 10
-371.7434024590607
 20
-1039.301909510324
 30
377.9346008300781
  0
SPLINE
  5
5CF00
330
1F
100
AcDbEntity
  8
Default
100
AcDbSpline
210
0.0
220
0.0
230
1.0
 70
     8
 71
     3
 72
    12
 73
     8
 74
     0
 42
0.000000001
 43
0.0000000001
 40
-5.0
 40
-5.0
 40
-5.0
 40
-5.0
 40
-4.0
 40
-3.0
 40
-2.0
 40
-1.0
 40
0.0
 40
0.0
 40
0.0
 40
0.0
 10
-371.7434024590607
 20
-1039.301909510324
 30
377.9346008300781
 10
-374.6261817510736
 20
-1032.367760600853
 30
377.9346008300781
 10
-379.7701426335466
 20
-1018.241853194531
 30
377.9346008300781
 10
-385.4121080775426
 20
-996.3964049692348
 30
377.9346008300781
 10
-388.2779672000456
 20
-973.9951800277777
 30
377.9346008300781
 10
-387.0614272481967
 20
-951.3482885424656
 30
377.9346008300781
 10
-382.189408464385
 20
-936.9688782393678
 30
377.9346008300781
 10
-378.6971865179207
 20
-930.3177554768954
 30
377.9346008300781
  0
SPLINE
  5
5CF01
330
1F
100
AcDbEntity
  8
Default
100
AcDbSpline
210
0.0
220
0.0
230
1.0
 70
     8
 71
     3
 72
    24
 73
    20
 74
     0
 42
0.000000001
 43
0.0000000001
 40
0.0
 40
0.0
 40
0.0
 40
0.0
 40
1.0
 40
2.0
 40
3.0
 40
4.0
 40
5.0
 40
6.0
 40
7.0
 40
8.0
 40
9.0
 40
10.0
 40
11.0
 40
12.0
 40
13.0
 40
14.0
 40
15.0
 40
16.0
 40
17.0
 40
17.0
 40
17.0
 40
17.0
 10
-378.6971865179207
 20
-930.3177554768954
 30
377.9346008300781
 10
-374.3244397571966
 20
-921.9654110064821
 30
377.9346008300781
 10
-364.0804994455598
 20
-906.118789563845
 30
377.9346008300781
 10
-347.0183186937561
 20
-883.5654328498913
 30
377.9346008300781
 10
-328.4856407689499
 20
-862.2151475296851
 30
377.9346008300781
 10
-309.8937502097092
 20
-840.9280759715384
 30
377.9346008300781
 10
-291.186392622853
 20
-819.7376845960388
 30
377.9346008300781
 10
-271.9221027905646
 20
-799.0502175169349
 30
377.9346008300781
 10
-252.0382715707297
 20
-778.9575754518501
 30
377.9346008300781
 10
-231.7529499955404
 20
-759.2767799050034
 30
377.9346008300781
 10
-211.811150998305
 20
-739.2323990727327
 30
377.9346008300781
 10
-190.4805328230855
 20
-720.6582554725355
 30
377.9346008300781
 10
-167.8127462739853
 20
-703.7370648546693
 30
377.9346008300781
 10
-143.7997115487583
 20
-688.7780154044667
 30
377.9346008300781
 10
-118.5655926615786
 20
-675.9797154855496
 30
377.9346008300781
 10
-92.23180166169777
 20
-665.6185921456308
 30
377.9346008300781
 10
-64.99648089841366
 20
-657.9290199020997
 30
377.9346008300781
 10
-37.13973044493332
 20
-652.946010939464
 30
377.9346008300781
 10
-9.368709801483873
 20
-651.2072632557665
 30
377.9346008300781
 10
0.0529798204238432
 20
-651.2072632557665
 30
377.9346008300781
  0
SPLINE
  5
5CF02
330
1F
100
AcDbEntity
  8
Default
100
AcDbSpline
210
0.0
220
0.0
230
1.0
 70
     8
 71
     3
 72
    24
 73
    20
 74
     0
 42
0.000000001
 43
0.0000000001
 40
-17.0
 40
-17.0
 40
-17.0
 40
-17.0
 40
-16.0
 40
-15.0
 40
-14.0
 40
-13.0
 40
-12.0
 40
-11.0
 40
-10.0
 40
-9.0
 40
-8.0
 40
-7.0
 40
-6.0
 40
-5.0
 40
-4.0
 40
-3.0
 40
-2.0
 40
-1.0
 40
0.0
 40
0.0
 40
0.0
 40
0.0
 10
0.0529798204238432
 20
-651.2072632557665
 30
377.9346008300781
 10
9.474669442346112
 20
-651.2072632557665
 30
377.9346008300781
 10
37.24569008578828
 20
-652.946010939464
 30
377.9346008300781
 10
65.10244053926863
 20
-657.9290199020997
 30
377.9346008300781
 10
92.33776130254545
 20
-665.6185921456308
 30
377.9346008300781
 10
118.6715523024263
 20
-675.9797154855496
 30
377.9346008300781
 10
143.9056711896132
 20
-688.7780154044667
 30
377.9346008300781
 10
167.918705914833
 20
-703.7370648546693
 30
377.9346008300781
 10
190.5864924639404
 20
-720.6582554725355
 30
377.9346008300781
 10
211.9171106391527
 20
-739.2323990727327
 30
377.9346008300781
 10
231.8589096363953
 20
-759.2767799050034
 30
377.9346008300781
 10
252.1442312115773
 20
-778.9575754518501
 30
377.9346008300781
 10
272.0280624314196
 20
-799.0502175169349
 30
377.9346008300781
 10
291.2923522637079
 20
-819.7376845960388
 30
377.9346008300781
 10
309.9997098505714
 20
-840.9280759715384
 30
377.9346008300781
 10
328.5916004098049
 20
-862.2151475296851
 30
377.9346008300781
 10
347.1242783346111
 20
-883.5654328498913
 30
377.9346008300781
 10
364.1864590864147
 20
-906.118789563845
 30
377.9346008300781
 10
374.4303993980516
 20
-921.9654110064821
 30
377.9346008300781
 10
378.8031461587757
 20
-930.3177554768954
 30
377.9346008300781
  0
SPLINE
  5
5CF03
330
1F
100
AcDbEntity
  8
Default
100
AcDbSpline
210
0.0
220
0.0
230
1.0
 70
     8
 71
     3
 72
    12
 73
     8
 74
     0
 42
0.000000001
 43
0.0000000001
 40
0.0
 40
0.0
 40
0.0
 40
0.0
 40
1.0
 40
2.0
 40
3.0
 40
4.0
 40
5.0
 40
5.0
 40
5.0
 40
5.0
 10
378.8031461587757
 20
-930.3177554768954
 30
377.9346008300781
 10
382.29536810524
 20
-936.9688782393678
 30
377.9346008300781
 10
387.1673868890516
 20
-951.3482885424656
 30
377.9346008300781
 10
388.3839268409006
 20
-973.9951800277777
 30
377.9346008300781
 10
385.5180677183976
 20
-996.3964049692348
 30
377.9346008300781
 10
379.8761022743943
 20
-1018.241853194531
 30
377.9346008300781
 10
374.7321413919285
 20
-1032.367760600853
 30
377.9346008300781
 10
371.8493620999229
 20
-1039.301909510324
 30
377.9346008300781
  0
SPLINE
  5
5CF04
330
1F
100
AcDbEntity
  8
Default
100
AcDbSpline
210
0.0
220
0.0
230
1.0
 70
     8
 71
     3
 72
    12
 73
     8
 74
     0
 42
0.000000001
 43
0.0000000001
 40
-18.23362376580278
 40
-18.23362376580278
 40
-18.23362376580278
 40
-18.23362376580278
 40
-13.89761326846572
 40
-9.309249842901856
 40
-4.66252058763445
 40
-2.315241172828345
 40
0.0
 40
0.0
 40
0.0
 40
0.0
 10
371.8493620999229
 20
-1039.301909510324
 30
377.9346008300781
 10
357.7316067274746
 20
-1073.228135252968
 30
377.9346008300781
 10
316.3126372168786
 20
-1137.530118514196
 30
377.9346008300781
 10
227.2569074140133
 20
-1212.088192737827
 30
377.9346008300781
 10
136.5481230206292
 20
-1251.793113657071
 30
377.9346008300781
 10
59.15050523851232
 20
-1267.723447393671
 30
377.9346008300781
 10
19.66758582866305
 20
-1270.260711238501
 30
377.9346008300781
 10
0.0529798204238432
 20
-1270.066806736502
 30
377.9346008300781
  0
SPLINE
  5
5CF05
330
1F
100
AcDbEntity
  8
Default
100
AcDbSpline
210
0.0
220
0.0
230
1.0
 70
     8
 71
     3
 72
    19
 73
    15
 74
     0
 42
0.000000001
 43
0.0000000001
 40
-12.0
 40
-12.0
 40
-12.0
 40
-12.0
 40
-11.0
 40
-10.0
 40
-9.0
 40
-8.0
 40
-7.0
 40
-6.0
 40
-5.0
 40
-4.0
 40
-3.0
 40
-2.0
 40
-1.0
 40
0.0
 40
0.0
 40
0.0
 40
0.0
 10
216.9095457616945
 20
-744.1847211586664
 30
377.9346008300781
 10
233.7376524555379
 20
-760.5969897668765
 30
377.9346008300781
 10
268.095614031919
 20
-792.4966221694648
 30
377.9346008300781
 10
319.5103879550238
 20
-841.1745199803409
 30
377.9346008300781
 10
363.3797366836675
 20
-895.3546736906664
 30
377.9346008300781
 10
404.8843635442621
 20
-956.2832860169528
 30
377.9346008300781
 10
390.4729703151256
 20
-1029.263038745694
 30
377.9346008300781
 10
359.5737819101719
 20
-1092.187980056171
 30
377.9346008300781
 10
316.3898216552566
 20
-1148.517598695358
 30
377.9346008300781
 10
263.8152634284138
 20
-1195.772154055545
 30
377.9346008300781
 10
204.0766291887062
 20
-1233.60854900951
 30
377.9346008300781
 10
139.0728604981354
 20
-1261.373342565968
 30
377.9346008300781
 10
70.51034877953634
 20
-1278.582686963755
 30
377.9346008300781
 10
23.54509051020568
 20
-1282.57712394947
 30
377.9346008300781
 10
0.0529798204238432
 20
-1282.58135745411
 30
377.9346008300781
  0
SPLINE
  5
5CF06
330
1F
100
AcDbEntity
  8
Default
100
AcDbSpline
210
0.0
220
0.0
230
1.0
 70
     8
 71
     3
 72
    19
 73
    15
 74
     0
 42
0.000000001
 43
0.0000000001
 40
0.0
 40
0.0
 40
0.0
 40
0.0
 40
1.0
 40
2.0
 40
3.0
 40
4.0
 40
5.0
 40
6.0
 40
7.0
 40
8.0
 40
9.0
 40
10.0
 40
11.0
 40
12.0
 40
12.0
 40
12.0
 40
12.0
 10
0.0529798204238432
 20
-1282.58135745411
 30
377.9346008300781
 10
-23.43913086935072
 20
-1282.57712394947
 30
377.9346008300781
 10
-70.40438913867411
 20
-1278.582686963755
 30
377.9346008300781
 10
-138.9669008572805
 20
-1261.373342565968
 30
377.9346008300781
 10
-203.9706695478585
 20
-1233.60854900951
 30
377.9346008300781
 10
-263.7093037875516
 20
-1195.772154055545
 30
377.9346008300781
 10
-316.2838620144016
 20
-1148.517598695358
 30
377.9346008300781
 10
-359.4678222693169
 20
-1092.187980056171
 30
377.9346008300781
 10
-390.3670106742707
 20
-1029.263038745694
 30
377.9346008300781
 10
-404.7784039034072
 20
-956.2832860169528
 30
377.9346008300781
 10
-363.2737770428125
 20
-895.3546736906664
 30
377.9346008300781
 10
-319.4044283141616
 20
-841.1745199803409
 30
377.9346008300781
 10
-267.989654391064
 20
-792.4966221694648
 30
377.9346008300781
 10
-233.631692814683
 20
-760.5969897668765
 30
377.9346008300781
 10
-216.8035861208395
 20
-744.1847211586664
 30
377.9346008300781
  0
ARC
  5
5CF07
330
1F
100
AcDbEntity
  8
Default
100
AcDbCircle
 10
-399.1790803220488
 20
-1514.444687571582
 30
377.9346008300781
 40
963.8493256671051
100
AcDbArc
 50
48.08363063851485
 51
52.51276003193115
  0
SPLINE
  5
5CF08
330
1F
100
AcDbEntity
  8
Default
100
AcDbSpline
210
0.0
220
0.0
230
1.0
 70
     8
 71
     3
 72
    19
 73
    15
 74
     0
 42
0.000000001
 43
0.0000000001
 40
0.0000000000000001
 40
0.0000000000000001
 40
0.0000000000000001
 40
0.0000000000000001
 40
1.0
 40
2.0
 40
3.0
 40
4.0
 40
5.0
 40
6.0
 40
7.0
 40
8.0
 40
9.0
 40
10.0
 40
11.0
 40
12.0
 40
12.0
 40
12.0
 40
12.0
 10
244.7158134939978
 20
-797.2244366677514
 30
377.9346008300781
 10
250.6453817684755
 20
-802.5477926796048
 30
377.9346008300781
 10
262.4046842450202
 20
-813.3056707004106
 30
377.9346008300781
 10
279.6462517083796
 20
-829.8694337355646
 30
377.9346008300781
 10
296.269521757627
 20
-847.0541914927107
 30
377.9346008300781
 10
312.4295972578416
 20
-864.671852083873
 30
377.9346008300781
 10
328.5313556704873
 20
-882.3385188380743
 30
377.9346008300781
 10
343.8434489381484
 20
-900.7296286787314
 30
377.9346008300781
 10
357.7179892453291
 20
-920.1579243452888
 30
377.9346008300781
 10
370.0399091305749
 20
-940.8864284774608
 30
377.9346008300781
 10
374.8542208407102
 20
-964.5977387771964
 30
377.9346008300781
 10
374.1893511891626
 20
-988.5878976720887
 30
377.9346008300781
 10
369.4714332189774
 20
-1012.09365791144
 30
377.9346008300781
 10
364.3025637101541
 20
-1027.198977460352
 30
377.9346008300781
 10
361.3176032972419
 20
-1034.586686282246
 30
377.9346008300781
  0
ARC
  5
5CF09
330
1F
100
AcDbEntity
  8
Default
100
AcDbCircle
 10
399.2848900907134
 20
-1514.444687571582
 30
377.9346008300781
 40
963.8493256671051
100
AcDbArc
 50
127.4872399680689
 51
131.9163693614851
  0
SPLINE
  5
5CF0A
330
1F
100
AcDbEntity
  8
Default
100
AcDbSpline
210
0.0
220
0.0
230
1.0
 70
     8
 71
     3
 72
    19
 73
    15
 74
     0
 42
0.000000001
 43
0.0000000001
 40
0.0000000000000001
 40
0.0000000000000001
 40
0.0000000000000001
 40
0.0000000000000001
 40
1.0
 40
2.0
 40
3.0
 40
4.0
 40
5.0
 40
6.0
 40
7.0
 40
8.0
 40
9.0
 40
10.0
 40
11.0
 40
12.0
 40
12.0
 40
12.0
 40
12.0
 10
-244.6100037253332
 20
-797.2244366677514
 30
377.9346008300781
 10
-250.539571999811
 20
-802.5477926796048
 30
377.9346008300781
 10
-262.2988744763629
 20
-813.3056707004106
 30
377.9346008300781
 10
-279.540441939715
 20
-829.8694337355646
 30
377.9346008300781
 10
-296.1637119889624
 20
-847.0541914927107
 30
377.9346008300781
 10
-312.323787489177
 20
-864.671852083873
 30
377.9346008300781
 10
-328.4255459018227
 20
-882.3385188380743
 30
377.9346008300781
 10
-343.7376391694838
 20
-900.7296286787314
 30
377.9346008300781
 10
-357.6121794766573
 20
-920.1579243452888
 30
377.9346008300781
 10
-369.9340993619103
 20
-940.8864284774608
 30
377.9346008300781
 10
-374.7484110720457
 20
-964.5977387771964
 30
377.9346008300781
 10
-374.083541420498
 20
-988.5878976720887
 30
377.9346008300781
 10
-369.3656234503055
 20
-1012.09365791144
 30
377.9346008300781
 10
-364.1967539414896
 20
-1027.198977460352
 30
377.9346008300781
 10
-361.2117935285774
 20
-1034.586686282246
 30
377.9346008300781
  0
POLYLINE
  5
5CF0B
330
1F
100
AcDbEntity
  8
Default
100
AcDb2dPolyline
 66
     1
 10
0.0
 20
0.0
 30
377.9346008300781
  0
VERTEX
  5
5CF0C
330
5CF0B
100
AcDbEntity
  8
Default
100
AcDbVertex
100
AcDb2dVertex
 10
26.34197982042815
 20
-652.5093946507332
 30
377.9346008300781
  0
VERTEX
  5
5CF0D
330
5CF0B
100
AcDbEntity
  8
Default
100
AcDbVertex
100
AcDb2dVertex
 10
26.34197982042815
 20
-618.3670529350783
 30
377.9346008300781
  0
SEQEND
  5
5CF0E
330
5CF0B
100
AcDbEntity
  8
Default
  0
SPLINE
  5
5CF0F
330
1F
100
AcDbEntity
  8
Default
100
AcDbSpline
210
0.0
220
0.0
230
1.0
 70
    12
 71
     2
 72
     6
 73
     3
 74
     0
 42
0.000000001
 43
0.0000000001
 40
0.0
 40
0.0
 40
0.0
 40
0.2355890798875016
 40
0.2355890798875016
 40
0.2355890798875016
 10
26.34197982042815
 20
-618.3670529350783
 30
377.9346008300781
 41
1.0
 10
26.34018263941971
 20
-614.5588501160491
 30
377.9346008300781
 41
0.707440409735664
 10
22.5319798204232
 20
-614.5570528606058
 30
377.9346008300781
 41
1.0
  0
SPLINE
  5
5CF10
330
1F
100
AcDbEntity
  8
Default
100
AcDbSpline
210
0.0
220
0.0
230
1.0
 70
    24
 71
     2
 72
     6
 73
     3
 74
     0
 42
0.000000001
 43
0.0000000001
 40
0.0
 40
0.0
 40
0.0
 40
0.3520000000000003
 40
0.3520000000000003
 40
0.3520000000000003
 10
22.5319798204232
 20
-614.5570528606058
 30
377.9346008300781
 10
18.06157982042487
 20
-614.5570528606058
 30
377.9346008300781
 10
13.59117982042653
 20
-614.5570528606058
 30
377.9346008300781
  0
SPLINE
  5
5CF11
330
1F
100
AcDbEntity
  8
Default
100
AcDbSpline
210
0.0
220
0.0
230
1.0
 70
    12
 71
     2
 72
     6
 73
     3
 74
     0
 42
0.000000001
 43
0.0000000001
 40
0.0
 40
0.0
 40
0.0
 40
0.1098876245644455
 40
0.1098876245644455
 40
0.1098876245644455
 10
13.59117982042653
 20
-614.5570528606058
 30
377.9346008300781
 41
1.0
 10
11.81720957590869
 20
-614.5610826880528
 30
377.9346008300781
 41
0.7087112325863247
 10
11.8131798204281
 20
-616.3350529327417
 30
377.9346008300781
 41
1.0
  0
POLYLINE
  5
5CF12
330
1F
100
AcDbEntity
  8
Default
100
AcDb2dPolyline
 66
     1
 10
0.0
 20
0.0
 30
377.9346008300781
  0
VERTEX
  5
5CF13
330
5CF12
100
AcDbEntity
  8
Default
100
AcDbVertex
100
AcDb2dVertex
 10
11.8131798204281
 20
-616.3350529327417
 30
377.9346008300781
  0
VERTEX
  5
5CF14
330
5CF12
100
AcDbEntity
  8
Default
100
AcDbVertex
100
AcDb2dVertex
 10
11.8131798204281
 20
-651.5311337280145
 30
377.9346008300781
  0
SEQEND
  5
5CF15
330
5CF12
100
AcDbEntity
  8
Default
  0
SPLINE
  5
5CF16
330
1F
100
AcDbEntity
  8
Default
100
AcDbSpline
210
0.0
220
0.0
230
1.0
 70
    12
 71
     2
 72
     6
 73
     3
 74
     0
 42
0.000000001
 43
0.0000000001
 40
-0.3669232257852178
 40
-0.3669232257852178
 40
-0.3669232257852178
 40
0.0
 40
0.0
 40
0.0
 10
9.566783969699372
 20
-651.4296949331801
 30
377.9346008300781
 41
0.999999991999253
 10
9.514089827427142
 20
-646.7700680683956
 30
377.9346008300781
 41
0.9999999958523481
 10
9.461555628311089
 20
-642.1104393976129
 30
377.9346008300781
 41
1.0
  0
SPLINE
  5
5CF17
330
1F
100
AcDbEntity
  8
Default
100
AcDbSpline
210
0.0
220
0.0
230
1.0
 70
     8
 71
     3
 72
    11
 73
     7
 74
     0
 42
0.000000001
 43
0.0000000001
 40
-0.5061957594563899
 40
-0.5061957594563899
 40
-0.5061957594563899
 40
-0.5061957594563899
 40
-0.2779307972340258
 40
-0.1436576036068027
 40
-0.0724650654421722
 40
0.0
 40
0.0
 40
0.0
 40
0.0
 10
9.461555628311089
 20
-642.1104393976129
 30
377.9346008300781
 10
9.468896850057262
 20
-640.1206510493757
 30
377.9346008300781
 10
7.554648522994739
 20
-637.3849287181401
 30
377.9346008300781
 10
4.186900553607756
 20
-635.8507959389644
 30
377.9346008300781
 10
1.883086250405085
 20
-635.3240011730158
 30
377.9346008300781
 10
0.6664333511303085
 20
-635.2495581521252
 30
377.9346008300781
 10
0.0529798204238432
 20
-635.2453479993019
 30
377.9346008300781
  0
SPLINE
  5
5CF18
330
1F
100
AcDbEntity
  8
Default
100
AcDbSpline
210
0.0
220
0.0
230
1.0
 70
     8
 71
     3
 72
    11
 73
     7
 74
     0
 42
0.000000001
 43
0.0000000001
 40
0.0
 40
0.0
 40
0.0
 40
0.0
 40
0.0724650654421701
 40
0.143657603606799
 40
0.2779307972340275
 40
0.5061957594563471
 40
0.5061957594563471
 40
0.5061957594563471
 40
0.5061957594563471
 10
0.0529798204238432
 20
-635.2453479993019
 30
377.9346008300781
 10
-0.5604737102753461
 20
-635.2495581521252
 30
377.9346008300781
 10
-1.777126609557399
 20
-635.3240011730177
 30
377.9346008300781
 10
-4.080940912752794
 20
-635.8507959389644
 30
377.9346008300781
 10
-7.448688882132501
 20
-637.3849287181401
 30
377.9346008300781
 10
-9.3629372092023
 20
-640.1206510493794
 30
377.9346008300781
 10
-9.355595987441574
 20
-642.1104393976129
 30
377.9346008300781
  0
SPLINE
  5
5CF19
330
1F
100
AcDbEntity
  8
Default
100
AcDbSpline
210
0.0
220
0.0
230
1.0
 70
    12
 71
     2
 72
     6
 73
     3
 74
     0
 42
0.000000001
 43
0.0000000001
 40
0.0
 40
0.0
 40
0.0
 40
0.3669232203978866
 40
0.3669232203978866
 40
0.3669232203978866
 10
-9.355595987441574
 20
-642.1104393976129
 30
377.9346008300781
 41
1.0
 10
-9.408128221481547
 20
-646.7700680195739
 30
377.9346008300781
 41
0.9999999957871185
 10
-9.46082165078269
 20
-651.4296948214487
 30
377.9346008300781
 41
0.9999999918734237
  0
POLYLINE
  5
5CF1A
330
1F
100
AcDbEntity
  8
Default
100
AcDb2dPolyline
 66
     1
 10
0.0
 20
0.0
 30
377.9346008300781
  0
VERTEX
  5
5CF1B
330
5CF1A
100
AcDbEntity
  8
Default
100
AcDbVertex
100
AcDb2dVertex
 10
-26.23602017957319
 20
-652.5093946507332
 30
377.9346008300781
  0
VERTEX
  5
5CF1C
330
5CF1A
100
AcDbEntity
  8
Default
100
AcDbVertex
100
AcDb2dVertex
 10
-26.23602017957319
 20
-618.3670529350783
 30
377.9346008300781
  0
SEQEND
  5
5CF1D
330
5CF1A
100
AcDbEntity
  8
Default
  0
SPLINE
  5
5CF1E
330
1F
100
AcDbEntity
  8
Default
100
AcDbSpline
210
0.0
220
0.0
230
1.0
 70
    12
 71
     2
 72
     6
 73
     3
 74
     0
 42
0.000000001
 43
0.0000000001
 40
0.0
 40
0.0
 40
0.0
 40
0.2355890798875016
 40
0.2355890798875016
 40
0.2355890798875016
 10
-26.23602017957319
 20
-618.3670529350783
 30
377.9346008300781
 41
1.0
 10
-26.23422299856475
 20
-614.5588501160491
 30
377.9346008300781
 41
0.707440409735664
 10
-22.42602017957552
 20
-614.5570528606058
 30
377.9346008300781
 41
1.0
  0
SPLINE
  5
5CF1F
330
1F
100
AcDbEntity
  8
Default
100
AcDbSpline
210
0.0
220
0.0
230
1.0
 70
    24
 71
     2
 72
     6
 73
     3
 74
     0
 42
0.000000001
 43
0.0000000001
 40
0.0
 40
0.0
 40
0.0
 40
0.3520000000000003
 40
0.3520000000000003
 40
0.3520000000000003
 10
-22.42602017957552
 20
-614.5570528606058
 30
377.9346008300781
 10
-17.95562017957718
 20
-614.5570528606058
 30
377.9346008300781
 10
-13.48522017957157
 20
-614.5570528606058
 30
377.9346008300781
  0
SPLINE
  5
5CF20
330
1F
100
AcDbEntity
  8
Default
100
AcDbSpline
210
0.0
220
0.0
230
1.0
 70
    12
 71
     2
 72
     6
 73
     3
 74
     0
 42
0.000000001
 43
0.0000000001
 40
0.0
 40
0.0
 40
0.0
 40
0.1098876245644455
 40
0.1098876245644455
 40
0.1098876245644455
 10
-13.48522017957157
 20
-614.5570528606058
 30
377.9346008300781
 41
1.0
 10
-11.71124993504645
 20
-614.5610826880528
 30
377.9346008300781
 41
0.7087112325863247
 10
-11.70722017957314
 20
-616.3350529327417
 30
377.9346008300781
 41
1.0
  0
POLYLINE
  5
5CF21
330
1F
100
AcDbEntity
  8
Default
100
AcDb2dPolyline
 66
     1
 10
0.0
 20
0.0
 30
377.9346008300781
  0
VERTEX
  5
5CF22
330
5CF21
100
AcDbEntity
  8
Default
100
AcDbVertex
100
AcDb2dVertex
 10
-11.70722017957314
 20
-616.3350529327417
 30
377.9346008300781
  0
VERTEX
  5
5CF23
330
5CF21
100
AcDbEntity
  8
Default
100
AcDbVertex
100
AcDb2dVertex
 10
-11.70722017957314
 20
-651.5311337280145
 30
377.9346008300781
  0
SEQEND
  5
5CF24
330
5CF21
100
AcDbEntity
  8
Default
  0
LINE
  5
5CF25
330
1F
100
AcDbEntity
  8
Default
100
AcDbLine
 10
-9.954616119647198
 20
-651.4506786365436
 30
377.9346008300781
 11
-9.954619902985086
 21
-629.1799329084751
 31
377.9346008300781
  0
ARC
  5
5CF26
330
1F
100
AcDbEntity
  8
Default
100
AcDbCircle
 10
89295475.51902734
 20
-613.9185106137556
 30
377.9346008300781
 40
89295485.47364856
100
AcDbArc
 50
180.0000012526251
 51
180.0000097923939
  0
SPLINE
  5
5CF27
330
1F
100
AcDbEntity
  8
Default
100
AcDbSpline
210
0.0
220
0.0
230
1.0
 70
    12
 71
     2
 72
     6
 73
     3
 74
     0
 42
0.000000001
 43
0.0000000001
 40
0.0
 40
0.0
 40
0.0
 40
0.0784842030870699
 40
0.0784842030870699
 40
0.0784842030870699
 10
-9.954621208633852
 20
-615.8707073437962
 30
377.9346008300781
 41
1.0
 10
-9.953701060460389
 20
-614.6016265003309
 30
377.9346008300781
 41
0.7071217743558634
 10
-8.684620179561989
 20
-614.6024823530733
 30
377.9346008300781
 41
1.0
  0
POLYLINE
  5
5CF28
330
1F
100
AcDbEntity
  8
Default
100
AcDb2dPolyline
 66
     1
 10
0.0
 20
0.0
 30
377.9346008300781
  0
VERTEX
  5
5CF29
330
5CF28
100
AcDbEntity
  8
Default
100
AcDbVertex
100
AcDb2dVertex
 10
-8.684620179561989
 20
-614.6024823530733
 30
377.9346008300781
  0
VERTEX
  5
5CF2A
330
5CF28
100
AcDbEntity
  8
Default
100
AcDbVertex
100
AcDb2dVertex
 10
8.790579820416951
 20
-614.6024823530733
 30
377.9346008300781
  0
SEQEND
  5
5CF2B
330
5CF28
100
AcDbEntity
  8
Default
  0
SPLINE
  5
5CF2C
330
1F
100
AcDbEntity
  8
Default
100
AcDbSpline
210
0.0
220
0.0
230
1.0
 70
    12
 71
     2
 72
     6
 73
     3
 74
     0
 42
0.000000001
 43
0.0000000001
 40
-0.0784842030870699
 40
-0.0784842030870699
 40
-0.0784842030870699
 40
0.0
 40
0.0
 40
0.0
 10
8.790579820416951
 20
-614.6024823530733
 30
377.9346008300781
 41
1.0
 10
10.05966070131535
 20
-614.6016265003309
 30
377.9346008300781
 41
0.7071217743558634
 10
10.06058084948881
 20
-615.8707073437962
 30
377.9346008300781
 41
1.0
  0
ARC
  5
5CF2D
330
1F
100
AcDbEntity
  8
Default
100
AcDbCircle
 10
-89295475.41306769
 20
-613.9185106137556
 30
377.9346008300781
 40
89295485.47364856
100
AcDbArc
 50
359.999990207606
 51
359.9999987473748
  0
LINE
  5
5CF2E
330
1F
100
AcDbEntity
  8
Default
100
AcDbLine
 10
10.06057954383277
 20
-629.1799329084751
 30
377.9346008300781
 11
10.06057576050216
 21
-651.4506786368237
 31
377.9346008300781
  0
POLYLINE
  5
5CF2F
330
1F
100
AcDbEntity
  8
Default
100
AcDb2dPolyline
 66
     1
 10
0.0
 20
0.0
 30
377.9346008300781
  0
VERTEX
  5
5CF30
330
5CF2F
100
AcDbEntity
  8
Default
100
AcDbVertex
100
AcDb2dVertex
 10
-344.2003676311129
 20
-872.2930300351581
 30
377.9346008300781
  0
VERTEX
  5
5CF31
330
5CF2F
100
AcDbEntity
  8
Default
100
AcDbVertex
100
AcDb2dVertex
 10
-344.2003676311129
 20
-849.3816737482447
 30
377.9346008300781
  0
SEQEND
  5
5CF32
330
5CF2F
100
AcDbEntity
  8
Default
  0
SPLINE
  5
5CF33
330
1F
100
AcDbEntity
  8
Default
100
AcDbSpline
210
0.0
220
0.0
230
1.0
 70
    12
 71
     2
 72
     6
 73
     3
 74
     0
 42
0.000000001
 43
0.0000000001
 40
0.0
 40
0.0
 40
0.0
 40
0.2355890798875016
 40
0.2355890798875016
 40
0.2355890798875016
 10
-344.2003676311129
 20
-849.3816737482447
 30
377.9346008300781
 41
1.0
 10
-344.1985704501044
 20
-845.5734709292155
 30
377.9346008300781
 41
0.707440409735664
 10
-340.3903676311152
 20
-845.5716736737722
 30
377.9346008300781
 41
1.0
  0
SPLINE
  5
5CF34
330
1F
100
AcDbEntity
  8
Default
100
AcDbSpline
210
0.0
220
0.0
230
1.0
 70
    24
 71
     2
 72
     6
 73
     3
 74
     0
 42
0.000000001
 43
0.0000000001
 40
0.0
 40
0.0
 40
0.0
 40
0.3520000000000003
 40
0.3520000000000003
 40
0.3520000000000003
 10
-340.3903676311152
 20
-845.5716736737722
 30
377.9346008300781
 10
-335.9199676311168
 20
-845.5716736737722
 30
377.9346008300781
 10
-331.4495676311185
 20
-845.5716736737722
 30
377.9346008300781
  0
SPLINE
  5
5CF35
330
1F
100
AcDbEntity
  8
Default
100
AcDbSpline
210
0.0
220
0.0
230
1.0
 70
    12
 71
     2
 72
     6
 73
     3
 74
     0
 42
0.000000001
 43
0.0000000001
 40
0.0
 40
0.0
 40
0.0
 40
0.1098876245644455
 40
0.1098876245644455
 40
0.1098876245644455
 10
-331.4495676311185
 20
-845.5716736737722
 30
377.9346008300781
 41
1.0
 10
-329.6755973865861
 20
-845.5757035012194
 30
377.9346008300781
 41
0.7087112325863247
 10
-329.6715676311128
 20
-847.3496737459081
 30
377.9346008300781
 41
1.0
  0
POLYLINE
  5
5CF36
330
1F
100
AcDbEntity
  8
Default
100
AcDb2dPolyline
 66
     1
 10
0.0
 20
0.0
 30
377.9346008300781
  0
VERTEX
  5
5CF37
330
5CF36
100
AcDbEntity
  8
Default
100
AcDbVertex
100
AcDb2dVertex
 10
-329.6715676311128
 20
-847.3496737459081
 30
377.9346008300781
  0
VERTEX
  5
5CF38
330
5CF36
100
AcDbEntity
  8
Default
100
AcDbVertex
100
AcDb2dVertex
 10
-329.6715676311128
 20
-854.935928662795
 30
377.9346008300781
  0
SEQEND
  5
5CF39
330
5CF36
100
AcDbEntity
  8
Default
  0
POLYLINE
  5
5CF3A
330
1F
100
AcDbEntity
  8
Default
100
AcDb2dPolyline
 66
     1
 10
0.0
 20
0.0
 30
377.9346008300781
  0
VERTEX
  5
5CF3B
330
5CF3A
100
AcDbEntity
  8
Default
100
AcDbVertex
100
AcDb2dVertex
 10
208.3259537562494
 20
-1229.190056061457
 30
377.9346008300781
  0
VERTEX
  5
5CF3C
330
5CF3A
100
AcDbEntity
  8
Default
100
AcDbVertex
100
AcDb2dVertex
 10
208.3259537562494
 20
-1282.607181975352
 30
377.9346008300781
  0
SEQEND
  5
5CF3D
330
5CF3A
100
AcDbEntity
  8
Default
  0
SPLINE
  5
5CF3E
330
1F
100
AcDbEntity
  8
Default
100
AcDbSpline
210
0.0
220
0.0
230
1.0
 70
    12
 71
     2
 72
     6
 73
     3
 74
     0
 42
0.000000001
 43
0.0000000001
 40
0.0
 40
0.0
 40
0.0
 40
0.109941564851661
 40
0.109941564851661
 40
0.109941564851661
 10
208.3259537562494
 20
-1282.607181975352
 30
377.9346008300781
 41
1.0
 10
208.3267928313957
 20
-1284.384342900237
 30
377.9346008300781
 41
0.7074405726109262
 10
210.1039537562479
 20
-1284.38518204749
 30
377.9346008300781
 41
1.0
  0
SPLINE
  5
5CF3F
330
1F
100
AcDbEntity
  8
Default
100
AcDbSpline
210
0.0
220
0.0
230
1.0
 70
    24
 71
     2
 72
     6
 73
     3
 74
     0
 42
0.000000001
 43
0.0000000001
 40
0.0
 40
0.0
 40
0.0
 40
0.3520000000000003
 40
0.3520000000000003
 40
0.3520000000000003
 10
210.1039537562479
 20
-1284.38518204749
 30
377.9346008300781
 10
214.5743537562462
 20
-1284.38518204749
 30
377.9346008300781
 10
219.0447537562518
 20
-1284.38518204749
 30
377.9346008300781
  0
SPLINE
  5
5CF40
330
1F
100
AcDbEntity
  8
Default
100
AcDbSpline
210
-0.0000000000000149
220
0.0000000000000149
230
1.0
 70
    12
 71
     2
 72
     6
 73
     3
 74
     0
 42
0.000000001
 43
0.0000000001
 40
0.0
 40
0.0
 40
0.0
 40
0.2356186331260159
 40
0.2356186331260159
 40
0.2356186331260159
 10
219.0447537562518
 20
-1284.38518204749
 30
377.9346008300781
 41
1.0
 10
222.8547053732778
 20
-1284.385133590042
 30
377.9346008300782
 41
0.7071157676638843
 10
222.8547537562495
 20
-1280.575181973016
 30
377.9346008300781
 41
1.0
  0
POLYLINE
  5
5CF41
330
1F
100
AcDbEntity
  8
Default
100
AcDb2dPolyline
 66
     1
 10
0.0
 20
0.0
 30
377.9346008300781
  0
VERTEX
  5
5CF42
330
5CF41
100
AcDbEntity
  8
Default
100
AcDbVertex
100
AcDb2dVertex
 10
222.8547537562495
 20
-1280.575181973016
 30
377.9346008300781
  0
VERTEX
  5
5CF43
330
5CF41
100
AcDbEntity
  8
Default
100
AcDbVertex
100
AcDb2dVertex
 10
222.8547537562495
 20
-1223.171182121963
 30
377.9346008300781
  0
SEQEND
  5
5CF44
330
5CF41
100
AcDbEntity
  8
Default
  0
SPLINE
  5
5CF45
330
1F
100
AcDbEntity
  8
Default
100
AcDbSpline
210
0.0
220
0.0
230
1.0
 70
    12
 71
     2
 72
     6
 73
     3
 74
     0
 42
0.000000001
 43
0.0000000001
 40
0.0
 40
0.0
 40
0.0
 40
0.0812712606071793
 40
0.0812712606071793
 40
0.0812712606071793
 10
222.8547537562495
 20
-1223.171182121963
 30
377.9346008300781
 41
1.0
 10
222.8542659275859
 20
-1222.137479631151
 30
377.9346008300781
 41
0.8990755992813575
 10
222.331602222484
 20
-1221.245647960457
 30
377.9346008300781
 41
0.8677830616044564
  0
POLYLINE
  5
5CF46
330
1F
100
AcDbEntity
  8
Default
100
AcDb2dPolyline
 66
     1
 10
0.0
 20
0.0
 30
377.9346008300781
  0
VERTEX
  5
5CF47
330
5CF46
100
AcDbEntity
  8
Default
100
AcDbVertex
100
AcDb2dVertex
 10
-208.2199941153945
 20
-1229.190056061457
 30
377.9346008300781
  0
VERTEX
  5
5CF48
330
5CF46
100
AcDbEntity
  8
Default
100
AcDbVertex
100
AcDb2dVertex
 10
-208.2199941153945
 20
-1282.607181975352
 30
377.9346008300781
  0
SEQEND
  5
5CF49
330
5CF46
100
AcDbEntity
  8
Default
  0
SPLINE
  5
5CF4A
330
1F
100
AcDbEntity
  8
Default
100
AcDbSpline
210
0.0
220
0.0
230
1.0
 70
    12
 71
     2
 72
     6
 73
     3
 74
     0
 42
0.000000001
 43
0.0000000001
 40
0.0
 40
0.0
 40
0.0
 40
0.109941564851661
 40
0.109941564851661
 40
0.109941564851661
 10
-208.2199941153945
 20
-1282.607181975352
 30
377.9346008300781
 41
1.0
 10
-208.2208331905413
 20
-1284.384342900237
 30
377.9346008300781
 41
0.7074405726109262
 10
-209.9979941153929
 20
-1284.38518204749
 30
377.9346008300781
 41
1.0
  0
SPLINE
  5
5CF4B
330
1F
100
AcDbEntity
  8
Default
100
AcDbSpline
210
0.0
220
0.0
230
1.0
 70
    24
 71
     2
 72
     6
 73
     3
 74
     0
 42
0.000000001
 43
0.0000000001
 40
0.0
 40
0.0
 40
0.0
 40
0.3520000000000003
 40
0.3520000000000003
 40
0.3520000000000003
 10
-209.9979941153929
 20
-1284.38518204749
 30
377.9346008300781
 10
-214.4683941153912
 20
-1284.38518204749
 30
377.9346008300781
 10
-218.9387941153896
 20
-1284.38518204749
 30
377.9346008300781
  0
SPLINE
  5
5CF4C
330
1F
100
AcDbEntity
  8
Default
100
AcDbSpline
210
0.0000000000000149
220
0.0000000000000149
230
1.0
 70
    12
 71
     2
 72
     6
 73
     3
 74
     0
 42
0.000000001
 43
0.0000000001
 40
0.0
 40
0.0
 40
0.0
 40
0.2356186331260159
 40
0.2356186331260159
 40
0.2356186331260159
 10
-218.9387941153896
 20
-1284.38518204749
 30
377.9346008300781
 41
1.0
 10
-222.7487457324159
 20
-1284.385133590042
 30
377.9346008300782
 41
0.7071157676638843
 10
-222.7487941153945
 20
-1280.575181973016
 30
377.9346008300781
 41
1.0
  0
POLYLINE
  5
5CF4D
330
1F
100
AcDbEntity
  8
Default
100
AcDb2dPolyline
 66
     1
 10
0.0
 20
0.0
 30
377.9346008300781
  0
VERTEX
  5
5CF4E
330
5CF4D
100
AcDbEntity
  8
Default
100
AcDbVertex
100
AcDb2dVertex
 10
-222.7487941153945
 20
-1280.575181973016
 30
377.9346008300781
  0
VERTEX
  5
5CF4F
330
5CF4D
100
AcDbEntity
  8
Default
100
AcDbVertex
100
AcDb2dVertex
 10
-222.7487941153945
 20
-1223.171182121963
 30
377.9346008300781
  0
SEQEND
  5
5CF50
330
5CF4D
100
AcDbEntity
  8
Default
  0
SPLINE
  5
5CF51
330
1F
100
AcDbEntity
  8
Default
100
AcDbSpline
210
0.0
220
0.0
230
1.0
 70
    12
 71
     2
 72
     6
 73
     3
 74
     0
 42
0.000000001
 43
0.0000000001
 40
0.0
 40
0.0
 40
0.0
 40
0.0812712606071793
 40
0.0812712606071793
 40
0.0812712606071793
 10
-222.7487941153945
 20
-1223.171182121963
 30
377.9346008300781
 41
1.0
 10
-222.7483062867309
 20
-1222.137479631151
 30
377.9346008300781
 41
0.8990755992813575
 10
-222.225642581629
 20
-1221.245647960457
 30
377.9346008300781
 41
0.8677830616044564
  0
POLYLINE
  5
5CF52
330
1F
100
AcDbEntity
  8
Default
100
AcDb2dPolyline
 66
     1
 10
0.0
 20
0.0
 30
377.9346008300781
  0
VERTEX
  5
5CF53
330
5CF52
100
AcDbEntity
  8
Default
100
AcDbVertex
100
AcDb2dVertex
 10
344.3063272719678
 20
-872.2930300351581
 30
377.9346008300781
  0
VERTEX
  5
5CF54
330
5CF52
100
AcDbEntity
  8
Default
100
AcDbVertex
100
AcDb2dVertex
 10
344.3063272719678
 20
-849.3816737482447
 30
377.9346008300781
  0
SEQEND
  5
5CF55
330
5CF52
100
AcDbEntity
  8
Default
  0
SPLINE
  5
5CF56
330
1F
100
AcDbEntity
  8
Default
100
AcDbSpline
210
0.0
220
0.0
230
1.0
 70
    12
 71
     2
 72
     6
 73
     3
 74
     0
 42
0.000000001
 43
0.0000000001
 40
0.0
 40
0.0
 40
0.0
 40
0.2355890798875016
 40
0.2355890798875016
 40
0.2355890798875016
 10
344.3063272719678
 20
-849.3816737482447
 30
377.9346008300781
 41
1.0
 10
344.3045300909667
 20
-845.5734709292155
 30
377.9346008300781
 41
0.707440409735664
 10
340.4963272719701
 20
-845.5716736737722
 30
377.9346008300781
 41
1.0
  0
SPLINE
  5
5CF57
330
1F
100
AcDbEntity
  8
Default
100
AcDbSpline
210
0.0
220
0.0
230
1.0
 70
    24
 71
     2
 72
     6
 73
     3
 74
     0
 42
0.000000001
 43
0.0000000001
 40
0.0
 40
0.0
 40
0.0
 40
0.3520000000000003
 40
0.3520000000000003
 40
0.3520000000000003
 10
340.4963272719701
 20
-845.5716736737722
 30
377.9346008300781
 10
336.0259272719645
 20
-845.5716736737722
 30
377.9346008300781
 10
331.5555272719662
 20
-845.5716736737722
 30
377.9346008300781
  0
SPLINE
  5
5CF58
330
1F
100
AcDbEntity
  8
Default
100
AcDbSpline
210
0.0
220
0.0
230
1.0
 70
    12
 71
     2
 72
     6
 73
     3
 74
     0
 42
0.000000001
 43
0.0000000001
 40
0.0
 40
0.0
 40
0.0
 40
0.1098876245644455
 40
0.1098876245644455
 40
0.1098876245644455
 10
331.5555272719662
 20
-845.5716736737722
 30
377.9346008300781
 41
1.0
 10
329.7815570274411
 20
-845.5757035012194
 30
377.9346008300781
 41
0.7087112325863247
 10
329.7775272719678
 20
-847.3496737459081
 30
377.9346008300781
 41
1.0
  0
POLYLINE
  5
5CF59
330
1F
100
AcDbEntity
  8
Default
100
AcDb2dPolyline
 66
     1
 10
0.0
 20
0.0
 30
377.9346008300781
  0
VERTEX
  5
5CF5A
330
5CF59
100
AcDbEntity
  8
Default
100
AcDbVertex
100
AcDb2dVertex
 10
329.7775272719678
 20
-847.3496737459081
 30
377.9346008300781
  0
VERTEX
  5
5CF5B
330
5CF59
100
AcDbEntity
  8
Default
100
AcDbVertex
100
AcDb2dVertex
 10
329.7775272719678
 20
-854.935928662795
 30
377.9346008300781
  0
SEQEND
  5
5CF5C
330
5CF59
100
AcDbEntity
  8
Default
  0
ARC
  5
5CF5D
330
1F
100
AcDbEntity
  8
Default
100
AcDbCircle
 10
89295279.00625338
 20
-1218.72263980064
 30
377.9346008300781
 40
89295485.47364856
100
AcDbArc
 50
180.000008857172
 51
180.0000097923939
  0
LINE
  5
5CF5E
330
1F
100
AcDbEntity
  8
Default
100
AcDbLine
 10
-206.4673938387991
 20
-1233.984062095358
 30
377.9346008300781
 11
-206.4673851277025
 21
-1283.04049318428
 31
377.9346008300781
  0
SPLINE
  5
5CF5F
330
1F
100
AcDbEntity
  8
Default
100
AcDbSpline
210
0.0000000000000448
220
0.0000000000000449
230
1.0
 70
    12
 71
     2
 72
     6
 73
     3
 74
     0
 42
0.000000001
 43
0.0000000001
 40
0.0
 40
0.0
 40
0.0
 40
0.0784456575506041
 40
0.0784456575506041
 40
0.0784456575506041
 10
-206.4673851277025
 20
-1283.04049318428
 30
377.9346008300781
 41
1.0
 10
-206.4658693488513
 20
-1284.308968413465
 30
377.9346008300782
 41
0.7071077818591104
 10
-205.1973941153833
 20
-1284.307456602259
 30
377.9346008300781
 41
1.0
  0
SPLINE
  5
5CF60
330
1F
100
AcDbEntity
  8
Default
100
AcDbSpline
210
0.0
220
0.0
230
1.0
 70
    12
 71
     2
 72
     6
 73
     3
 74
     0
 42
0.000000001
 43
0.0000000001
 40
0.0
 40
0.0
 40
0.0
 40
0.0351460068279919
 40
0.0351460068279919
 40
0.0351460068279919
 10
-205.1973941153833
 20
-1284.307456602259
 30
377.9346008300781
 41
1.0
 10
-204.7560416917026
 20
-1284.387908675269
 30
377.9346008300781
 41
0.9924246250463484
 10
-204.3083941153004
 20
-1284.35830892394
 30
377.9346008300781
 41
1.0
  0
SPLINE
  5
5CF61
330
1F
100
AcDbEntity
  8
Default
100
AcDbSpline
210
0.0
220
0.0
230
1.0
 70
    24
 71
     2
 72
     6
 73
     3
 74
     0
 42
0.000000001
 43
0.0000000001
 40
-0.6179999945348698
 40
-0.6179999945348698
 40
-0.6179999945348698
 40
0.0
 40
0.0
 40
0.0
 10
-204.3083941153004
 20
-1284.35830892394
 30
377.9346008300781
 10
-196.4597941847009
 20
-1284.358308923936
 30
377.9346008300781
 10
-188.6111942541088
 20
-1284.358308923936
 30
377.9346008300781
  0
SPLINE
  5
5CF62
330
1F
100
AcDbEntity
  8
Default
100
AcDbSpline
210
0.0
220
0.0
230
1.0
 70
    12
 71
     2
 72
     6
 73
     3
 74
     0
 42
0.000000001
 43
0.0000000001
 40
0.0
 40
0.0
 40
0.0
 40
0.0351460122197656
 40
0.0351460122197656
 40
0.0351460122197656
 10
-188.6111942541088
 20
-1284.358308923936
 30
377.9346008300781
 41
1.0
 10
-188.1635466097345
 20
-1284.387908666298
 30
377.9346008300781
 41
0.9924246303389436
 10
-187.7221941154043
 20
-1284.30745660604
 30
377.9346008300781
 41
1.0
  0
SPLINE
  5
5CF63
330
1F
100
AcDbEntity
  8
Default
100
AcDbSpline
210
0.0
220
0.0
230
1.0
 70
    12
 71
     2
 72
     6
 73
     3
 74
     0
 42
0.000000001
 43
0.0000000001
 40
0.0
 40
0.0
 40
0.0
 40
0.0784456577816192
 40
0.0784456577816192
 40
0.0784456577816192
 10
-187.7221941154043
 20
-1284.30745660604
 30
377.9346008300781
 41
1.0
 10
-186.4537188829913
 20
-1284.308968404122
 30
377.9346008300781
 41
0.707107785543906
 10
-186.4522027256448
 20
-1283.040493176011
 30
377.9346008300781
 41
1.0
  0
LINE
  5
5CF64
330
1F
100
AcDbEntity
  8
Default
100
AcDbLine
 10
-186.4522027256448
 20
-1283.040493176011
 30
377.9346008300781
 11
-186.4521954539364
 21
-1240.235289875665
 31
377.9346008300781
  0
POLYLINE
  5
5CF65
330
1F
100
AcDbEntity
  8
Default
100
AcDb2dPolyline
 66
     1
 10
0.0
 20
0.0
 30
377.9346008300781
  0
VERTEX
  5
5CF66
330
5CF65
100
AcDbEntity
  8
Default
100
AcDbVertex
100
AcDb2dVertex
 10
-184.6995941153932
 20
-1241.059409442598
 30
377.9346008300781
  0
VERTEX
  5
5CF67
330
5CF65
100
AcDbEntity
  8
Default
100
AcDbVertex
100
AcDb2dVertex
 10
-184.6995941153932
 20
-1282.607181975352
 30
377.9346008300781
  0
SEQEND
  5
5CF68
330
5CF65
100
AcDbEntity
  8
Default
  0
SPLINE
  5
5CF69
330
1F
100
AcDbEntity
  8
Default
100
AcDbSpline
210
0.0
220
0.0
230
1.0
 70
    12
 71
     2
 72
     6
 73
     3
 74
     0
 42
0.000000001
 43
0.0000000001
 40
0.0
 40
0.0
 40
0.0
 40
0.109941564851661
 40
0.109941564851661
 40
0.109941564851661
 10
-184.6995941153932
 20
-1282.607181975352
 30
377.9346008300781
 41
1.0
 10
-184.6987550402468
 20
-1284.384342900237
 30
377.9346008300781
 41
0.7074405726109262
 10
-182.9215941153948
 20
-1284.38518204749
 30
377.9346008300781
 41
1.0
  0
SPLINE
  5
5CF6A
330
1F
100
AcDbEntity
  8
Default
100
AcDbSpline
210
0.0
220
0.0
230
1.0
 70
    24
 71
     2
 72
     6
 73
     3
 74
     0
 42
0.000000001
 43
0.0000000001
 40
0.0
 40
0.0
 40
0.0
 40
0.3520000000000003
 40
0.3520000000000003
 40
0.3520000000000003
 10
-182.9215941153948
 20
-1284.38518204749
 30
377.9346008300781
 10
-178.4511941153891
 20
-1284.38518204749
 30
377.9346008300781
 10
-173.9807941153908
 20
-1284.38518204749
 30
377.9346008300781
  0
SPLINE
  5
5CF6B
330
1F
100
AcDbEntity
  8
Default
100
AcDbSpline
210
-0.0000000000000149
220
0.0000000000000149
230
1.0
 70
    12
 71
     2
 72
     6
 73
     3
 74
     0
 42
0.000000001
 43
0.0000000001
 40
0.0
 40
0.0
 40
0.0
 40
0.2356186331260159
 40
0.2356186331260159
 40
0.2356186331260159
 10
-173.9807941153908
 20
-1284.38518204749
 30
377.9346008300781
 41
1.0
 10
-170.1708424983721
 20
-1284.385133590042
 30
377.9346008300782
 41
0.7071157676638843
 10
-170.1707941153931
 20
-1280.575181973016
 30
377.9346008300781
 41
1.0
  0
POLYLINE
  5
5CF6C
330
1F
100
AcDbEntity
  8
Default
100
AcDb2dPolyline
 66
     1
 10
0.0
 20
0.0
 30
377.9346008300781
  0
VERTEX
  5
5CF6D
330
5CF6C
100
AcDbEntity
  8
Default
100
AcDbVertex
100
AcDb2dVertex
 10
-170.1707941153931
 20
-1280.575181973016
 30
377.9346008300781
  0
VERTEX
  5
5CF6E
330
5CF6C
100
AcDbEntity
  8
Default
100
AcDbVertex
100
AcDb2dVertex
 10
-170.1707941153931
 20
-1247.535827370464
 30
377.9346008300781
  0
SEQEND
  5
5CF6F
330
5CF6C
100
AcDbEntity
  8
Default
  0
ARC
  5
5CF70
330
1F
100
AcDbEntity
  8
Default
100
AcDbCircle
 10
-89295278.90029373
 20
-1218.72263980064
 30
377.9346008300781
 40
89295485.47364856
100
AcDbArc
 50
359.999990207606
 51
359.999991142828
  0
LINE
  5
5CF71
330
1F
100
AcDbEntity
  8
Default
100
AcDbLine
 10
206.5733534796541
 20
-1233.984062095358
 30
377.9346008300781
 11
206.5733447685575
 21
-1283.04049318428
 31
377.9346008300781
  0
SPLINE
  5
5CF72
330
1F
100
AcDbEntity
  8
Default
100
AcDbSpline
210
-0.0000000000000448
220
0.0000000000000449
230
1.0
 70
    12
 71
     2
 72
     6
 73
     3
 74
     0
 42
0.000000001
 43
0.0000000001
 40
0.0
 40
0.0
 40
0.0
 40
0.0784456575506041
 40
0.0784456575506041
 40
0.0784456575506041
 10
206.5733447685575
 20
-1283.04049318428
 30
377.9346008300781
 41
1.0
 10
206.5718289897063
 20
-1284.308968413465
 30
377.9346008300782
 41
0.7071077818591104
 10
205.3033537562383
 20
-1284.307456602259
 30
377.9346008300781
 41
1.0
  0
SPLINE
  5
5CF73
330
1F
100
AcDbEntity
  8
Default
100
AcDbSpline
210
0.0
220
0.0
230
1.0
 70
    12
 71
     2
 72
     6
 73
     3
 74
     0
 42
0.000000001
 43
0.0000000001
 40
0.0
 40
0.0
 40
0.0
 40
0.0351460068279919
 40
0.0351460068279919
 40
0.0351460068279919
 10
205.3033537562383
 20
-1284.307456602259
 30
377.9346008300781
 41
1.0
 10
204.8620013325576
 20
-1284.387908675269
 30
377.9346008300781
 41
0.9924246250463484
 10
204.4143537561481
 20
-1284.35830892394
 30
377.9346008300781
 41
1.0
  0
SPLINE
  5
5CF74
330
1F
100
AcDbEntity
  8
Default
100
AcDbSpline
210
0.0
220
0.0
230
1.0
 70
    24
 71
     2
 72
     6
 73
     3
 74
     0
 42
0.000000001
 43
0.0000000001
 40
-0.6179999945348698
 40
-0.6179999945348698
 40
-0.6179999945348698
 40
0.0
 40
0.0
 40
0.0
 10
204.4143537561481
 20
-1284.35830892394
 30
377.9346008300781
 10
196.5657538255559
 20
-1284.358308923936
 30
377.9346008300781
 10
188.7171538949637
 20
-1284.358308923936
 30
377.9346008300781
  0
SPLINE
  5
5CF75
330
1F
100
AcDbEntity
  8
Default
100
AcDbSpline
210
0.0
220
0.0
230
1.0
 70
    12
 71
     2
 72
     6
 73
     3
 74
     0
 42
0.000000001
 43
0.0000000001
 40
0.0
 40
0.0
 40
0.0
 40
0.0351460122197656
 40
0.0351460122197656
 40
0.0351460122197656
 10
188.7171538949637
 20
-1284.358308923936
 30
377.9346008300781
 41
1.0
 10
188.2695062505968
 20
-1284.387908666298
 30
377.9346008300781
 41
0.9924246303389436
 10
187.828153756252
 20
-1284.30745660604
 30
377.9346008300781
 41
1.0
  0
SPLINE
  5
5CF76
330
1F
100
AcDbEntity
  8
Default
100
AcDbSpline
210
0.0
220
0.0
230
1.0
 70
    12
 71
     2
 72
     6
 73
     3
 74
     0
 42
0.000000001
 43
0.0000000001
 40
0.0
 40
0.0
 40
0.0
 40
0.0784456577816192
 40
0.0784456577816192
 40
0.0784456577816192
 10
187.828153756252
 20
-1284.30745660604
 30
377.9346008300781
 41
1.0
 10
186.559678523839
 20
-1284.308968404122
 30
377.9346008300781
 41
0.707107785543906
 10
186.5581631223335
 20
-1283.040493176011
 30
377.9346008300781
 41
1.0
  0
LINE
  5
5CF77
330
1F
100
AcDbEntity
  8
Default
100
AcDbLine
 10
186.5581623664925
 20
-1283.040493176011
 30
377.9346008300781
 11
186.5581550761212
 21
-1240.235289880998
 31
377.9346008300781
  0
POLYLINE
  5
5CF78
330
1F
100
AcDbEntity
  8
Default
100
AcDb2dPolyline
 66
     1
 10
0.0
 20
0.0
 30
377.9346008300781
  0
VERTEX
  5
5CF79
330
5CF78
100
AcDbEntity
  8
Default
100
AcDbVertex
100
AcDb2dVertex
 10
184.8055537562482
 20
-1241.059409442598
 30
377.9346008300781
  0
VERTEX
  5
5CF7A
330
5CF78
100
AcDbEntity
  8
Default
100
AcDbVertex
100
AcDb2dVertex
 10
184.8055537562482
 20
-1282.607181975352
 30
377.9346008300781
  0
SEQEND
  5
5CF7B
330
5CF78
100
AcDbEntity
  8
Default
  0
SPLINE
  5
5CF7C
330
1F
100
AcDbEntity
  8
Default
100
AcDbSpline
210
0.0
220
0.0
230
1.0
 70
    12
 71
     2
 72
     6
 73
     3
 74
     0
 42
0.000000001
 43
0.0000000001
 40
0.0
 40
0.0
 40
0.0
 40
0.109941564851661
 40
0.109941564851661
 40
0.109941564851661
 10
184.8055537562482
 20
-1282.607181975352
 30
377.9346008300781
 41
1.0
 10
184.8047146810872
 20
-1284.384342900237
 30
377.9346008300781
 41
0.7074405726109262
 10
183.0275537562497
 20
-1284.38518204749
 30
377.9346008300781
 41
1.0
  0
SPLINE
  5
5CF7D
330
1F
100
AcDbEntity
  8
Default
100
AcDbSpline
210
0.0
220
0.0
230
1.0
 70
    24
 71
     2
 72
     6
 73
     3
 74
     0
 42
0.000000001
 43
0.0000000001
 40
0.0
 40
0.0
 40
0.0
 40
0.3520000000000003
 40
0.3520000000000003
 40
0.3520000000000003
 10
183.0275537562497
 20
-1284.38518204749
 30
377.9346008300781
 10
178.5571537562514
 20
-1284.38518204749
 30
377.9346008300781
 10
174.0867537562531
 20
-1284.38518204749
 30
377.9346008300781
  0
SPLINE
  5
5CF7E
330
1F
100
AcDbEntity
  8
Default
100
AcDbSpline
210
0.0000000000000149
220
0.0000000000000149
230
1.0
 70
    12
 71
     2
 72
     6
 73
     3
 74
     0
 42
0.000000001
 43
0.0000000001
 40
0.0
 40
0.0
 40
0.0
 40
0.2356186331260159
 40
0.2356186331260159
 40
0.2356186331260159
 10
174.0867537562531
 20
-1284.38518204749
 30
377.9346008300781
 41
1.0
 10
170.2768021392198
 20
-1284.385133590042
 30
377.9346008300782
 41
0.7071157676638843
 10
170.2767537562481
 20
-1280.575181973016
 30
377.9346008300781
 41
1.0
  0
POLYLINE
  5
5CF7F
330
1F
100
AcDbEntity
  8
Default
100
AcDb2dPolyline
 66
     1
 10
0.0
 20
0.0
 30
377.9346008300781
  0
VERTEX
  5
5CF80
330
5CF7F
100
AcDbEntity
  8
Default
100
AcDbVertex
100
AcDb2dVertex
 10
170.2767537562481
 20
-1280.575181973016
 30
377.9346008300781
  0
VERTEX
  5
5CF81
330
5CF7F
100
AcDbEntity
  8
Default
100
AcDbVertex
100
AcDb2dVertex
 10
170.2767537562481
 20
-1247.535827370468
 30
377.9346008300781
  0
SEQEND
  5
5CF82
330
5CF7F
100
AcDbEntity
  8
Default
  0
ARC
  5
5CF83
330
1F
100
AcDbEntity
  8
Default
100
AcDbCircle
 10
-89295157.44872022
 20
-844.9331314269221
 30
377.9346008300781
 40
89295485.47364856
100
AcDbArc
 50
359.9999948687078
 51
359.9999987473748
  0
SPLINE
  5
5CF84
330
1F
100
AcDbEntity
  8
Default
100
AcDbSpline
210
0.0
220
0.0
230
1.0
 70
    12
 71
     2
 72
     6
 73
     3
 74
     0
 42
0.000000001
 43
0.0000000001
 40
0.0
 40
0.0
 40
0.0
 40
0.0784842030870699
 40
0.0784842030870699
 40
0.0784842030870699
 10
328.0249283010285
 20
-846.8853281569627
 30
377.9346008300781
 41
1.0
 10
328.0240081528623
 20
-845.6162473134973
 30
377.9346008300781
 41
0.7071217743558634
 10
326.7549272719639
 20
-845.6171031662398
 30
377.9346008300781
 41
1.0
  0
POLYLINE
  5
5CF85
330
1F
100
AcDbEntity
  8
Default
100
AcDb2dPolyline
 66
     1
 10
0.0
 20
0.0
 30
377.9346008300781
  0
VERTEX
  5
5CF86
330
5CF85
100
AcDbEntity
  8
Default
100
AcDbVertex
100
AcDb2dVertex
 10
326.7549272719639
 20
-845.6171031662398
 30
377.9346008300781
  0
VERTEX
  5
5CF87
330
5CF85
100
AcDbEntity
  8
Default
100
AcDbVertex
100
AcDb2dVertex
 10
321.4894804438531
 20
-845.6171031662398
 30
377.9346008300781
  0
SEQEND
  5
5CF88
330
5CF85
100
AcDbEntity
  8
Default
  0
ARC
  5
5CF89
330
1F
100
AcDbEntity
  8
Default
100
AcDbCircle
 10
89295157.55467988
 20
-844.9331314269221
 30
377.9346008300781
 40
89295485.47364856
100
AcDbArc
 50
180.0000012526251
 51
180.0000051312921
  0
SPLINE
  5
5CF8A
330
1F
100
AcDbEntity
  8
Default
100
AcDbSpline
210
0.0
220
0.0
230
1.0
 70
    12
 71
     2
 72
     6
 73
     3
 74
     0
 42
0.000000001
 43
0.0000000001
 40
0.0
 40
0.0
 40
0.0
 40
0.0784842030870699
 40
0.0784842030870699
 40
0.0784842030870699
 10
-327.9189686601735
 20
-846.8853281569627
 30
377.9346008300781
 41
1.0
 10
-327.918048512
 20
-845.6162473134973
 30
377.9346008300781
 41
0.7071217743558634
 10
-326.6489676311016
 20
-845.6171031662398
 30
377.9346008300781
 41
1.0
  0
POLYLINE
  5
5CF8B
330
1F
100
AcDbEntity
  8
Default
100
AcDb2dPolyline
 66
     1
 10
0.0
 20
0.0
 30
377.9346008300781
  0
VERTEX
  5
5CF8C
330
5CF8B
100
AcDbEntity
  8
Default
100
AcDbVertex
100
AcDb2dVertex
 10
-326.6489676311016
 20
-845.6171031662398
 30
377.9346008300781
  0
VERTEX
  5
5CF8D
330
5CF8B
100
AcDbEntity
  8
Default
100
AcDbVertex
100
AcDb2dVertex
 10
-321.3835208030055
 20
-845.6171031662398
 30
377.9346008300781
  0
SEQEND
  5
5CF8E
330
5CF8B
100
AcDbEntity
  8
Default
  0
SPLINE
  5
5CF8F
330
1F
100
AcDbEntity
  8
Default
100
AcDbSpline
210
0.0000000000000149
220
0.0000000000000055
230
1.0
 70
    12
 71
     2
 72
     6
 73
     3
 74
     0
 42
0.000000001
 43
0.0000000001
 40
0.1699723053228755
 40
0.1699723053228755
 40
0.1699723053228755
 40
0.6213186892081751
 40
0.6213186892081751
 40
0.6213186892081751
 10
-206.1280112406735
 20
-1230.318663760274
 30
377.9346008300781
 41
0.8838882857041388
 10
-207.5660897611224
 20
-1236.711758232845
 30
377.9346008300782
 41
0.7877819625056607
 10
-202.3000019796441
 20
-1240.611507743266
 30
377.9346008300781
 41
1.0
  0
SPLINE
  5
5CF90
330
1F
100
AcDbEntity
  8
Default
100
AcDbSpline
210
0.0
220
0.0
230
1.0
 70
    12
 71
     2
 72
     6
 73
     3
 74
     0
 42
0.000000001
 43
0.0000000001
 40
0.0
 40
0.0
 40
0.0
 40
0.5780956337957553
 40
0.5780956337957553
 40
0.5780956337957553
 10
-202.3000019796441
 20
-1240.611507743266
 30
377.9346008300781
 41
1.0
 10
-194.9059051083304
 20
-1245.881477230927
 30
377.9346008300781
 41
0.7281867164683567
 10
-188.9078897210625
 20
-1239.064655511281
 30
377.9346008300781
 41
0.9621819287679231
  0
SPLINE
  5
5CF91
330
1F
100
AcDbEntity
  8
Default
100
AcDbSpline
210
-0.0000000000000011
220
-0.0000000000000093
230
1.0
 70
    12
 71
     2
 72
     6
 73
     3
 74
     0
 42
0.000000001
 43
0.0000000001
 40
0.0432228048386966
 40
0.0432228048386966
 40
0.0432228048386966
 40
0.6213186892081751
 40
0.6213186892081751
 40
0.6213186892081751
 10
189.0138480803593
 20
-1239.064656127079
 30
377.9346008300781
 41
0.9621818109507904
 10
195.011862587658
 20
-1245.88149498147
 30
377.9346008300781
 41
0.728185760549657
 10
202.4059617986218
 20
-1240.61150761385
 30
377.9346008300781
 41
1.0
  0
SPLINE
  5
5CF92
330
1F
100
AcDbEntity
  8
Default
100
AcDbSpline
210
0.0
220
0.0
230
1.0
 70
    12
 71
     2
 72
     6
 73
     3
 74
     0
 42
0.000000001
 43
0.0000000001
 40
0.0
 40
0.0
 40
0.0
 40
0.4513461501451067
 40
0.4513461501451067
 40
0.4513461501451067
 10
202.4059617986218
 20
-1240.61150761385
 30
377.9346008300781
 41
1.0
 10
207.6720381458595
 20
-1236.711754714959
 30
377.9346008300781
 41
0.7877827267526954
 10
206.2339666963758
 20
-1230.318666003428
 30
377.9346008300781
 41
0.8838886685644926
  0
SPLINE
  5
5CF93
330
1F
100
AcDbEntity
  8
Default
100
AcDbSpline
210
0.0
220
0.0
230
1.0
 70
    24
 71
     2
 72
     6
 73
     3
 74
     0
 42
0.000000001
 43
0.0000000001
 40
0.0
 40
0.0
 40
0.0
 40
0.071889705667429
 40
0.071889705667429
 40
0.071889705667429
 10
1259.87418204749
 20
206.4999552322926
 30
377.9346008300781
 10
1259.87418204749
 20
207.4129544942709
 30
377.9346008300781
 10
1259.87418204749
 20
208.3259537562491
 30
377.9346008300781
  0
SPLINE
  5
5CF94
330
1F
100
AcDbEntity
  8
Default
100
AcDbSpline
210
0.0
220
0.0
230
1.0
 70
    24
 71
     2
 72
     6
 73
     3
 74
     0
 42
0.000000001
 43
0.0000000001
 40
0.0
 40
0.0
 40
0.0
 40
0.071889705667429
 40
0.071889705667429
 40
0.071889705667429
 10
1259.87418204749
 20
-206.3939955914382
 30
377.9346008300781
 10
1259.87418204749
 20
-207.3069948534165
 30
377.9346008300781
 10
1259.87418204749
 20
-208.2199941153947
 30
377.9346008300781
  0
SPLINE
  5
5CF95
330
1F
100
AcDbEntity
  8
Default
100
AcDbSpline
210
0.0
220
0.0
230
1.0
 70
    24
 71
     2
 72
     6
 73
     3
 74
     0
 42
0.000000001
 43
0.0000000001
 40
0.0
 40
0.0
 40
0.0
 40
0.0653749093108864
 40
0.0653749093108864
 40
0.0653749093108864
 10
639.0680528606044
 20
-11.70722017957328
 30
377.9346008300781
 10
639.0680528606044
 20
-10.87695883132861
 30
377.9346008300781
 10
639.0680528606044
 20
-10.04669748307665
 30
377.9346008300781
  0
SPLINE
  5
5CF96
330
1F
100
AcDbEntity
  8
Default
100
AcDbSpline
210
0.0
220
0.0
230
1.0
 70
    24
 71
     2
 72
     6
 73
     3
 74
     0
 42
0.000000001
 43
0.0000000001
 40
0.0
 40
0.0
 40
0.0
 40
0.0653749093108864
 40
0.0653749093108864
 40
0.0653749093108864
 10
639.0680528606044
 20
11.81317982042796
 30
377.9346008300781
 10
639.0680528606044
 20
10.98291847217601
 30
377.9346008300781
 10
639.0680528606044
 20
10.15265712393133
 30
377.9346008300781
  0
SPLINE
  5
5CF97
330
1F
100
AcDbEntity
  8
Default
100
AcDbSpline
210
0.0000000000000056
220
-0.0000000000000057
230
1.0
 70
    12
 71
     2
 72
     6
 73
     3
 74
     0
 42
0.000000001
 43
0.0000000001
 40
0.0
 40
0.0
 40
0.0
 40
0.6213186892081751
 40
0.6213186892081751
 40
0.6213186892081751
 10
627.9631968074227
 20
10.02169491692016
 30
377.9346008300781
 41
1.0
 10
617.924427817903
 20
10.0915761933737
 30
377.9346008300782
 41
0.7078628796196968
 10
617.8330666200454
 20
0.0529797103384673
 30
377.9346008300781
 41
1.0
  0
SPLINE
  5
5CF98
330
1F
100
AcDbEntity
  8
Default
100
AcDbSpline
210
-0.0000000000000056
220
-0.0000000000000057
230
1.0
 70
    12
 71
     2
 72
     6
 73
     3
 74
     0
 42
0.000000001
 43
0.0000000001
 40
0.0
 40
0.0
 40
0.0
 40
0.6213184385489916
 40
0.6213184385489916
 40
0.6213184385489916
 10
617.8330666200454
 20
0.0529797103384673
 30
377.9346008300781
 41
1.0
 10
617.9244422817028
 20
-9.98560209405573
 30
377.9346008300781
 41
0.7078638982414072
 10
627.9631968251123
 20
-9.915735276065472
 30
377.9346008300781
 41
1.0
  0
SPLINE
  5
5CF99
330
1F
100
AcDbEntity
  8
Default
100
AcDbSpline
210
0.0
220
0.0
230
1.0
 70
    24
 71
     2
 72
     6
 73
     3
 74
     0
 42
0.000000001
 43
0.0000000001
 40
0.0
 40
0.0
 40
0.0
 40
0.0653749093108864
 40
0.0653749093108864
 40
0.0653749093108864
 10
1243.872182047489
 20
208.3259537562491
 30
377.9346008300781
 10
1243.872182047489
 20
207.4956924079972
 30
377.9346008300781
 10
1243.872182047489
 20
206.6654310597525
 30
377.9346008300781
  0
SPLINE
  5
5CF9A
330
1F
100
AcDbEntity
  8
Default
100
AcDbSpline
210
0.0
220
0.0
230
1.0
 70
    24
 71
     2
 72
     6
 73
     3
 74
     0
 42
0.000000001
 43
0.0000000001
 40
0.0
 40
0.0
 40
0.0
 40
0.071889705667429
 40
0.071889705667429
 40
0.071889705667429
 10
1259.87418204749
 20
186.6315522801971
 30
377.9346008300781
 10
1259.87418204749
 20
185.7185530182261
 30
377.9346008300781
 10
1259.87418204749
 20
184.8055537562479
 30
377.9346008300781
  0
SPLINE
  5
5CF9B
330
1F
100
AcDbEntity
  8
Default
100
AcDbSpline
210
0.0
220
0.0
230
1.0
 70
    24
 71
     2
 72
     6
 73
     3
 74
     0
 42
0.000000001
 43
0.0000000001
 40
0.0
 40
0.0
 40
0.0
 40
0.0653749093108864
 40
0.0653749093108864
 40
0.0653749093108864
 10
1243.872182047489
 20
184.8055537562479
 30
377.9346008300781
 10
1243.872182047489
 20
185.6358151044998
 30
377.9346008300781
 10
1243.872182047489
 20
186.4660764527445
 30
377.9346008300781
  0
SPLINE
  5
5CF9C
330
1F
100
AcDbEntity
  8
Default
100
AcDbSpline
210
0.0
220
0.0
230
1.0
 70
    24
 71
     2
 72
     6
 73
     3
 74
     0
 42
0.000000001
 43
0.0000000001
 40
0.0
 40
0.0
 40
0.0
 40
0.071889705667429
 40
0.071889705667429
 40
0.071889705667429
 10
1259.87418204749
 20
-186.52559263935
 30
377.9346008300781
 10
1259.87418204749
 20
-185.6125933773645
 30
377.9346008300781
 10
1259.87418204749
 20
-184.6995941153935
 30
377.9346008300781
  0
SPLINE
  5
5CF9D
330
1F
100
AcDbEntity
  8
Default
100
AcDbSpline
210
0.0
220
0.0
230
1.0
 70
    24
 71
     2
 72
     6
 73
     3
 74
     0
 42
0.000000001
 43
0.0000000001
 40
0.0
 40
0.0
 40
0.0
 40
0.0653749093108864
 40
0.0653749093108864
 40
0.0653749093108864
 10
1243.872182047489
 20
-208.2199941153947
 30
377.9346008300781
 10
1243.872182047489
 20
-207.3897327671428
 30
377.9346008300781
 10
1243.872182047489
 20
-206.5594714188981
 30
377.9346008300781
  0
SPLINE
  5
5CF9E
330
1F
100
AcDbEntity
  8
Default
100
AcDbSpline
210
0.0
220
0.0
230
1.0
 70
    24
 71
     2
 72
     6
 73
     3
 74
     0
 42
0.000000001
 43
0.0000000001
 40
0.0
 40
0.0
 40
0.0
 40
0.0653749093108864
 40
0.0653749093108864
 40
0.0653749093108864
 10
1243.872182047489
 20
-184.6995941153935
 30
377.9346008300781
 10
1243.872182047489
 20
-185.5298554636382
 30
377.9346008300781
 10
1243.872182047489
 20
-186.3601168118901
 30
377.9346008300781
  0
SPLINE
  5
5CF9F
330
1F
100
AcDbEntity
  8
Default
100
AcDbSpline
210
0.0
220
0.0
230
1.0
 70
     8
 71
     3
 72
    12
 73
     8
 74
     0
 42
0.000000001
 43
0.0000000001
 40
0.0
 40
0.0
 40
0.0
 40
0.0
 40
1.91838585290454
 40
3.787697327406727
 40
7.628973434916602
 40
11.46360448765835
 40
15.3782305416976
 40
15.3782305416976
 40
15.3782305416976
 40
15.3782305416976
 10
1153.57368558171
 20
0.0529048843320364
 30
377.9346008300781
 10
1153.58817378819
 20
16.29462658643135
 30
377.9346008300781
 10
1150.469331442891
 20
48.36754481845239
 30
377.9346008300781
 10
1132.03021413538
 20
110.5719567074713
 30
377.9346008300781
 10
1085.894505864662
 20
179.0724834569203
 30
377.9346008300781
 10
1001.385828343726
 20
232.7851542463989
 30
377.9346008300781
 10
935.6314351328528
 20
244.5174836904055
 30
377.9346008300781
 10
902.4910138389058
 20
244.5276232740373
 30
377.9346008300781
  0
SPLINE
  5
5CFA0
330
1F
100
AcDbEntity
  8
Default
100
AcDbSpline
210
0.0
220
0.0
230
1.0
 70
     8
 71
     3
 72
    12
 73
     8
 74
     0
 42
0.000000001
 43
0.0000000001
 40
-14.91612104830391
 40
-14.91612104830391
 40
-14.91612104830391
 40
-14.91612104830391
 40
-11.23173116836975
 40
-7.52134715466137
 40
-3.77515601886866
 40
-1.889436739208308
 40
0.0
 40
0.0
 40
0.0
 40
0.0
 10
902.4910138389058
 20
244.5276232740373
 30
377.9346008300781
 10
871.2820336013246
 20
244.5350057959379
 30
377.9346008300781
 10
808.6878218822349
 20
231.6707299035127
 30
377.9346008300781
 10
729.4930463777873
 20
177.0416158749661
 30
377.9346008300781
 10
685.6911200458726
 20
109.379454239542
 30
377.9346008300781
 10
667.6431257986332
 20
48.01305409281606
 30
377.9346008300781
 10
664.556916550724
 20
16.04927046727365
 30
377.9346008300781
 10
664.5553988951396
 20
0.052999591848982
 30
377.9346008300781
  0
SPLINE
  5
5CFA1
330
1F
100
AcDbEntity
  8
Default
100
AcDbSpline
210
0.0
220
0.0
230
1.0
 70
     8
 71
     3
 72
    12
 73
     8
 74
     0
 42
0.000000001
 43
0.0000000001
 40
-14.91612102967629
 40
-14.91612102967629
 40
-14.91612102967629
 40
-14.91612102967629
 40
-11.14156523886652
 40
-7.393161344914191
 40
-3.681958122248531
 40
-1.83908820525715
 40
0.0
 40
0.0
 40
0.0
 40
0.0
 10
664.5553988951396
 20
0.052999591848982
 30
377.9346008300781
 10
664.5603423787033
 20
-31.90467257211882
 30
377.9346008300781
 10
676.8316469934307
 20
-95.59747692398257
 30
377.9346008300781
 10
729.5122820085907
 20
-176.9616911423861
 30
377.9346008300781
 10
795.6433835364751
 20
-222.5600194674322
 30
377.9346008300781
 10
855.7407123506909
 20
-241.2340685232472
 30
377.9346008300781
 10
886.896958687279
 20
-244.4225745318824
 30
377.9346008300781
 10
902.495216471234
 20
-244.4216963583738
 30
377.9346008300781
  0
SPLINE
  5
5CFA2
330
1F
100
AcDbEntity
  8
Default
100
AcDbSpline
210
0.0
220
0.0
230
1.0
 70
     8
 71
     3
 72
    12
 73
     8
 74
     0
 42
0.000000001
 43
0.0000000001
 40
0.0
 40
0.0
 40
0.0
 40
0.0
 40
1.968953222664886
 40
3.918858638804648
 40
7.748286961365543
 40
11.50259787367827
 40
15.37794659634141
 40
15.37794659634141
 40
15.37794659634141
 40
15.37794659634141
 10
902.495216471234
 20
-244.4216963583738
 30
377.9346008300781
 10
919.1845496616297
 20
-244.4301393539706
 30
377.9346008300781
 10
952.3778738077089
 20
-241.4184353780354
 30
377.9346008300781
 10
1015.775275800784
 20
-223.5544633115994
 30
377.9346008300781
 10
1085.27402055723
 20
-179.3389475386927
 30
377.9346008300781
 10
1140.983697117817
 20
-97.44645702878806
 30
377.9346008300781
 10
1153.575901510112
 20
-32.73866550444544
 30
377.9346008300781
 10
1153.57368558171
 20
0.0529048843320364
 30
377.9346008300781
  0
SPLINE
  5
5CFA3
330
1F
100
AcDbEntity
  8
Default
100
AcDbSpline
210
0.0
220
0.0
230
1.0
 70
     8
 71
     3
 72
    12
 73
     8
 74
     0
 42
0.000000001
 43
0.0000000001
 40
0.0
 40
0.0
 40
0.0
 40
0.0
 40
2.315241172828345
 40
4.66252058763445
 40
9.309249842901856
 40
13.89761326846572
 40
18.23362376580278
 40
18.23362376580278
 40
18.23362376580278
 40
18.23362376580278
 10
1270.066806736502
 20
0.0529798204235612
 30
377.9346008300781
 10
1270.260711238501
 20
-19.56162618780837
 30
377.9346008300781
 10
1267.723447393671
 20
-59.04454559765037
 30
377.9346008300781
 10
1251.793113657071
 20
-136.4421633797745
 30
377.9346008300781
 10
1212.088192737827
 20
-227.1509477731513
 30
377.9346008300781
 10
1137.530118514196
 20
-316.2066775760311
 30
377.9346008300781
 10
1073.228135252968
 20
-357.6256470866199
 30
377.9346008300781
 10
1039.301909510324
 20
-371.7434024590609
 30
377.9346008300781
  0
SPLINE
  5
5CFA4
330
1F
100
AcDbEntity
  8
Default
100
AcDbSpline
210
0.0
220
0.0
230
1.0
 70
     8
 71
     3
 72
    12
 73
     8
 74
     0
 42
0.000000001
 43
0.0000000001
 40
-5.0
 40
-5.0
 40
-5.0
 40
-5.0
 40
-4.0
 40
-3.0
 40
-2.0
 40
-1.0
 40
0.0
 40
0.0
 40
0.0
 40
0.0
 10
1039.301909510324
 20
-371.7434024590609
 30
377.9346008300781
 10
1032.367760600853
 20
-374.6261817510738
 30
377.9346008300781
 10
1018.241853194531
 20
-379.7701426335468
 30
377.9346008300781
 10
996.3964049692348
 20
-385.4121080775428
 30
377.9346008300781
 10
973.9951800277776
 20
-388.2779672000459
 30
377.9346008300781
 10
951.3482885424654
 20
-387.0614272481969
 30
377.9346008300781
 10
936.9688782393676
 20
-382.1894084643852
 30
377.9346008300781
 10
930.3177554768952
 20
-378.6971865179209
 30
377.9346008300781
  0
SPLINE
  5
5CFA5
330
1F
100
AcDbEntity
  8
Default
100
AcDbSpline
210
0.0
220
0.0
230
1.0
 70
     8
 71
     3
 72
    24
 73
    20
 74
     0
 42
0.000000001
 43
0.0000000001
 40
0.0
 40
0.0
 40
0.0
 40
0.0
 40
1.0
 40
2.0
 40
3.0
 40
4.0
 40
5.0
 40
6.0
 40
7.0
 40
8.0
 40
9.0
 40
10.0
 40
11.0
 40
12.0
 40
13.0
 40
14.0
 40
15.0
 40
16.0
 40
17.0
 40
17.0
 40
17.0
 40
17.0
 10
930.3177554768952
 20
-378.6971865179209
 30
377.9346008300781
 10
921.9654110064819
 20
-374.3244397571968
 30
377.9346008300781
 10
906.1187895638449
 20
-364.08049944556
 30
377.9346008300781
 10
883.5654328498911
 20
-347.0183186937563
 30
377.9346008300781
 10
862.2151475296849
 20
-328.4856407689501
 30
377.9346008300781
 10
840.9280759715382
 20
-309.8937502097094
 30
377.9346008300781
 10
819.7376845960388
 20
-291.1863926228532
 30
377.9346008300781
 10
799.0502175169348
 20
-271.9221027905648
 30
377.9346008300781
 10
778.9575754518501
 20
-252.0382715707298
 30
377.9346008300781
 10
759.2767799050034
 20
-231.7529499955405
 30
377.9346008300781
 10
739.2323990727327
 20
-211.8111509983052
 30
377.9346008300781
 10
720.6582554725355
 20
-190.4805328230856
 30
377.9346008300781
 10
703.7370648546693
 20
-167.8127462739855
 30
377.9346008300781
 10
688.7780154044667
 20
-143.7997115487584
 30
377.9346008300781
 10
675.9797154855496
 20
-118.5655926615788
 30
377.9346008300781
 10
665.6185921456308
 20
-92.23180166169791
 30
377.9346008300781
 10
657.9290199020997
 20
-64.99648089841381
 30
377.9346008300781
 10
652.946010939464
 20
-37.13973044493346
 30
377.9346008300781
 10
651.2072632557665
 20
-9.368709801484017
 30
377.9346008300781
 10
651.2072632557665
 20
0.0529798204236986
 30
377.9346008300781
  0
SPLINE
  5
5CFA6
330
1F
100
AcDbEntity
  8
Default
100
AcDbSpline
210
0.0
220
0.0
230
1.0
 70
     8
 71
     3
 72
    24
 73
    20
 74
     0
 42
0.000000001
 43
0.0000000001
 40
-17.0
 40
-17.0
 40
-17.0
 40
-17.0
 40
-16.0
 40
-15.0
 40
-14.0
 40
-13.0
 40
-12.0
 40
-11.0
 40
-10.0
 40
-9.0
 40
-8.0
 40
-7.0
 40
-6.0
 40
-5.0
 40
-4.0
 40
-3.0
 40
-2.0
 40
-1.0
 40
0.0
 40
0.0
 40
0.0
 40
0.0
 10
651.2072632557665
 20
0.0529798204236986
 30
377.9346008300781
 10
651.2072632557665
 20
9.474669442345968
 30
377.9346008300781
 10
652.946010939464
 20
37.24569008578814
 30
377.9346008300781
 10
657.9290199020997
 20
65.10244053926848
 30
377.9346008300781
 10
665.6185921456308
 20
92.33776130254531
 30
377.9346008300781
 10
675.9797154855496
 20
118.6715523024262
 30
377.9346008300781
 10
688.7780154044667
 20
143.9056711896131
 30
377.9346008300781
 10
703.7370648546693
 20
167.9187059148329
 30
377.9346008300781
 10
720.6582554725355
 20
190.5864924639402
 30
377.9346008300781
 10
739.2323990727327
 20
211.9171106391525
 30
377.9346008300781
 10
759.2767799050034
 20
231.8589096363951
 30
377.9346008300781
 10
778.9575754518501
 20
252.1442312115772
 30
377.9346008300781
 10
799.050217516935
 20
272.0280624314194
 30
377.9346008300781
 10
819.7376845960389
 20
291.2923522637078
 30
377.9346008300781
 10
840.9280759715384
 20
309.9997098505713
 30
377.9346008300781
 10
862.2151475296851
 20
328.5916004098047
 30
377.9346008300781
 10
883.5654328498915
 20
347.1242783346109
 30
377.9346008300781
 10
906.118789563845
 20
364.1864590864145
 30
377.9346008300781
 10
921.9654110064821
 20
374.4303993980513
 30
377.9346008300781
 10
930.3177554768955
 20
378.8031461587755
 30
377.9346008300781
  0
SPLINE
  5
5CFA7
330
1F
100
AcDbEntity
  8
Default
100
AcDbSpline
210
0.0
220
0.0
230
1.0
 70
     8
 71
     3
 72
    12
 73
     8
 74
     0
 42
0.000000001
 43
0.0000000001
 40
0.0
 40
0.0
 40
0.0
 40
0.0
 40
1.0
 40
2.0
 40
3.0
 40
4.0
 40
5.0
 40
5.0
 40
5.0
 40
5.0
 10
930.3177554768955
 20
378.8031461587755
 30
377.9346008300781
 10
936.9688782393678
 20
382.2953681052397
 30
377.9346008300781
 10
951.3482885424656
 20
387.1673868890514
 30
377.9346008300781
 10
973.9951800277777
 20
388.3839268409003
 30
377.9346008300781
 10
996.396404969235
 20
385.5180677183973
 30
377.9346008300781
 10
1018.241853194531
 20
379.876102274394
 30
377.9346008300781
 10
1032.367760600853
 20
374.7321413919283
 30
377.9346008300781
 10
1039.301909510324
 20
371.8493620999227
 30
377.9346008300781
  0
SPLINE
  5
5CFA8
330
1F
100
AcDbEntity
  8
Default
100
AcDbSpline
210
0.0
220
0.0
230
1.0
 70
     8
 71
     3
 72
    12
 73
     8
 74
     0
 42
0.000000001
 43
0.0000000001
 40
-18.23362376580278
 40
-18.23362376580278
 40
-18.23362376580278
 40
-18.23362376580278
 40
-13.89761326846572
 40
-9.309249842901856
 40
-4.66252058763445
 40
-2.315241172828345
 40
0.0
 40
0.0
 40
0.0
 40
0.0
 10
1039.301909510324
 20
371.8493620999227
 30
377.9346008300781
 10
1073.228135252968
 20
357.7316067274744
 30
377.9346008300781
 10
1137.530118514196
 20
316.3126372168783
 30
377.9346008300781
 10
1212.088192737827
 20
227.2569074140131
 30
377.9346008300781
 10
1251.793113657071
 20
136.5481230206289
 30
377.9346008300781
 10
1267.723447393671
 20
59.15050523851204
 30
377.9346008300781
 10
1270.260711238501
 20
19.66758582866277
 30
377.9346008300781
 10
1270.066806736502
 20
0.0529798204235612
 30
377.9346008300781
  0
SPLINE
  5
5CFA9
330
1F
100
AcDbEntity
  8
Default
100
AcDbSpline
210
0.0
220
0.0
230
1.0
 70
     8
 71
     3
 72
    19
 73
    15
 74
     0
 42
0.000000001
 43
0.0000000001
 40
-12.0
 40
-12.0
 40
-12.0
 40
-12.0
 40
-11.0
 40
-10.0
 40
-9.0
 40
-8.0
 40
-7.0
 40
-6.0
 40
-5.0
 40
-4.0
 40
-3.0
 40
-2.0
 40
-1.0
 40
0.0
 40
0.0
 40
0.0
 40
0.0
 10
744.1847211586664
 20
216.9095457616943
 30
377.9346008300781
 10
760.5969897668765
 20
233.7376524555378
 30
377.9346008300781
 10
792.496622169465
 20
268.0956140319188
 30
377.9346008300781
 10
841.1745199803409
 20
319.5103879550237
 30
377.9346008300781
 10
895.3546736906666
 20
363.3797366836673
 30
377.9346008300781
 10
956.283286016953
 20
404.884363544262
 30
377.9346008300781
 10
1029.263038745694
 20
390.4729703151254
 30
377.9346008300781
 10
1092.187980056171
 20
359.5737819101716
 30
377.9346008300781
 10
1148.517598695358
 20
316.3898216552563
 30
377.9346008300781
 10
1195.772154055545
 20
263.8152634284135
 30
377.9346008300781
 10
1233.60854900951
 20
204.0766291887059
 30
377.9346008300781
 10
1261.373342565968
 20
139.0728604981352
 30
377.9346008300781
 10
1278.582686963755
 20
70.51034877953606
 30
377.9346008300781
 10
1282.57712394947
 20
23.5450905102054
 30
377.9346008300781
 10
1282.58135745411
 20
0.0529798204235584
 30
377.9346008300781
  0
SPLINE
  5
5CFAA
330
1F
100
AcDbEntity
  8
Default
100
AcDbSpline
210
0.0
220
0.0
230
1.0
 70
     8
 71
     3
 72
    19
 73
    15
 74
     0
 42
0.000000001
 43
0.0000000001
 40
0.0
 40
0.0
 40
0.0
 40
0.0
 40
1.0
 40
2.0
 40
3.0
 40
4.0
 40
5.0
 40
6.0
 40
7.0
 40
8.0
 40
9.0
 40
10.0
 40
11.0
 40
12.0
 40
12.0
 40
12.0
 40
12.0
 10
1282.58135745411
 20
0.0529798204235584
 30
377.9346008300781
 10
1282.57712394947
 20
-23.43913086935101
 30
377.9346008300781
 10
1278.582686963755
 20
-70.40438913867439
 30
377.9346008300781
 10
1261.373342565968
 20
-138.9669008572808
 30
377.9346008300781
 10
1233.60854900951
 20
-203.9706695478588
 30
377.9346008300781
 10
1195.772154055545
 20
-263.7093037875518
 30
377.9346008300781
 10
1148.517598695358
 20
-316.2838620144019
 30
377.9346008300781
 10
1092.187980056171
 20
-359.4678222693171
 30
377.9346008300781
 10
1029.263038745694
 20
-390.3670106742709
 30
377.9346008300781
 10
956.2832860169526
 20
-404.7784039034074
 30
377.9346008300781
 10
895.3546736906663
 20
-363.2737770428127
 30
377.9346008300781
 10
841.1745199803407
 20
-319.4044283141618
 30
377.9346008300781
 10
792.4966221694647
 20
-267.9896543910642
 30
377.9346008300781
 10
760.5969897668765
 20
-233.6316928146832
 30
377.9346008300781
 10
744.1847211586664
 20
-216.8035861208397
 30
377.9346008300781
  0
ARC
  5
5CFAB
330
1F
100
AcDbEntity
  8
Default
100
AcDbCircle
 10
1514.444687571582
 20
-399.1790803220491
 30
377.9346008300781
 40
963.8493256671051
100
AcDbArc
 50
138.0836306385148
 51
142.5127600319311
  0
SPLINE
  5
5CFAC
330
1F
100
AcDbEntity
  8
Default
100
AcDbSpline
210
0.0
220
0.0
230
1.0
 70
     8
 71
     3
 72
    19
 73
    15
 74
     0
 42
0.000000001
 43
0.0000000001
 40
0.0000000000000001
 40
0.0000000000000001
 40
0.0000000000000001
 40
0.0000000000000001
 40
1.0
 40
2.0
 40
3.0
 40
4.0
 40
5.0
 40
6.0
 40
7.0
 40
8.0
 40
9.0
 40
10.0
 40
11.0
 40
12.0
 40
12.0
 40
12.0
 40
12.0
 10
797.2244366677514
 20
244.7158134939976
 30
377.9346008300781
 10
802.5477926796048
 20
250.6453817684754
 30
377.9346008300781
 10
813.3056707004108
 20
262.4046842450201
 30
377.9346008300781
 10
829.8694337355646
 20
279.6462517083794
 30
377.9346008300781
 10
847.0541914927109
 20
296.2695217576268
 30
377.9346008300781
 10
864.6718520838732
 20
312.4295972578414
 30
377.9346008300781
 10
882.3385188380745
 20
328.5313556704871
 30
377.9346008300781
 10
900.7296286787315
 20
343.8434489381482
 30
377.9346008300781
 10
920.157924345289
 20
357.7179892453289
 30
377.9346008300781
 10
940.886428477461
 20
370.0399091305746
 30
377.9346008300781
 10
964.5977387771964
 20
374.85422084071
 30
377.9346008300781
 10
988.5878976720888
 20
374.1893511891624
 30
377.9346008300781
 10
1012.093657911441
 20
369.4714332189771
 30
377.9346008300781
 10
1027.198977460352
 20
364.3025637101539
 30
377.9346008300781
 10
1034.586686282246
 20
361.3176032972417
 30
377.9346008300781
  0
ARC
  5
5CFAD
330
1F
100
AcDbEntity
  8
Default
100
AcDbCircle
 10
1514.444687571582
 20
399.284890090713
 30
377.9346008300781
 40
963.8493256671051
100
AcDbArc
 50
217.4872399680689
 51
221.9163693614852
  0
SPLINE
  5
5CFAE
330
1F
100
AcDbEntity
  8
Default
100
AcDbSpline
210
0.0
220
0.0
230
1.0
 70
     8
 71
     3
 72
    19
 73
    15
 74
     0
 42
0.000000001
 43
0.0000000001
 40
0.0000000000000001
 40
0.0000000000000001
 40
0.0000000000000001
 40
0.0000000000000001
 40
1.0
 40
2.0
 40
3.0
 40
4.0
 40
5.0
 40
6.0
 40
7.0
 40
8.0
 40
9.0
 40
10.0
 40
11.0
 40
12.0
 40
12.0
 40
12.0
 40
12.0
 10
797.2244366677514
 20
-244.6100037253334
 30
377.9346008300781
 10
802.5477926796048
 20
-250.5395719998111
 30
377.9346008300781
 10
813.3056707004106
 20
-262.2988744763631
 30
377.9346008300781
 10
829.8694337355644
 20
-279.5404419397152
 30
377.9346008300781
 10
847.0541914927107
 20
-296.1637119889626
 30
377.9346008300781
 10
864.671852083873
 20
-312.3237874891771
 30
377.9346008300781
 10
882.3385188380742
 20
-328.4255459018229
 30
377.9346008300781
 10
900.7296286787312
 20
-343.737639169484
 30
377.9346008300781
 10
920.1579243452886
 20
-357.6121794766575
 30
377.9346008300781
 10
940.8864284774606
 20
-369.9340993619105
 30
377.9346008300781
 10
964.5977387771962
 20
-374.7484110720459
 30
377.9346008300781
 10
988.5878976720887
 20
-374.0835414204982
 30
377.9346008300781
 10
1012.09365791144
 20
-369.3656234503058
 30
377.9346008300781
 10
1027.198977460352
 20
-364.1967539414898
 30
377.9346008300781
 10
1034.586686282246
 20
-361.2117935285776
 30
377.9346008300781
  0
POLYLINE
  5
5CFAF
330
1F
100
AcDbEntity
  8
Default
100
AcDb2dPolyline
 66
     1
 10
0.0
 20
0.0
 30
377.9346008300781
  0
VERTEX
  5
5CFB0
330
5CFAF
100
AcDbEntity
  8
Default
100
AcDbVertex
100
AcDb2dVertex
 10
652.5093946507332
 20
26.34197982042801
 30
377.9346008300781
  0
VERTEX
  5
5CFB1
330
5CFAF
100
AcDbEntity
  8
Default
100
AcDbVertex
100
AcDb2dVertex
 10
618.3670529350783
 20
26.34197982042801
 30
377.9346008300781
  0
SEQEND
  5
5CFB2
330
5CFAF
100
AcDbEntity
  8
Default
  0
SPLINE
  5
5CFB3
330
1F
100
AcDbEntity
  8
Default
100
AcDbSpline
210
0.0
220
0.0
230
1.0
 70
    12
 71
     2
 72
     6
 73
     3
 74
     0
 42
0.000000001
 43
0.0000000001
 40
0.0
 40
0.0
 40
0.0
 40
0.2355890798875016
 40
0.2355890798875016
 40
0.2355890798875016
 10
618.3670529350783
 20
26.34197982042801
 30
377.9346008300781
 41
1.0
 10
614.5588501160491
 20
26.34018263941957
 30
377.9346008300781
 41
0.707440409735664
 10
614.5570528606058
 20
22.53197982042307
 30
377.9346008300781
 41
1.0
  0
SPLINE
  5
5CFB4
330
1F
100
AcDbEntity
  8
Default
100
AcDbSpline
210
0.0
220
0.0
230
1.0
 70
    24
 71
     2
 72
     6
 73
     3
 74
     0
 42
0.000000001
 43
0.0000000001
 40
0.0
 40
0.0
 40
0.0
 40
0.3520000000000003
 40
0.3520000000000003
 40
0.3520000000000003
 10
614.5570528606058
 20
22.53197982042307
 30
377.9346008300781
 10
614.5570528606058
 20
18.06157982042473
 30
377.9346008300781
 10
614.5570528606058
 20
13.59117982042639
 30
377.9346008300781
  0
SPLINE
  5
5CFB5
330
1F
100
AcDbEntity
  8
Default
100
AcDbSpline
210
0.0
220
0.0
230
1.0
 70
    12
 71
     2
 72
     6
 73
     3
 74
     0
 42
0.000000001
 43
0.0000000001
 40
0.0
 40
0.0
 40
0.0
 40
0.1098876245644455
 40
0.1098876245644455
 40
0.1098876245644455
 10
614.5570528606058
 20
13.59117982042639
 30
377.9346008300781
 41
1.0
 10
614.5610826880528
 20
11.81720957590855
 30
377.9346008300781
 41
0.7087112325863247
 10
616.3350529327417
 20
11.81317982042797
 30
377.9346008300781
 41
1.0
  0
POLYLINE
  5
5CFB6
330
1F
100
AcDbEntity
  8
Default
100
AcDb2dPolyline
 66
     1
 10
0.0
 20
0.0
 30
377.9346008300781
  0
VERTEX
  5
5CFB7
330
5CFB6
100
AcDbEntity
  8
Default
100
AcDbVertex
100
AcDb2dVertex
 10
616.3350529327417
 20
11.81317982042797
 30
377.9346008300781
  0
VERTEX
  5
5CFB8
330
5CFB6
100
AcDbEntity
  8
Default
100
AcDbVertex
100
AcDb2dVertex
 10
651.5311337280145
 20
11.81317982042796
 30
377.9346008300781
  0
SEQEND
  5
5CFB9
330
5CFB6
100
AcDbEntity
  8
Default
  0
SPLINE
  5
5CFBA
330
1F
100
AcDbEntity
  8
Default
100
AcDbSpline
210
0.0
220
0.0
230
1.0
 70
    12
 71
     2
 72
     6
 73
     3
 74
     0
 42
0.000000001
 43
0.0000000001
 40
-0.3669232257852178
 40
-0.3669232257852178
 40
-0.3669232257852178
 40
0.0
 40
0.0
 40
0.0
 10
651.4296949331801
 20
9.566783969699228
 30
377.9346008300781
 41
0.999999991999253
 10
646.7700680683956
 20
9.514089827426998
 30
377.9346008300781
 41
0.9999999958523481
 10
642.1104393976129
 20
9.461555628310946
 30
377.9346008300781
 41
1.0
  0
SPLINE
  5
5CFBB
330
1F
100
AcDbEntity
  8
Default
100
AcDbSpline
210
0.0
220
0.0
230
1.0
 70
     8
 71
     3
 72
    11
 73
     7
 74
     0
 42
0.000000001
 43
0.0000000001
 40
-0.5061957594563899
 40
-0.5061957594563899
 40
-0.5061957594563899
 40
-0.5061957594563899
 40
-0.2779307972340258
 40
-0.1436576036068027
 40
-0.0724650654421722
 40
0.0
 40
0.0
 40
0.0
 40
0.0
 10
642.1104393976129
 20
9.461555628310946
 30
377.9346008300781
 10
640.1206510493757
 20
9.46889685005712
 30
377.9346008300781
 10
637.3849287181401
 20
7.554648522994598
 30
377.9346008300781
 10
635.8507959389644
 20
4.186900553607615
 30
377.9346008300781
 10
635.3240011730158
 20
1.883086250404944
 30
377.9346008300781
 10
635.2495581521252
 20
0.6664333511301674
 30
377.9346008300781
 10
635.2453479993019
 20
0.0529798204237022
 30
377.9346008300781
  0
SPLINE
  5
5CFBC
330
1F
100
AcDbEntity
  8
Default
100
AcDbSpline
210
0.0
220
0.0
230
1.0
 70
     8
 71
     3
 72
    11
 73
     7
 74
     0
 42
0.000000001
 43
0.0000000001
 40
0.0
 40
0.0
 40
0.0
 40
0.0
 40
0.0724650654421701
 40
0.143657603606799
 40
0.2779307972340275
 40
0.5061957594563471
 40
0.5061957594563471
 40
0.5061957594563471
 40
0.5061957594563471
 10
635.2453479993019
 20
0.0529798204237022
 30
377.9346008300781
 10
635.2495581521252
 20
-0.5604737102754872
 30
377.9346008300781
 10
635.3240011730177
 20
-1.77712660955754
 30
377.9346008300781
 10
635.8507959389644
 20
-4.080940912752935
 30
377.9346008300781
 10
637.3849287181401
 20
-7.448688882132642
 30
377.9346008300781
 10
640.1206510493794
 20
-9.362937209202442
 30
377.9346008300781
 10
642.1104393976129
 20
-9.355595987441716
 30
377.9346008300781
  0
SPLINE
  5
5CFBD
330
1F
100
AcDbEntity
  8
Default
100
AcDbSpline
210
0.0
220
0.0
230
1.0
 70
    12
 71
     2
 72
     6
 73
     3
 74
     0
 42
0.000000001
 43
0.0000000001
 40
0.0
 40
0.0
 40
0.0
 40
0.3669232203978866
 40
0.3669232203978866
 40
0.3669232203978866
 10
642.1104393976129
 20
-9.355595987441716
 30
377.9346008300781
 41
1.0
 10
646.7700680195739
 20
-9.408128221481691
 30
377.9346008300781
 41
0.9999999957871185
 10
651.4296948214487
 20
-9.460821650782834
 30
377.9346008300781
 41
0.9999999918734237
  0
POLYLINE
  5
5CFBE
330
1F
100
AcDbEntity
  8
Default
100
AcDb2dPolyline
 66
     1
 10
0.0
 20
0.0
 30
377.9346008300781
  0
VERTEX
  5
5CFBF
330
5CFBE
100
AcDbEntity
  8
Default
100
AcDbVertex
100
AcDb2dVertex
 10
652.5093946507332
 20
-26.23602017957333
 30
377.9346008300781
  0
VERTEX
  5
5CFC0
330
5CFBE
100
AcDbEntity
  8
Default
100
AcDbVertex
100
AcDb2dVertex
 10
618.3670529350783
 20
-26.23602017957333
 30
377.9346008300781
  0
SEQEND
  5
5CFC1
330
5CFBE
100
AcDbEntity
  8
Default
  0
SPLINE
  5
5CFC2
330
1F
100
AcDbEntity
  8
Default
100
AcDbSpline
210
0.0
220
0.0
230
1.0
 70
    12
 71
     2
 72
     6
 73
     3
 74
     0
 42
0.000000001
 43
0.0000000001
 40
0.0
 40
0.0
 40
0.0
 40
0.2355890798875016
 40
0.2355890798875016
 40
0.2355890798875016
 10
618.3670529350783
 20
-26.23602017957333
 30
377.9346008300781
 41
1.0
 10
614.5588501160491
 20
-26.23422299856488
 30
377.9346008300781
 41
0.707440409735664
 10
614.5570528606058
 20
-22.42602017957565
 30
377.9346008300781
 41
1.0
  0
SPLINE
  5
5CFC3
330
1F
100
AcDbEntity
  8
Default
100
AcDbSpline
210
0.0
220
0.0
230
1.0
 70
    24
 71
     2
 72
     6
 73
     3
 74
     0
 42
0.000000001
 43
0.0000000001
 40
0.0
 40
0.0
 40
0.0
 40
0.3520000000000003
 40
0.3520000000000003
 40
0.3520000000000003
 10
614.5570528606058
 20
-22.42602017957565
 30
377.9346008300781
 10
614.5570528606058
 20
-17.95562017957731
 30
377.9346008300781
 10
614.5570528606058
 20
-13.48522017957171
 30
377.9346008300781
  0
SPLINE
  5
5CFC4
330
1F
100
AcDbEntity
  8
Default
100
AcDbSpline
210
0.0
220
0.0
230
1.0
 70
    12
 71
     2
 72
     6
 73
     3
 74
     0
 42
0.000000001
 43
0.0000000001
 40
0.0
 40
0.0
 40
0.0
 40
0.1098876245644455
 40
0.1098876245644455
 40
0.1098876245644455
 10
614.5570528606058
 20
-13.48522017957171
 30
377.9346008300781
 41
1.0
 10
614.5610826880528
 20
-11.71124993504658
 30
377.9346008300781
 41
0.7087112325863247
 10
616.3350529327417
 20
-11.70722017957328
 30
377.9346008300781
 41
1.0
  0
POLYLINE
  5
5CFC5
330
1F
100
AcDbEntity
  8
Default
100
AcDb2dPolyline
 66
     1
 10
0.0
 20
0.0
 30
377.9346008300781
  0
VERTEX
  5
5CFC6
330
5CFC5
100
AcDbEntity
  8
Default
100
AcDbVertex
100
AcDb2dVertex
 10
616.3350529327417
 20
-11.70722017957328
 30
377.9346008300781
  0
VERTEX
  5
5CFC7
330
5CFC5
100
AcDbEntity
  8
Default
100
AcDbVertex
100
AcDb2dVertex
 10
651.5311337280145
 20
-11.70722017957328
 30
377.9346008300781
  0
SEQEND
  5
5CFC8
330
5CFC5
100
AcDbEntity
  8
Default
  0
LINE
  5
5CFC9
330
1F
100
AcDbEntity
  8
Default
100
AcDbLine
 10
651.4506786365436
 20
-9.954616119647342
 30
377.9346008300781
 11
629.1799329084751
 21
-9.954619902985227
 31
377.9346008300781
  0
ARC
  5
5CFCA
330
1F
100
AcDbEntity
  8
Default
100
AcDbCircle
 10
613.9185106335832
 20
89295475.51902734
 30
377.9346008300781
 40
89295485.47364856
100
AcDbArc
 50
270.0000012526252
 51
270.0000097923939
  0
SPLINE
  5
5CFCB
330
1F
100
AcDbEntity
  8
Default
100
AcDbSpline
210
0.0
220
0.0
230
1.0
 70
    12
 71
     2
 72
     6
 73
     3
 74
     0
 42
0.000000001
 43
0.0000000001
 40
0.0
 40
0.0
 40
0.0
 40
0.0784842030870699
 40
0.0784842030870699
 40
0.0784842030870699
 10
615.8707073437962
 20
-9.954621208633989
 30
377.9346008300781
 41
1.0
 10
614.6016265003309
 20
-9.953701060460526
 30
377.9346008300781
 41
0.7071217743558634
 10
614.6024823530733
 20
-8.684620179562125
 30
377.9346008300781
 41
1.0
  0
POLYLINE
  5
5CFCC
330
1F
100
AcDbEntity
  8
Default
100
AcDb2dPolyline
 66
     1
 10
0.0
 20
0.0
 30
377.9346008300781
  0
VERTEX
  5
5CFCD
330
5CFCC
100
AcDbEntity
  8
Default
100
AcDbVertex
100
AcDb2dVertex
 10
614.6024823530733
 20
-8.684620179562125
 30
377.9346008300781
  0
VERTEX
  5
5CFCE
330
5CFCC
100
AcDbEntity
  8
Default
100
AcDbVertex
100
AcDb2dVertex
 10
614.6024823530733
 20
8.790579820416814
 30
377.9346008300781
  0
SEQEND
  5
5CFCF
330
5CFCC
100
AcDbEntity
  8
Default
  0
SPLINE
  5
5CFD0
330
1F
100
AcDbEntity
  8
Default
100
AcDbSpline
210
0.0
220
0.0
230
1.0
 70
    12
 71
     2
 72
     6
 73
     3
 74
     0
 42
0.000000001
 43
0.0000000001
 40
-0.0784842030870699
 40
-0.0784842030870699
 40
-0.0784842030870699
 40
0.0
 40
0.0
 40
0.0
 10
614.6024823530733
 20
8.790579820416814
 30
377.9346008300781
 41
1.0
 10
614.6016265003309
 20
10.05966070131521
 30
377.9346008300781
 41
0.7071217743558634
 10
615.8707073437962
 20
10.06058084948868
 30
377.9346008300781
 41
1.0
  0
ARC
  5
5CFD1
330
1F
100
AcDbEntity
  8
Default
100
AcDbCircle
 10
613.918510593928
 20
-89295475.41306769
 30
377.9346008300781
 40
89295485.47364856
100
AcDbArc
 50
89.99999020760604
 51
89.99999874737481
  0
LINE
  5
5CFD2
330
1F
100
AcDbEntity
  8
Default
100
AcDbLine
 10
629.1799329084751
 20
10.06057954383263
 30
377.9346008300781
 11
651.4506786368237
 21
10.06057576050201
 31
377.9346008300781
  0
POLYLINE
  5
5CFD3
330
1F
100
AcDbEntity
  8
Default
100
AcDb2dPolyline
 66
     1
 10
0.0
 20
0.0
 30
377.9346008300781
  0
VERTEX
  5
5CFD4
330
5CFD3
100
AcDbEntity
  8
Default
100
AcDbVertex
100
AcDb2dVertex
 10
872.2930300351579
 20
-344.200367631113
 30
377.9346008300781
  0
VERTEX
  5
5CFD5
330
5CFD3
100
AcDbEntity
  8
Default
100
AcDbVertex
100
AcDb2dVertex
 10
849.3816737482447
 20
-344.200367631113
 30
377.9346008300781
  0
SEQEND
  5
5CFD6
330
5CFD3
100
AcDbEntity
  8
Default
  0
SPLINE
  5
5CFD7
330
1F
100
AcDbEntity
  8
Default
100
AcDbSpline
210
0.0
220
0.0
230
1.0
 70
    12
 71
     2
 72
     6
 73
     3
 74
     0
 42
0.000000001
 43
0.0000000001
 40
0.0
 40
0.0
 40
0.0
 40
0.2355890798875016
 40
0.2355890798875016
 40
0.2355890798875016
 10
849.3816737482447
 20
-344.200367631113
 30
377.9346008300781
 41
1.0
 10
845.5734709292155
 20
-344.1985704501046
 30
377.9346008300781
 41
0.707440409735664
 10
845.5716736737722
 20
-340.3903676311153
 30
377.9346008300781
 41
1.0
  0
SPLINE
  5
5CFD8
330
1F
100
AcDbEntity
  8
Default
100
AcDbSpline
210
0.0
220
0.0
230
1.0
 70
    24
 71
     2
 72
     6
 73
     3
 74
     0
 42
0.000000001
 43
0.0000000001
 40
0.0
 40
0.0
 40
0.0
 40
0.3520000000000003
 40
0.3520000000000003
 40
0.3520000000000003
 10
845.5716736737722
 20
-340.3903676311153
 30
377.9346008300781
 10
845.5716736737722
 20
-335.919967631117
 30
377.9346008300781
 10
845.5716736737722
 20
-331.4495676311187
 30
377.9346008300781
  0
SPLINE
  5
5CFD9
330
1F
100
AcDbEntity
  8
Default
100
AcDbSpline
210
0.0
220
0.0
230
1.0
 70
    12
 71
     2
 72
     6
 73
     3
 74
     0
 42
0.000000001
 43
0.0000000001
 40
0.0
 40
0.0
 40
0.0
 40
0.1098876245644455
 40
0.1098876245644455
 40
0.1098876245644455
 10
845.5716736737722
 20
-331.4495676311187
 30
377.9346008300781
 41
1.0
 10
845.5757035012192
 20
-329.6755973865863
 30
377.9346008300781
 41
0.7087112325863247
 10
847.3496737459081
 20
-329.671567631113
 30
377.9346008300781
 41
1.0
  0
POLYLINE
  5
5CFDA
330
1F
100
AcDbEntity
  8
Default
100
AcDb2dPolyline
 66
     1
 10
0.0
 20
0.0
 30
377.9346008300781
  0
VERTEX
  5
5CFDB
330
5CFDA
100
AcDbEntity
  8
Default
100
AcDbVertex
100
AcDb2dVertex
 10
847.3496737459081
 20
-329.671567631113
 30
377.9346008300781
  0
VERTEX
  5
5CFDC
330
5CFDA
100
AcDbEntity
  8
Default
100
AcDbVertex
100
AcDb2dVertex
 10
854.9359286627948
 20
-329.671567631113
 30
377.9346008300781
  0
SEQEND
  5
5CFDD
330
5CFDA
100
AcDbEntity
  8
Default
  0
POLYLINE
  5
5CFDE
330
1F
100
AcDbEntity
  8
Default
100
AcDb2dPolyline
 66
     1
 10
0.0
 20
0.0
 30
377.9346008300781
  0
VERTEX
  5
5CFDF
330
5CFDE
100
AcDbEntity
  8
Default
100
AcDbVertex
100
AcDb2dVertex
 10
1229.190056061457
 20
208.3259537562491
 30
377.9346008300781
  0
VERTEX
  5
5CFE0
330
5CFDE
100
AcDbEntity
  8
Default
100
AcDbVertex
100
AcDb2dVertex
 10
1282.607181975352
 20
208.3259537562491
 30
377.9346008300781
  0
SEQEND
  5
5CFE1
330
5CFDE
100
AcDbEntity
  8
Default
  0
SPLINE
  5
5CFE2
330
1F
100
AcDbEntity
  8
Default
100
AcDbSpline
210
0.0
220
0.0
230
1.0
 70
    12
 71
     2
 72
     6
 73
     3
 74
     0
 42
0.000000001
 43
0.0000000001
 40
0.0
 40
0.0
 40
0.0
 40
0.109941564851661
 40
0.109941564851661
 40
0.109941564851661
 10
1282.607181975352
 20
208.3259537562491
 30
377.9346008300781
 41
1.0
 10
1284.384342900237
 20
208.3267928313955
 30
377.9346008300781
 41
0.7074405726109262
 10
1284.38518204749
 20
210.1039537562475
 30
377.9346008300781
 41
1.0
  0
SPLINE
  5
5CFE3
330
1F
100
AcDbEntity
  8
Default
100
AcDbSpline
210
0.0
220
0.0
230
1.0
 70
    24
 71
     2
 72
     6
 73
     3
 74
     0
 42
0.000000001
 43
0.0000000001
 40
0.0
 40
0.0
 40
0.0
 40
0.3520000000000003
 40
0.3520000000000003
 40
0.3520000000000003
 10
1284.38518204749
 20
210.1039537562475
 30
377.9346008300781
 10
1284.38518204749
 20
214.5743537562459
 30
377.9346008300781
 10
1284.38518204749
 20
219.0447537562515
 30
377.9346008300781
  0
SPLINE
  5
5CFE4
330
1F
100
AcDbEntity
  8
Default
100
AcDbSpline
210
-0.0000000000000149
220
-0.0000000000000149
230
1.0
 70
    12
 71
     2
 72
     6
 73
     3
 74
     0
 42
0.000000001
 43
0.0000000001
 40
0.0
 40
0.0
 40
0.0
 40
0.2356186331260159
 40
0.2356186331260159
 40
0.2356186331260159
 10
1284.38518204749
 20
219.0447537562515
 30
377.9346008300781
 41
1.0
 10
1284.385133590042
 20
222.8547053732774
 30
377.9346008300782
 41
0.7071157676638843
 10
1280.575181973016
 20
222.8547537562492
 30
377.9346008300781
 41
1.0
  0
POLYLINE
  5
5CFE5
330
1F
100
AcDbEntity
  8
Default
100
AcDb2dPolyline
 66
     1
 10
0.0
 20
0.0
 30
377.9346008300781
  0
VERTEX
  5
5CFE6
330
5CFE5
100
AcDbEntity
  8
Default
100
AcDbVertex
100
AcDb2dVertex
 10
1280.575181973016
 20
222.8547537562492
 30
377.9346008300781
  0
VERTEX
  5
5CFE7
330
5CFE5
100
AcDbEntity
  8
Default
100
AcDbVertex
100
AcDb2dVertex
 10
1223.171182121963
 20
222.8547537562492
 30
377.9346008300781
  0
SEQEND
  5
5CFE8
330
5CFE5
100
AcDbEntity
  8
Default
  0
SPLINE
  5
5CFE9
330
1F
100
AcDbEntity
  8
Default
100
AcDbSpline
210
0.0
220
0.0
230
1.0
 70
    12
 71
     2
 72
     6
 73
     3
 74
     0
 42
0.000000001
 43
0.0000000001
 40
0.0
 40
0.0
 40
0.0
 40
0.0812712606071793
 40
0.0812712606071793
 40
0.0812712606071793
 10
1223.171182121963
 20
222.8547537562492
 30
377.9346008300781
 41
1.0
 10
1222.137479631151
 20
222.8542659275856
 30
377.9346008300781
 41
0.8990755992813575
 10
1221.245647960457
 20
222.3316022224837
 30
377.9346008300781
 41
0.8677830616044564
  0
POLYLINE
  5
5CFEA
330
1F
100
AcDbEntity
  8
Default
100
AcDb2dPolyline
 66
     1
 10
0.0
 20
0.0
 30
377.9346008300781
  0
VERTEX
  5
5CFEB
330
5CFEA
100
AcDbEntity
  8
Default
100
AcDbVertex
100
AcDb2dVertex
 10
1229.190056061457
 20
-208.2199941153947
 30
377.9346008300781
  0
VERTEX
  5
5CFEC
330
5CFEA
100
AcDbEntity
  8
Default
100
AcDbVertex
100
AcDb2dVertex
 10
1282.607181975352
 20
-208.2199941153947
 30
377.9346008300781
  0
SEQEND
  5
5CFED
330
5CFEA
100
AcDbEntity
  8
Default
  0
SPLINE
  5
5CFEE
330
1F
100
AcDbEntity
  8
Default
100
AcDbSpline
210
0.0
220
0.0
230
1.0
 70
    12
 71
     2
 72
     6
 73
     3
 74
     0
 42
0.000000001
 43
0.0000000001
 40
0.0
 40
0.0
 40
0.0
 40
0.109941564851661
 40
0.109941564851661
 40
0.109941564851661
 10
1282.607181975352
 20
-208.2199941153947
 30
377.9346008300781
 41
1.0
 10
1284.384342900237
 20
-208.2208331905416
 30
377.9346008300781
 41
0.7074405726109262
 10
1284.38518204749
 20
-209.9979941153932
 30
377.9346008300781
 41
1.0
  0
SPLINE
  5
5CFEF
330
1F
100
AcDbEntity
  8
Default
100
AcDbSpline
210
0.0
220
0.0
230
1.0
 70
    24
 71
     2
 72
     6
 73
     3
 74
     0
 42
0.000000001
 43
0.0000000001
 40
0.0
 40
0.0
 40
0.0
 40
0.3520000000000003
 40
0.3520000000000003
 40
0.3520000000000003
 10
1284.38518204749
 20
-209.9979941153932
 30
377.9346008300781
 10
1284.38518204749
 20
-214.4683941153915
 30
377.9346008300781
 10
1284.38518204749
 20
-218.9387941153898
 30
377.9346008300781
  0
SPLINE
  5
5CFF0
330
1F
100
AcDbEntity
  8
Default
100
AcDbSpline
210
-0.0000000000000149
220
0.0000000000000149
230
1.0
 70
    12
 71
     2
 72
     6
 73
     3
 74
     0
 42
0.000000001
 43
0.0000000001
 40
0.0
 40
0.0
 40
0.0
 40
0.2356186331260159
 40
0.2356186331260159
 40
0.2356186331260159
 10
1284.38518204749
 20
-218.9387941153898
 30
377.9346008300781
 41
1.0
 10
1284.385133590042
 20
-222.7487457324162
 30
377.9346008300782
 41
0.7071157676638843
 10
1280.575181973016
 20
-222.7487941153948
 30
377.9346008300781
 41
1.0
  0
POLYLINE
  5
5CFF1
330
1F
100
AcDbEntity
  8
Default
100
AcDb2dPolyline
 66
     1
 10
0.0
 20
0.0
 30
377.9346008300781
  0
VERTEX
  5
5CFF2
330
5CFF1
100
AcDbEntity
  8
Default
100
AcDbVertex
100
AcDb2dVertex
 10
1280.575181973016
 20
-222.7487941153948
 30
377.9346008300781
  0
VERTEX
  5
5CFF3
330
5CFF1
100
AcDbEntity
  8
Default
100
AcDbVertex
100
AcDb2dVertex
 10
1223.171182121963
 20
-222.7487941153948
 30
377.9346008300781
  0
SEQEND
  5
5CFF4
330
5CFF1
100
AcDbEntity
  8
Default
  0
SPLINE
  5
5CFF5
330
1F
100
AcDbEntity
  8
Default
100
AcDbSpline
210
0.0
220
0.0
230
1.0
 70
    12
 71
     2
 72
     6
 73
     3
 74
     0
 42
0.000000001
 43
0.0000000001
 40
0.0
 40
0.0
 40
0.0
 40
0.0812712606071793
 40
0.0812712606071793
 40
0.0812712606071793
 10
1223.171182121963
 20
-222.7487941153948
 30
377.9346008300781
 41
1.0
 10
1222.137479631151
 20
-222.7483062867312
 30
377.9346008300781
 41
0.8990755992813575
 10
1221.245647960457
 20
-222.2256425816293
 30
377.9346008300781
 41
0.8677830616044564
  0
POLYLINE
  5
5CFF6
330
1F
100
AcDbEntity
  8
Default
100
AcDb2dPolyline
 66
     1
 10
0.0
 20
0.0
 30
377.9346008300781
  0
VERTEX
  5
5CFF7
330
5CFF6
100
AcDbEntity
  8
Default
100
AcDbVertex
100
AcDb2dVertex
 10
872.2930300351583
 20
344.3063272719677
 30
377.9346008300781
  0
VERTEX
  5
5CFF8
330
5CFF6
100
AcDbEntity
  8
Default
100
AcDbVertex
100
AcDb2dVertex
 10
849.3816737482449
 20
344.3063272719677
 30
377.9346008300781
  0
SEQEND
  5
5CFF9
330
5CFF6
100
AcDbEntity
  8
Default
  0
SPLINE
  5
5CFFA
330
1F
100
AcDbEntity
  8
Default
100
AcDbSpline
210
0.0
220
0.0
230
1.0
 70
    12
 71
     2
 72
     6
 73
     3
 74
     0
 42
0.000000001
 43
0.0000000001
 40
0.0
 40
0.0
 40
0.0
 40
0.2355890798875016
 40
0.2355890798875016
 40
0.2355890798875016
 10
849.3816737482449
 20
344.3063272719677
 30
377.9346008300781
 41
1.0
 10
845.5734709292157
 20
344.3045300909665
 30
377.9346008300781
 41
0.707440409735664
 10
845.5716736737723
 20
340.49632727197
 30
377.9346008300781
 41
1.0
  0
SPLINE
  5
5CFFB
330
1F
100
AcDbEntity
  8
Default
100
AcDbSpline
210
0.0
220
0.0
230
1.0
 70
    24
 71
     2
 72
     6
 73
     3
 74
     0
 42
0.000000001
 43
0.0000000001
 40
0.0
 40
0.0
 40
0.0
 40
0.3520000000000003
 40
0.3520000000000003
 40
0.3520000000000003
 10
845.5716736737723
 20
340.49632727197
 30
377.9346008300781
 10
845.5716736737723
 20
336.0259272719643
 30
377.9346008300781
 10
845.5716736737723
 20
331.555527271966
 30
377.9346008300781
  0
SPLINE
  5
5CFFC
330
1F
100
AcDbEntity
  8
Default
100
AcDbSpline
210
0.0
220
0.0
230
1.0
 70
    12
 71
     2
 72
     6
 73
     3
 74
     0
 42
0.000000001
 43
0.0000000001
 40
0.0
 40
0.0
 40
0.0
 40
0.1098876245644455
 40
0.1098876245644455
 40
0.1098876245644455
 10
845.5716736737723
 20
331.555527271966
 30
377.9346008300781
 41
1.0
 10
845.5757035012195
 20
329.7815570274409
 30
377.9346008300781
 41
0.7087112325863247
 10
847.3496737459083
 20
329.7775272719676
 30
377.9346008300781
 41
1.0
  0
POLYLINE
  5
5CFFD
330
1F
100
AcDbEntity
  8
Default
100
AcDb2dPolyline
 66
     1
 10
0.0
 20
0.0
 30
377.9346008300781
  0
VERTEX
  5
5CFFE
330
5CFFD
100
AcDbEntity
  8
Default
100
AcDbVertex
100
AcDb2dVertex
 10
847.3496737459083
 20
329.7775272719676
 30
377.9346008300781
  0
VERTEX
  5
5CFFF
330
5CFFD
100
AcDbEntity
  8
Default
100
AcDbVertex
100
AcDb2dVertex
 10
854.9359286627952
 20
329.7775272719676
 30
377.9346008300781
  0
SEQEND
  5
5D000
330
5CFFD
100
AcDbEntity
  8
Default
  0
ARC
  5
5D001
330
1F
100
AcDbEntity
  8
Default
100
AcDbCircle
 10
1218.722639820468
 20
89295279.00625338
 30
377.9346008300781
 40
89295485.47364856
100
AcDbArc
 50
270.000008857172
 51
270.0000097923939
  0
LINE
  5
5D002
330
1F
100
AcDbEntity
  8
Default
100
AcDbLine
 10
1233.984062095358
 20
-206.4673938387994
 30
377.9346008300781
 11
1283.04049318428
 21
-206.4673851277028
 31
377.9346008300781
  0
SPLINE
  5
5D003
330
1F
100
AcDbEntity
  8
Default
100
AcDbSpline
210
-0.0000000000000449
220
0.0000000000000448
230
1.0
 70
    12
 71
     2
 72
     6
 73
     3
 74
     0
 42
0.000000001
 43
0.0000000001
 40
0.0
 40
0.0
 40
0.0
 40
0.0784456575506041
 40
0.0784456575506041
 40
0.0784456575506041
 10
1283.04049318428
 20
-206.4673851277028
 30
377.9346008300781
 41
1.0
 10
1284.308968413465
 20
-206.4658693488516
 30
377.9346008300782
 41
0.7071077818591104
 10
1284.307456602259
 20
-205.1973941153836
 30
377.9346008300781
 41
1.0
  0
SPLINE
  5
5D004
330
1F
100
AcDbEntity
  8
Default
100
AcDbSpline
210
0.0
220
0.0
230
1.0
 70
    12
 71
     2
 72
     6
 73
     3
 74
     0
 42
0.000000001
 43
0.0000000001
 40
0.0
 40
0.0
 40
0.0
 40
0.0351460068279919
 40
0.0351460068279919
 40
0.0351460068279919
 10
1284.307456602259
 20
-205.1973941153836
 30
377.9346008300781
 41
1.0
 10
1284.387908675269
 20
-204.7560416917029
 30
377.9346008300781
 41
0.9924246250463484
 10
1284.35830892394
 20
-204.3083941153007
 30
377.9346008300781
 41
1.0
  0
SPLINE
  5
5D005
330
1F
100
AcDbEntity
  8
Default
100
AcDbSpline
210
0.0
220
0.0
230
1.0
 70
    24
 71
     2
 72
     6
 73
     3
 74
     0
 42
0.000000001
 43
0.0000000001
 40
-0.6179999945348698
 40
-0.6179999945348698
 40
-0.6179999945348698
 40
0.0
 40
0.0
 40
0.0
 10
1284.35830892394
 20
-204.3083941153007
 30
377.9346008300781
 10
1284.358308923936
 20
-196.4597941847012
 30
377.9346008300781
 10
1284.358308923936
 20
-188.6111942541091
 30
377.9346008300781
  0
SPLINE
  5
5D006
330
1F
100
AcDbEntity
  8
Default
100
AcDbSpline
210
0.0
220
0.0
230
1.0
 70
    12
 71
     2
 72
     6
 73
     3
 74
     0
 42
0.000000001
 43
0.0000000001
 40
0.0
 40
0.0
 40
0.0
 40
0.0351460122197656
 40
0.0351460122197656
 40
0.0351460122197656
 10
1284.358308923936
 20
-188.6111942541091
 30
377.9346008300781
 41
1.0
 10
1284.387908666298
 20
-188.1635466097348
 30
377.9346008300781
 41
0.9924246303389436
 10
1284.30745660604
 20
-187.7221941154046
 30
377.9346008300781
 41
1.0
  0
SPLINE
  5
5D007
330
1F
100
AcDbEntity
  8
Default
100
AcDbSpline
210
0.0
220
0.0
230
1.0
 70
    12
 71
     2
 72
     6
 73
     3
 74
     0
 42
0.000000001
 43
0.0000000001
 40
0.0
 40
0.0
 40
0.0
 40
0.0784456577816192
 40
0.0784456577816192
 40
0.0784456577816192
 10
1284.30745660604
 20
-187.7221941154046
 30
377.9346008300781
 41
1.0
 10
1284.308968404122
 20
-186.4537188829916
 30
377.9346008300781
 41
0.707107785543906
 10
1283.040493176011
 20
-186.4522027256451
 30
377.9346008300781
 41
1.0
  0
LINE
  5
5D008
330
1F
100
AcDbEntity
  8
Default
100
AcDbLine
 10
1283.040493176011
 20
-186.4522027256451
 30
377.9346008300781
 11
1240.235289875665
 21
-186.4521954539366
 31
377.9346008300781
  0
POLYLINE
  5
5D009
330
1F
100
AcDbEntity
  8
Default
100
AcDb2dPolyline
 66
     1
 10
0.0
 20
0.0
 30
377.9346008300781
  0
VERTEX
  5
5D00A
330
5D009
100
AcDbEntity
  8
Default
100
AcDbVertex
100
AcDb2dVertex
 10
1241.059409442598
 20
-184.6995941153935
 30
377.9346008300781
  0
VERTEX
  5
5D00B
330
5D009
100
AcDbEntity
  8
Default
100
AcDbVertex
100
AcDb2dVertex
 10
1282.607181975352
 20
-184.6995941153935
 30
377.9346008300781
  0
SEQEND
  5
5D00C
330
5D009
100
AcDbEntity
  8
Default
  0
SPLINE
  5
5D00D
330
1F
100
AcDbEntity
  8
Default
100
AcDbSpline
210
0.0
220
0.0
230
1.0
 70
    12
 71
     2
 72
     6
 73
     3
 74
     0
 42
0.000000001
 43
0.0000000001
 40
0.0
 40
0.0
 40
0.0
 40
0.109941564851661
 40
0.109941564851661
 40
0.109941564851661
 10
1282.607181975352
 20
-184.6995941153935
 30
377.9346008300781
 41
1.0
 10
1284.384342900237
 20
-184.6987550402471
 30
377.9346008300781
 41
0.7074405726109262
 10
1284.38518204749
 20
-182.921594115395
 30
377.9346008300781
 41
1.0
  0
SPLINE
  5
5D00E
330
1F
100
AcDbEntity
  8
Default
100
AcDbSpline
210
0.0
220
0.0
230
1.0
 70
    24
 71
     2
 72
     6
 73
     3
 74
     0
 42
0.000000001
 43
0.0000000001
 40
0.0
 40
0.0
 40
0.0
 40
0.3520000000000003
 40
0.3520000000000003
 40
0.3520000000000003
 10
1284.38518204749
 20
-182.921594115395
 30
377.9346008300781
 10
1284.38518204749
 20
-178.4511941153894
 30
377.9346008300781
 10
1284.38518204749
 20
-173.9807941153911
 30
377.9346008300781
  0
SPLINE
  5
5D00F
330
1F
100
AcDbEntity
  8
Default
100
AcDbSpline
210
-0.0000000000000149
220
-0.0000000000000149
230
1.0
 70
    12
 71
     2
 72
     6
 73
     3
 74
     0
 42
0.000000001
 43
0.0000000001
 40
0.0
 40
0.0
 40
0.0
 40
0.2356186331260159
 40
0.2356186331260159
 40
0.2356186331260159
 10
1284.38518204749
 20
-173.9807941153911
 30
377.9346008300781
 41
1.0
 10
1284.385133590042
 20
-170.1708424983724
 30
377.9346008300782
 41
0.7071157676638843
 10
1280.575181973016
 20
-170.1707941153934
 30
377.9346008300781
 41
1.0
  0
POLYLINE
  5
5D010
330
1F
100
AcDbEntity
  8
Default
100
AcDb2dPolyline
 66
     1
 10
0.0
 20
0.0
 30
377.9346008300781
  0
VERTEX
  5
5D011
330
5D010
100
AcDbEntity
  8
Default
100
AcDbVertex
100
AcDb2dVertex
 10
1280.575181973016
 20
-170.1707941153934
 30
377.9346008300781
  0
VERTEX
  5
5D012
330
5D010
100
AcDbEntity
  8
Default
100
AcDbVertex
100
AcDb2dVertex
 10
1247.535827370464
 20
-170.1707941153934
 30
377.9346008300781
  0
SEQEND
  5
5D013
330
5D010
100
AcDbEntity
  8
Default
  0
ARC
  5
5D014
330
1F
100
AcDbEntity
  8
Default
100
AcDbCircle
 10
1218.722639780813
 20
-89295278.90029373
 30
377.9346008300781
 40
89295485.47364856
100
AcDbArc
 50
89.99999020760604
 51
89.99999114282795
  0
LINE
  5
5D015
330
1F
100
AcDbEntity
  8
Default
100
AcDbLine
 10
1233.984062095358
 20
206.5733534796538
 30
377.9346008300781
 11
1283.04049318428
 21
206.5733447685572
 31
377.9346008300781
  0
SPLINE
  5
5D016
330
1F
100
AcDbEntity
  8
Default
100
AcDbSpline
210
-0.0000000000000449
220
-0.0000000000000448
230
1.0
 70
    12
 71
     2
 72
     6
 73
     3
 74
     0
 42
0.000000001
 43
0.0000000001
 40
0.0
 40
0.0
 40
0.0
 40
0.0784456575506041
 40
0.0784456575506041
 40
0.0784456575506041
 10
1283.04049318428
 20
206.5733447685572
 30
377.9346008300781
 41
1.0
 10
1284.308968413465
 20
206.571828989706
 30
377.9346008300782
 41
0.7071077818591104
 10
1284.307456602259
 20
205.303353756238
 30
377.9346008300781
 41
1.0
  0
SPLINE
  5
5D017
330
1F
100
AcDbEntity
  8
Default
100
AcDbSpline
210
0.0
220
0.0
230
1.0
 70
    12
 71
     2
 72
     6
 73
     3
 74
     0
 42
0.000000001
 43
0.0000000001
 40
0.0
 40
0.0
 40
0.0
 40
0.0351460068279919
 40
0.0351460068279919
 40
0.0351460068279919
 10
1284.307456602259
 20
205.303353756238
 30
377.9346008300781
 41
1.0
 10
1284.387908675269
 20
204.8620013325573
 30
377.9346008300781
 41
0.9924246250463484
 10
1284.35830892394
 20
204.4143537561478
 30
377.9346008300781
 41
1.0
  0
SPLINE
  5
5D018
330
1F
100
AcDbEntity
  8
Default
100
AcDbSpline
210
0.0
220
0.0
230
1.0
 70
    24
 71
     2
 72
     6
 73
     3
 74
     0
 42
0.000000001
 43
0.0000000001
 40
-0.6179999945348698
 40
-0.6179999945348698
 40
-0.6179999945348698
 40
0.0
 40
0.0
 40
0.0
 10
1284.35830892394
 20
204.4143537561478
 30
377.9346008300781
 10
1284.358308923936
 20
196.5657538255556
 30
377.9346008300781
 10
1284.358308923936
 20
188.7171538949635
 30
377.9346008300781
  0
SPLINE
  5
5D019
330
1F
100
AcDbEntity
  8
Default
100
AcDbSpline
210
0.0
220
0.0
230
1.0
 70
    12
 71
     2
 72
     6
 73
     3
 74
     0
 42
0.000000001
 43
0.0000000001
 40
0.0
 40
0.0
 40
0.0
 40
0.0351460122197656
 40
0.0351460122197656
 40
0.0351460122197656
 10
1284.358308923936
 20
188.7171538949635
 30
377.9346008300781
 41
1.0
 10
1284.387908666298
 20
188.2695062505965
 30
377.9346008300781
 41
0.9924246303389436
 10
1284.30745660604
 20
187.8281537562518
 30
377.9346008300781
 41
1.0
  0
SPLINE
  5
5D01A
330
1F
100
AcDbEntity
  8
Default
100
AcDbSpline
210
0.0
220
0.0
230
1.0
 70
    12
 71
     2
 72
     6
 73
     3
 74
     0
 42
0.000000001
 43
0.0000000001
 40
0.0
 40
0.0
 40
0.0
 40
0.0784456577816192
 40
0.0784456577816192
 40
0.0784456577816192
 10
1284.30745660604
 20
187.8281537562518
 30
377.9346008300781
 41
1.0
 10
1284.308968404122
 20
186.5596785238387
 30
377.9346008300781
 41
0.707107785543906
 10
1283.040493176011
 20
186.5581631223332
 30
377.9346008300781
 41
1.0
  0
LINE
  5
5D01B
330
1F
100
AcDbEntity
  8
Default
100
AcDbLine
 10
1283.040493176011
 20
186.5581623664922
 30
377.9346008300781
 11
1240.235289880998
 21
186.5581550761209
 31
377.9346008300781
  0
POLYLINE
  5
5D01C
330
1F
100
AcDbEntity
  8
Default
100
AcDb2dPolyline
 66
     1
 10
0.0
 20
0.0
 30
377.9346008300781
  0
VERTEX
  5
5D01D
330
5D01C
100
AcDbEntity
  8
Default
100
AcDbVertex
100
AcDb2dVertex
 10
1241.059409442598
 20
184.8055537562479
 30
377.9346008300781
  0
VERTEX
  5
5D01E
330
5D01C
100
AcDbEntity
  8
Default
100
AcDbVertex
100
AcDb2dVertex
 10
1282.607181975352
 20
184.8055537562479
 30
377.9346008300781
  0
SEQEND
  5
5D01F
330
5D01C
100
AcDbEntity
  8
Default
  0
SPLINE
  5
5D020
330
1F
100
AcDbEntity
  8
Default
100
AcDbSpline
210
0.0
220
0.0
230
1.0
 70
    12
 71
     2
 72
     6
 73
     3
 74
     0
 42
0.000000001
 43
0.0000000001
 40
0.0
 40
0.0
 40
0.0
 40
0.109941564851661
 40
0.109941564851661
 40
0.109941564851661
 10
1282.607181975352
 20
184.8055537562479
 30
377.9346008300781
 41
1.0
 10
1284.384342900237
 20
184.804714681087
 30
377.9346008300781
 41
0.7074405726109262
 10
1284.38518204749
 20
183.0275537562494
 30
377.9346008300781
 41
1.0
  0
SPLINE
  5
5D021
330
1F
100
AcDbEntity
  8
Default
100
AcDbSpline
210
0.0
220
0.0
230
1.0
 70
    24
 71
     2
 72
     6
 73
     3
 74
     0
 42
0.000000001
 43
0.0000000001
 40
0.0
 40
0.0
 40
0.0
 40
0.3520000000000003
 40
0.3520000000000003
 40
0.3520000000000003
 10
1284.38518204749
 20
183.0275537562494
 30
377.9346008300781
 10
1284.38518204749
 20
178.5571537562511
 30
377.9346008300781
 10
1284.38518204749
 20
174.0867537562528
 30
377.9346008300781
  0
SPLINE
  5
5D022
330
1F
100
AcDbEntity
  8
Default
100
AcDbSpline
210
-0.0000000000000149
220
0.0000000000000149
230
1.0
 70
    12
 71
     2
 72
     6
 73
     3
 74
     0
 42
0.000000001
 43
0.0000000001
 40
0.0
 40
0.0
 40
0.0
 40
0.2356186331260159
 40
0.2356186331260159
 40
0.2356186331260159
 10
1284.38518204749
 20
174.0867537562528
 30
377.9346008300781
 41
1.0
 10
1284.385133590042
 20
170.2768021392195
 30
377.9346008300782
 41
0.7071157676638843
 10
1280.575181973016
 20
170.2767537562478
 30
377.9346008300781
 41
1.0
  0
POLYLINE
  5
5D023
330
1F
100
AcDbEntity
  8
Default
100
AcDb2dPolyline
 66
     1
 10
0.0
 20
0.0
 30
377.9346008300781
  0
VERTEX
  5
5D024
330
5D023
100
AcDbEntity
  8
Default
100
AcDbVertex
100
AcDb2dVertex
 10
1280.575181973016
 20
170.2767537562478
 30
377.9346008300781
  0
VERTEX
  5
5D025
330
5D023
100
AcDbEntity
  8
Default
100
AcDbVertex
100
AcDb2dVertex
 10
1247.535827370468
 20
170.2767537562478
 30
377.9346008300781
  0
SEQEND
  5
5D026
330
5D023
100
AcDbEntity
  8
Default
  0
ARC
  5
5D027
330
1F
100
AcDbEntity
  8
Default
100
AcDbCircle
 10
844.9331314070944
 20
-89295157.44872022
 30
377.9346008300781
 40
89295485.47364856
100
AcDbArc
 50
89.99999486870782
 51
89.99999874737481
  0
SPLINE
  5
5D028
330
1F
100
AcDbEntity
  8
Default
100
AcDbSpline
210
0.0
220
0.0
230
1.0
 70
    12
 71
     2
 72
     6
 73
     3
 74
     0
 42
0.000000001
 43
0.0000000001
 40
0.0
 40
0.0
 40
0.0
 40
0.0784842030870699
 40
0.0784842030870699
 40
0.0784842030870699
 10
846.8853281569629
 20
328.0249283010283
 30
377.9346008300781
 41
1.0
 10
845.6162473134973
 20
328.0240081528621
 30
377.9346008300781
 41
0.7071217743558634
 10
845.6171031662398
 20
326.7549272719637
 30
377.9346008300781
 41
1.0
  0
POLYLINE
  5
5D029
330
1F
100
AcDbEntity
  8
Default
100
AcDb2dPolyline
 66
     1
 10
0.0
 20
0.0
 30
377.9346008300781
  0
VERTEX
  5
5D02A
330
5D029
100
AcDbEntity
  8
Default
100
AcDbVertex
100
AcDb2dVertex
 10
845.6171031662398
 20
326.7549272719637
 30
377.9346008300781
  0
VERTEX
  5
5D02B
330
5D029
100
AcDbEntity
  8
Default
100
AcDbVertex
100
AcDb2dVertex
 10
845.6171031662398
 20
321.489480443853
 30
377.9346008300781
  0
SEQEND
  5
5D02C
330
5D029
100
AcDbEntity
  8
Default
  0
ARC
  5
5D02D
330
1F
100
AcDbEntity
  8
Default
100
AcDbCircle
 10
844.9331314467496
 20
89295157.55467988
 30
377.9346008300781
 40
89295485.47364856
100
AcDbArc
 50
270.0000012526252
 51
270.0000051312922
  0
SPLINE
  5
5D02E
330
1F
100
AcDbEntity
  8
Default
100
AcDbSpline
210
0.0
220
0.0
230
1.0
 70
    12
 71
     2
 72
     6
 73
     3
 74
     0
 42
0.000000001
 43
0.0000000001
 40
0.0
 40
0.0
 40
0.0
 40
0.0784842030870699
 40
0.0784842030870699
 40
0.0784842030870699
 10
846.8853281569625
 20
-327.9189686601737
 30
377.9346008300781
 41
1.0
 10
845.6162473134973
 20
-327.9180485120002
 30
377.9346008300781
 41
0.7071217743558634
 10
845.6171031662396
 20
-326.6489676311018
 30
377.9346008300781
 41
1.0
  0
POLYLINE
  5
5D02F
330
1F
100
AcDbEntity
  8
Default
100
AcDb2dPolyline
 66
     1
 10
0.0
 20
0.0
 30
377.9346008300781
  0
VERTEX
  5
5D030
330
5D02F
100
AcDbEntity
  8
Default
100
AcDbVertex
100
AcDb2dVertex
 10
845.6171031662396
 20
-326.6489676311018
 30
377.9346008300781
  0
VERTEX
  5
5D031
330
5D02F
100
AcDbEntity
  8
Default
100
AcDbVertex
100
AcDb2dVertex
 10
845.6171031662396
 20
-321.3835208030056
 30
377.9346008300781
  0
SEQEND
  5
5D032
330
5D02F
100
AcDbEntity
  8
Default
  0
SPLINE
  5
5D033
330
1F
100
AcDbEntity
  8
Default
100
AcDbSpline
210
-0.0000000000000055
220
0.0000000000000149
230
1.0
 70
    12
 71
     2
 72
     6
 73
     3
 74
     0
 42
0.000000001
 43
0.0000000001
 40
0.1699723053228755
 40
0.1699723053228755
 40
0.1699723053228755
 40
0.6213186892081751
 40
0.6213186892081751
 40
0.6213186892081751
 10
1230.318663760274
 20
-206.1280112406737
 30
377.9346008300781
 41
0.8838882857041388
 10
1236.711758232845
 20
-207.5660897611227
 30
377.9346008300782
 41
0.7877819625056607
 10
1240.611507743266
 20
-202.3000019796444
 30
377.9346008300781
 41
1.0
  0
SPLINE
  5
5D034
330
1F
100
AcDbEntity
  8
Default
100
AcDbSpline
210
0.0
220
0.0
230
1.0
 70
    12
 71
     2
 72
     6
 73
     3
 74
     0
 42
0.000000001
 43
0.0000000001
 40
0.0
 40
0.0
 40
0.0
 40
0.5780956337957553
 40
0.5780956337957553
 40
0.5780956337957553
 10
1240.611507743266
 20
-202.3000019796444
 30
377.9346008300781
 41
1.0
 10
1245.881477230927
 20
-194.9059051083307
 30
377.9346008300781
 41
0.7281867164683567
 10
1239.064655511281
 20
-188.9078897210627
 30
377.9346008300781
 41
0.9621819287679231
  0
SPLINE
  5
5D035
330
1F
100
AcDbEntity
  8
Default
100
AcDbSpline
210
0.0000000000000093
220
-0.0000000000000011
230
1.0
 70
    12
 71
     2
 72
     6
 73
     3
 74
     0
 42
0.000000001
 43
0.0000000001
 40
0.0432228048386966
 40
0.0432228048386966
 40
0.0432228048386966
 40
0.6213186892081751
 40
0.6213186892081751
 40
0.6213186892081751
 10
1239.064656127079
 20
189.0138480803591
 30
377.9346008300781
 41
0.9621818109507904
 10
1245.88149498147
 20
195.0118625876577
 30
377.9346008300781
 41
0.728185760549657
 10
1240.61150761385
 20
202.4059617986215
 30
377.9346008300781
 41
1.0
  0
SPLINE
  5
5D036
330
1F
100
AcDbEntity
  8
Default
100
AcDbSpline
210
0.0
220
0.0
230
1.0
 70
    12
 71
     2
 72
     6
 73
     3
 74
     0
 42
0.000000001
 43
0.0000000001
 40
0.0
 40
0.0
 40
0.0
 40
0.4513461501451067
 40
0.4513461501451067
 40
0.4513461501451067
 10
1240.61150761385
 20
202.4059617986215
 30
377.9346008300781
 41
1.0
 10
1236.711754714959
 20
207.6720381458592
 30
377.9346008300781
 41
0.7877827267526954
 10
1230.318666003428
 20
206.2339666963755
 30
377.9346008300781
 41
0.8838886685644926
  0
SPLINE
  5
5D037
330
1F
100
AcDbEntity
  8
Default
100
AcDbSpline
210
0.0
220
0.0
230
1.0
 70
    24
 71
     2
 72
     6
 73
     3
 74
     0
 42
0.000000001
 43
0.0000000001
 40
0.0
 40
0.0
 40
0.0
 40
0.071889705667429
 40
0.071889705667429
 40
0.071889705667429
 10
-1259.87418204749
 20
206.4999552322932
 30
377.9346008300781
 10
-1259.87418204749
 20
207.4129544942715
 30
377.9346008300781
 10
-1259.87418204749
 20
208.3259537562497
 30
377.9346008300781
  0
SPLINE
  5
5D038
330
1F
100
AcDbEntity
  8
Default
100
AcDbSpline
210
0.0
220
0.0
230
1.0
 70
    24
 71
     2
 72
     6
 73
     3
 74
     0
 42
0.000000001
 43
0.0000000001
 40
0.0
 40
0.0
 40
0.0
 40
0.071889705667429
 40
0.071889705667429
 40
0.071889705667429
 10
-1259.87418204749
 20
-206.3939955914376
 30
377.9346008300781
 10
-1259.87418204749
 20
-207.3069948534159
 30
377.9346008300781
 10
-1259.87418204749
 20
-208.2199941153942
 30
377.9346008300781
  0
SPLINE
  5
5D039
330
1F
100
AcDbEntity
  8
Default
100
AcDbSpline
210
0.0
220
0.0
230
1.0
 70
    24
 71
     2
 72
     6
 73
     3
 74
     0
 42
0.000000001
 43
0.0000000001
 40
0.0
 40
0.0
 40
0.0
 40
0.0653749093108864
 40
0.0653749093108864
 40
0.0653749093108864
 10
-639.0680528606044
 20
-11.707220179573
 30
377.9346008300781
 10
-639.0680528606044
 20
-10.87695883132832
 30
377.9346008300781
 10
-639.0680528606044
 20
-10.04669748307637
 30
377.9346008300781
  0
SPLINE
  5
5D03A
330
1F
100
AcDbEntity
  8
Default
100
AcDbSpline
210
0.0
220
0.0
230
1.0
 70
    24
 71
     2
 72
     6
 73
     3
 74
     0
 42
0.000000001
 43
0.0000000001
 40
0.0
 40
0.0
 40
0.0
 40
0.0653749093108864
 40
0.0653749093108864
 40
0.0653749093108864
 10
-639.0680528606044
 20
11.81317982042824
 30
377.9346008300781
 10
-639.0680528606044
 20
10.98291847217629
 30
377.9346008300781
 10
-639.0680528606044
 20
10.15265712393162
 30
377.9346008300781
  0
SPLINE
  5
5D03B
330
1F
100
AcDbEntity
  8
Default
100
AcDbSpline
210
-0.0000000000000056
220
-0.0000000000000057
230
1.0
 70
    12
 71
     2
 72
     6
 73
     3
 74
     0
 42
0.000000001
 43
0.0000000001
 40
0.0
 40
0.0
 40
0.0
 40
0.6213186892081751
 40
0.6213186892081751
 40
0.6213186892081751
 10
-627.9631968074227
 20
10.02169491692043
 30
377.9346008300781
 41
1.0
 10
-617.924427817903
 20
10.09157619337397
 30
377.9346008300782
 41
0.7078628796196968
 10
-617.8330666200454
 20
0.0529797103387417
 30
377.9346008300781
 41
1.0
  0
SPLINE
  5
5D03C
330
1F
100
AcDbEntity
  8
Default
100
AcDbSpline
210
0.0000000000000056
220
-0.0000000000000057
230
1.0
 70
    12
 71
     2
 72
     6
 73
     3
 74
     0
 42
0.000000001
 43
0.0000000001
 40
0.0
 40
0.0
 40
0.0
 40
0.6213184385489916
 40
0.6213184385489916
 40
0.6213184385489916
 10
-617.8330666200454
 20
0.0529797103387417
 30
377.9346008300781
 41
1.0
 10
-617.9244422817028
 20
-9.985602094055456
 30
377.9346008300781
 41
0.7078638982414072
 10
-627.9631968251123
 20
-9.915735276065195
 30
377.9346008300781
 41
1.0
  0
SPLINE
  5
5D03D
330
1F
100
AcDbEntity
  8
Default
100
AcDbSpline
210
0.0
220
0.0
230
1.0
 70
    24
 71
     2
 72
     6
 73
     3
 74
     0
 42
0.000000001
 43
0.0000000001
 40
0.0
 40
0.0
 40
0.0
 40
0.0653749093108864
 40
0.0653749093108864
 40
0.0653749093108864
 10
-1243.872182047489
 20
208.3259537562497
 30
377.9346008300781
 10
-1243.872182047489
 20
207.4956924079978
 30
377.9346008300781
 10
-1243.872182047489
 20
206.6654310597531
 30
377.9346008300781
  0
SPLINE
  5
5D03E
330
1F
100
AcDbEntity
  8
Default
100
AcDbSpline
210
0.0
220
0.0
230
1.0
 70
    24
 71
     2
 72
     6
 73
     3
 74
     0
 42
0.000000001
 43
0.0000000001
 40
0.0
 40
0.0
 40
0.0
 40
0.071889705667429
 40
0.071889705667429
 40
0.071889705667429
 10
-1259.87418204749
 20
186.6315522801977
 30
377.9346008300781
 10
-1259.87418204749
 20
185.7185530182267
 30
377.9346008300781
 10
-1259.87418204749
 20
184.8055537562484
 30
377.9346008300781
  0
SPLINE
  5
5D03F
330
1F
100
AcDbEntity
  8
Default
100
AcDbSpline
210
0.0
220
0.0
230
1.0
 70
    24
 71
     2
 72
     6
 73
     3
 74
     0
 42
0.000000001
 43
0.0000000001
 40
0.0
 40
0.0
 40
0.0
 40
0.0653749093108864
 40
0.0653749093108864
 40
0.0653749093108864
 10
-1243.872182047489
 20
184.8055537562484
 30
377.9346008300781
 10
-1243.872182047489
 20
185.6358151045004
 30
377.9346008300781
 10
-1243.872182047489
 20
186.4660764527451
 30
377.9346008300781
  0
SPLINE
  5
5D040
330
1F
100
AcDbEntity
  8
Default
100
AcDbSpline
210
0.0
220
0.0
230
1.0
 70
    24
 71
     2
 72
     6
 73
     3
 74
     0
 42
0.000000001
 43
0.0000000001
 40
0.0
 40
0.0
 40
0.0
 40
0.071889705667429
 40
0.071889705667429
 40
0.071889705667429
 10
-1259.87418204749
 20
-186.5255926393494
 30
377.9346008300781
 10
-1259.87418204749
 20
-185.6125933773639
 30
377.9346008300781
 10
-1259.87418204749
 20
-184.6995941153929
 30
377.9346008300781
  0
SPLINE
  5
5D041
330
1F
100
AcDbEntity
  8
Default
100
AcDbSpline
210
0.0
220
0.0
230
1.0
 70
    24
 71
     2
 72
     6
 73
     3
 74
     0
 42
0.000000001
 43
0.0000000001
 40
0.0
 40
0.0
 40
0.0
 40
0.0653749093108864
 40
0.0653749093108864
 40
0.0653749093108864
 10
-1243.872182047489
 20
-208.2199941153942
 30
377.9346008300781
 10
-1243.872182047489
 20
-207.3897327671422
 30
377.9346008300781
 10
-1243.872182047489
 20
-206.5594714188975
 30
377.9346008300781
  0
SPLINE
  5
5D042
330
1F
100
AcDbEntity
  8
Default
100
AcDbSpline
210
0.0
220
0.0
230
1.0
 70
    24
 71
     2
 72
     6
 73
     3
 74
     0
 42
0.000000001
 43
0.0000000001
 40
0.0
 40
0.0
 40
0.0
 40
0.0653749093108864
 40
0.0653749093108864
 40
0.0653749093108864
 10
-1243.872182047489
 20
-184.6995941153929
 30
377.9346008300781
 10
-1243.872182047489
 20
-185.5298554636376
 30
377.9346008300781
 10
-1243.872182047489
 20
-186.3601168118895
 30
377.9346008300781
  0
SPLINE
  5
5D043
330
1F
100
AcDbEntity
  8
Default
100
AcDbSpline
210
0.0
220
0.0
230
1.0
 70
     8
 71
     3
 72
    12
 73
     8
 74
     0
 42
0.000000001
 43
0.0000000001
 40
0.0
 40
0.0
 40
0.0
 40
0.0
 40
1.91838585290454
 40
3.787697327406727
 40
7.628973434916602
 40
11.46360448765835
 40
15.3782305416976
 40
15.3782305416976
 40
15.3782305416976
 40
15.3782305416976
 10
-1153.57368558171
 20
0.0529048843325487
 30
377.9346008300781
 10
-1153.58817378819
 20
16.29462658643186
 30
377.9346008300781
 10
-1150.469331442891
 20
48.36754481845289
 30
377.9346008300781
 10
-1132.03021413538
 20
110.5719567074718
 30
377.9346008300781
 10
-1085.894505864662
 20
179.0724834569207
 30
377.9346008300781
 10
-1001.385828343726
 20
232.7851542463993
 30
377.9346008300781
 10
-935.6314351328528
 20
244.5174836904059
 30
377.9346008300781
 10
-902.4910138389058
 20
244.5276232740377
 30
377.9346008300781
  0
SPLINE
  5
5D044
330
1F
100
AcDbEntity
  8
Default
100
AcDbSpline
210
0.0
220
0.0
230
1.0
 70
     8
 71
     3
 72
    12
 73
     8
 74
     0
 42
0.000000001
 43
0.0000000001
 40
-14.91612104830391
 40
-14.91612104830391
 40
-14.91612104830391
 40
-14.91612104830391
 40
-11.23173116836975
 40
-7.52134715466137
 40
-3.77515601886866
 40
-1.889436739208308
 40
0.0
 40
0.0
 40
0.0
 40
0.0
 10
-902.4910138389058
 20
244.5276232740377
 30
377.9346008300781
 10
-871.2820336013246
 20
244.5350057959383
 30
377.9346008300781
 10
-808.6878218822349
 20
231.670729903513
 30
377.9346008300781
 10
-729.4930463777873
 20
177.0416158749664
 30
377.9346008300781
 10
-685.6911200458726
 20
109.3794542395423
 30
377.9346008300781
 10
-667.6431257986332
 20
48.01305409281637
 30
377.9346008300781
 10
-664.556916550724
 20
16.04927046727395
 30
377.9346008300781
 10
-664.5553988951396
 20
0.0529995918492771
 30
377.9346008300781
  0
SPLINE
  5
5D045
330
1F
100
AcDbEntity
  8
Default
100
AcDbSpline
210
0.0
220
0.0
230
1.0
 70
     8
 71
     3
 72
    12
 73
     8
 74
     0
 42
0.000000001
 43
0.0000000001
 40
-14.91612102967629
 40
-14.91612102967629
 40
-14.91612102967629
 40
-14.91612102967629
 40
-11.14156523886652
 40
-7.393161344914191
 40
-3.681958122248531
 40
-1.83908820525715
 40
0.0
 40
0.0
 40
0.0
 40
0.0
 10
-664.5553988951396
 20
0.0529995918492771
 30
377.9346008300781
 10
-664.5603423787033
 20
-31.90467257211852
 30
377.9346008300781
 10
-676.8316469934307
 20
-95.59747692398225
 30
377.9346008300781
 10
-729.5122820085907
 20
-176.9616911423857
 30
377.9346008300781
 10
-795.6433835364751
 20
-222.5600194674319
 30
377.9346008300781
 10
-855.7407123506909
 20
-241.2340685232468
 30
377.9346008300781
 10
-886.896958687279
 20
-244.422574531882
 30
377.9346008300781
 10
-902.495216471234
 20
-244.4216963583734
 30
377.9346008300781
  0
SPLINE
  5
5D046
330
1F
100
AcDbEntity
  8
Default
100
AcDbSpline
210
0.0
220
0.0
230
1.0
 70
     8
 71
     3
 72
    12
 73
     8
 74
     0
 42
0.000000001
 43
0.0000000001
 40
0.0
 40
0.0
 40
0.0
 40
0.0
 40
1.968953222664886
 40
3.918858638804648
 40
7.748286961365543
 40
11.50259787367827
 40
15.37794659634141
 40
15.37794659634141
 40
15.37794659634141
 40
15.37794659634141
 10
-902.495216471234
 20
-244.4216963583734
 30
377.9346008300781
 10
-919.1845496616297
 20
-244.4301393539702
 30
377.9346008300781
 10
-952.3778738077089
 20
-241.418435378035
 30
377.9346008300781
 10
-1015.775275800784
 20
-223.554463311599
 30
377.9346008300781
 10
-1085.27402055723
 20
-179.3389475386923
 30
377.9346008300781
 10
-1140.983697117817
 20
-97.44645702878754
 30
377.9346008300781
 10
-1153.575901510112
 20
-32.73866550444493
 30
377.9346008300781
 10
-1153.57368558171
 20
0.0529048843325487
 30
377.9346008300781
  0
SPLINE
  5
5D047
330
1F
100
AcDbEntity
  8
Default
100
AcDbSpline
210
0.0
220
0.0
230
1.0
 70
     8
 71
     3
 72
    12
 73
     8
 74
     0
 42
0.000000001
 43
0.0000000001
 40
0.0
 40
0.0
 40
0.0
 40
0.0
 40
2.315241172828345
 40
4.66252058763445
 40
9.309249842901856
 40
13.89761326846572
 40
18.23362376580278
 40
18.23362376580278
 40
18.23362376580278
 40
18.23362376580278
 10
-1270.066806736502
 20
0.0529798204241252
 30
377.9346008300781
 10
-1270.260711238501
 20
-19.56162618780781
 30
377.9346008300781
 10
-1267.723447393671
 20
-59.0445455976498
 30
377.9346008300781
 10
-1251.793113657071
 20
-136.4421633797739
 30
377.9346008300781
 10
-1212.088192737827
 20
-227.1509477731508
 30
377.9346008300781
 10
-1137.530118514196
 20
-316.2066775760306
 30
377.9346008300781
 10
-1073.228135252968
 20
-357.6256470866194
 30
377.9346008300781
 10
-1039.301909510324
 20
-371.7434024590605
 30
377.9346008300781
  0
SPLINE
  5
5D048
330
1F
100
AcDbEntity
  8
Default
100
AcDbSpline
210
0.0
220
0.0
230
1.0
 70
     8
 71
     3
 72
    12
 73
     8
 74
     0
 42
0.000000001
 43
0.0000000001
 40
-5.0
 40
-5.0
 40
-5.0
 40
-5.0
 40
-4.0
 40
-3.0
 40
-2.0
 40
-1.0
 40
0.0
 40
0.0
 40
0.0
 40
0.0
 10
-1039.301909510324
 20
-371.7434024590605
 30
377.9346008300781
 10
-1032.367760600853
 20
-374.6261817510733
 30
377.9346008300781
 10
-1018.241853194531
 20
-379.7701426335464
 30
377.9346008300781
 10
-996.396404969235
 20
-385.4121080775424
 30
377.9346008300781
 10
-973.9951800277777
 20
-388.2779672000454
 30
377.9346008300781
 10
-951.3482885424656
 20
-387.0614272481964
 30
377.9346008300781
 10
-936.9688782393678
 20
-382.1894084643848
 30
377.9346008300781
 10
-930.3177554768955
 20
-378.6971865179205
 30
377.9346008300781
  0
SPLINE
  5
5D049
330
1F
100
AcDbEntity
  8
Default
100
AcDbSpline
210
0.0
220
0.0
230
1.0
 70
     8
 71
     3
 72
    24
 73
    20
 74
     0
 42
0.000000001
 43
0.0000000001
 40
0.0
 40
0.0
 40
0.0
 40
0.0
 40
1.0
 40
2.0
 40
3.0
 40
4.0
 40
5.0
 40
6.0
 40
7.0
 40
8.0
 40
9.0
 40
10.0
 40
11.0
 40
12.0
 40
13.0
 40
14.0
 40
15.0
 40
16.0
 40
17.0
 40
17.0
 40
17.0
 40
17.0
 10
-930.3177554768955
 20
-378.6971865179205
 30
377.9346008300781
 10
-921.9654110064821
 20
-374.3244397571964
 30
377.9346008300781
 10
-906.118789563845
 20
-364.0804994455596
 30
377.9346008300781
 10
-883.5654328498915
 20
-347.0183186937559
 30
377.9346008300781
 10
-862.2151475296851
 20
-328.4856407689497
 30
377.9346008300781
 10
-840.9280759715384
 20
-309.893750209709
 30
377.9346008300781
 10
-819.7376845960389
 20
-291.1863926228528
 30
377.9346008300781
 10
-799.050217516935
 20
-271.9221027905645
 30
377.9346008300781
 10
-778.9575754518501
 20
-252.0382715707295
 30
377.9346008300781
 10
-759.2767799050034
 20
-231.7529499955402
 30
377.9346008300781
 10
-739.2323990727327
 20
-211.8111509983048
 30
377.9346008300781
 10
-720.6582554725355
 20
-190.4805328230853
 30
377.9346008300781
 10
-703.7370648546693
 20
-167.8127462739852
 30
377.9346008300781
 10
-688.7780154044667
 20
-143.7997115487581
 30
377.9346008300781
 10
-675.9797154855496
 20
-118.5655926615785
 30
377.9346008300781
 10
-665.6185921456308
 20
-92.23180166169763
 30
377.9346008300781
 10
-657.9290199020997
 20
-64.99648089841352
 30
377.9346008300781
 10
-652.946010939464
 20
-37.13973044493318
 30
377.9346008300781
 10
-651.2072632557665
 20
-9.36870980148373
 30
377.9346008300781
 10
-651.2072632557665
 20
0.0529798204239878
 30
377.9346008300781
  0
SPLINE
  5
5D04A
330
1F
100
AcDbEntity
  8
Default
100
AcDbSpline
210
0.0
220
0.0
230
1.0
 70
     8
 71
     3
 72
    24
 73
    20
 74
     0
 42
0.000000001
 43
0.0000000001
 40
-17.0
 40
-17.0
 40
-17.0
 40
-17.0
 40
-16.0
 40
-15.0
 40
-14.0
 40
-13.0
 40
-12.0
 40
-11.0
 40
-10.0
 40
-9.0
 40
-8.0
 40
-7.0
 40
-6.0
 40
-5.0
 40
-4.0
 40
-3.0
 40
-2.0
 40
-1.0
 40
0.0
 40
0.0
 40
0.0
 40
0.0
 10
-651.2072632557665
 20
0.0529798204239878
 30
377.9346008300781
 10
-651.2072632557665
 20
9.474669442346256
 30
377.9346008300781
 10
-652.946010939464
 20
37.24569008578843
 30
377.9346008300781
 10
-657.9290199020997
 20
65.10244053926877
 30
377.9346008300781
 10
-665.6185921456308
 20
92.33776130254559
 30
377.9346008300781
 10
-675.9797154855496
 20
118.6715523024265
 30
377.9346008300781
 10
-688.7780154044667
 20
143.9056711896134
 30
377.9346008300781
 10
-703.7370648546693
 20
167.9187059148332
 30
377.9346008300781
 10
-720.6582554725355
 20
190.5864924639406
 30
377.9346008300781
 10
-739.2323990727327
 20
211.9171106391529
 30
377.9346008300781
 10
-759.2767799050034
 20
231.8589096363955
 30
377.9346008300781
 10
-778.9575754518501
 20
252.1442312115775
 30
377.9346008300781
 10
-799.0502175169348
 20
272.0280624314197
 30
377.9346008300781
 10
-819.7376845960388
 20
291.2923522637081
 30
377.9346008300781
 10
-840.9280759715382
 20
309.9997098505716
 30
377.9346008300781
 10
-862.2151475296849
 20
328.5916004098051
 30
377.9346008300781
 10
-883.5654328498911
 20
347.1242783346113
 30
377.9346008300781
 10
-906.1187895638449
 20
364.186459086415
 30
377.9346008300781
 10
-921.9654110064819
 20
374.4303993980518
 30
377.9346008300781
 10
-930.3177554768952
 20
378.8031461587759
 30
377.9346008300781
  0
SPLINE
  5
5D04B
330
1F
100
AcDbEntity
  8
Default
100
AcDbSpline
210
0.0
220
0.0
230
1.0
 70
     8
 71
     3
 72
    12
 73
     8
 74
     0
 42
0.000000001
 43
0.0000000001
 40
0.0
 40
0.0
 40
0.0
 40
0.0
 40
1.0
 40
2.0
 40
3.0
 40
4.0
 40
5.0
 40
5.0
 40
5.0
 40
5.0
 10
-930.3177554768952
 20
378.8031461587759
 30
377.9346008300781
 10
-936.9688782393676
 20
382.2953681052402
 30
377.9346008300781
 10
-951.3482885424654
 20
387.1673868890519
 30
377.9346008300781
 10
-973.9951800277776
 20
388.3839268409008
 30
377.9346008300781
 10
-996.3964049692348
 20
385.5180677183978
 30
377.9346008300781
 10
-1018.241853194531
 20
379.8761022743945
 30
377.9346008300781
 10
-1032.367760600853
 20
374.7321413919288
 30
377.9346008300781
 10
-1039.301909510324
 20
371.8493620999232
 30
377.9346008300781
  0
SPLINE
  5
5D04C
330
1F
100
AcDbEntity
  8
Default
100
AcDbSpline
210
0.0
220
0.0
230
1.0
 70
     8
 71
     3
 72
    12
 73
     8
 74
     0
 42
0.000000001
 43
0.0000000001
 40
-18.23362376580278
 40
-18.23362376580278
 40
-18.23362376580278
 40
-18.23362376580278
 40
-13.89761326846572
 40
-9.309249842901856
 40
-4.66252058763445
 40
-2.315241172828345
 40
0.0
 40
0.0
 40
0.0
 40
0.0
 10
-1039.301909510324
 20
371.8493620999232
 30
377.9346008300781
 10
-1073.228135252968
 20
357.7316067274749
 30
377.9346008300781
 10
-1137.530118514196
 20
316.3126372168788
 30
377.9346008300781
 10
-1212.088192737827
 20
227.2569074140136
 30
377.9346008300781
 10
-1251.793113657071
 20
136.5481230206295
 30
377.9346008300781
 10
-1267.723447393671
 20
59.1505052385126
 30
377.9346008300781
 10
-1270.260711238501
 20
19.66758582866333
 30
377.9346008300781
 10
-1270.066806736502
 20
0.0529798204241252
 30
377.9346008300781
  0
SPLINE
  5
5D04D
330
1F
100
AcDbEntity
  8
Default
100
AcDbSpline
210
0.0
220
0.0
230
1.0
 70
     8
 71
     3
 72
    19
 73
    15
 74
     0
 42
0.000000001
 43
0.0000000001
 40
-12.0
 40
-12.0
 40
-12.0
 40
-12.0
 40
-11.0
 40
-10.0
 40
-9.0
 40
-8.0
 40
-7.0
 40
-6.0
 40
-5.0
 40
-4.0
 40
-3.0
 40
-2.0
 40
-1.0
 40
0.0
 40
0.0
 40
0.0
 40
0.0
 10
-744.1847211586664
 20
216.9095457616947
 30
377.9346008300781
 10
-760.5969897668765
 20
233.7376524555381
 30
377.9346008300781
 10
-792.4966221694647
 20
268.0956140319192
 30
377.9346008300781
 10
-841.1745199803407
 20
319.510387955024
 30
377.9346008300781
 10
-895.3546736906663
 20
363.3797366836676
 30
377.9346008300781
 10
-956.2832860169526
 20
404.8843635442624
 30
377.9346008300781
 10
-1029.263038745694
 20
390.4729703151259
 30
377.9346008300781
 10
-1092.187980056171
 20
359.5737819101721
 30
377.9346008300781
 10
-1148.517598695358
 20
316.3898216552568
 30
377.9346008300781
 10
-1195.772154055545
 20
263.8152634284141
 30
377.9346008300781
 10
-1233.60854900951
 20
204.0766291887065
 30
377.9346008300781
 10
-1261.373342565968
 20
139.0728604981357
 30
377.9346008300781
 10
-1278.582686963755
 20
70.51034877953663
 30
377.9346008300781
 10
-1282.57712394947
 20
23.54509051020597
 30
377.9346008300781
 10
-1282.58135745411
 20
0.052979820424128
 30
377.9346008300781
  0
SPLINE
  5
5D04E
330
1F
100
AcDbEntity
  8
Default
100
AcDbSpline
210
0.0
220
0.0
230
1.0
 70
     8
 71
     3
 72
    19
 73
    15
 74
     0
 42
0.000000001
 43
0.0000000001
 40
0.0
 40
0.0
 40
0.0
 40
0.0
 40
1.0
 40
2.0
 40
3.0
 40
4.0
 40
5.0
 40
6.0
 40
7.0
 40
8.0
 40
9.0
 40
10.0
 40
11.0
 40
12.0
 40
12.0
 40
12.0
 40
12.0
 10
-1282.58135745411
 20
0.052979820424128
 30
377.9346008300781
 10
-1282.57712394947
 20
-23.43913086935044
 30
377.9346008300781
 10
-1278.582686963755
 20
-70.40438913867382
 30
377.9346008300781
 10
-1261.373342565968
 20
-138.9669008572802
 30
377.9346008300781
 10
-1233.60854900951
 20
-203.9706695478582
 30
377.9346008300781
 10
-1195.772154055545
 20
-263.7093037875513
 30
377.9346008300781
 10
-1148.517598695358
 20
-316.2838620144014
 30
377.9346008300781
 10
-1092.187980056171
 20
-359.4678222693167
 30
377.9346008300781
 10
-1029.263038745694
 20
-390.3670106742704
 30
377.9346008300781
 10
-956.283286016953
 20
-404.778403903407
 30
377.9346008300781
 10
-895.3546736906666
 20
-363.2737770428124
 30
377.9346008300781
 10
-841.1745199803409
 20
-319.4044283141614
 30
377.9346008300781
 10
-792.496622169465
 20
-267.9896543910639
 30
377.9346008300781
 10
-760.5969897668765
 20
-233.6316928146828
 30
377.9346008300781
 10
-744.1847211586664
 20
-216.8035861208394
 30
377.9346008300781
  0
ARC
  5
5D04F
330
1F
100
AcDbEntity
  8
Default
100
AcDbCircle
 10
-1514.444687571582
 20
-399.1790803220484
 30
377.9346008300781
 40
963.8493256671051
100
AcDbArc
 50
37.48723996806883
 51
41.91636936148514
  0
SPLINE
  5
5D050
330
1F
100
AcDbEntity
  8
Default
100
AcDbSpline
210
0.0
220
0.0
230
1.0
 70
     8
 71
     3
 72
    19
 73
    15
 74
     0
 42
0.000000001
 43
0.0000000001
 40
0.0000000000000001
 40
0.0000000000000001
 40
0.0000000000000001
 40
0.0000000000000001
 40
1.0
 40
2.0
 40
3.0
 40
4.0
 40
5.0
 40
6.0
 40
7.0
 40
8.0
 40
9.0
 40
10.0
 40
11.0
 40
12.0
 40
12.0
 40
12.0
 40
12.0
 10
-797.2244366677514
 20
244.7158134939979
 30
377.9346008300781
 10
-802.5477926796048
 20
250.6453817684757
 30
377.9346008300781
 10
-813.3056707004106
 20
262.4046842450204
 30
377.9346008300781
 10
-829.8694337355644
 20
279.6462517083798
 30
377.9346008300781
 10
-847.0541914927107
 20
296.2695217576272
 30
377.9346008300781
 10
-864.671852083873
 20
312.4295972578417
 30
377.9346008300781
 10
-882.3385188380742
 20
328.5313556704875
 30
377.9346008300781
 10
-900.7296286787312
 20
343.8434489381486
 30
377.9346008300781
 10
-920.1579243452886
 20
357.7179892453294
 30
377.9346008300781
 10
-940.8864284774606
 20
370.0399091305751
 30
377.9346008300781
 10
-964.5977387771962
 20
374.8542208407105
 30
377.9346008300781
 10
-988.5878976720887
 20
374.1893511891628
 30
377.9346008300781
 10
-1012.09365791144
 20
369.4714332189776
 30
377.9346008300781
 10
-1027.198977460352
 20
364.3025637101544
 30
377.9346008300781
 10
-1034.586686282246
 20
361.3176032972422
 30
377.9346008300781
  0
ARC
  5
5D051
330
1F
100
AcDbEntity
  8
Default
100
AcDbCircle
 10
-1514.444687571582
 20
399.2848900907137
 30
377.9346008300781
 40
963.8493256671051
100
AcDbArc
 50
318.0836306385148
 51
322.5127600319311
  0
SPLINE
  5
5D052
330
1F
100
AcDbEntity
  8
Default
100
AcDbSpline
210
0.0
220
0.0
230
1.0
 70
     8
 71
     3
 72
    19
 73
    15
 74
     0
 42
0.000000001
 43
0.0000000001
 40
0.0000000000000001
 40
0.0000000000000001
 40
0.0000000000000001
 40
0.0000000000000001
 40
1.0
 40
2.0
 40
3.0
 40
4.0
 40
5.0
 40
6.0
 40
7.0
 40
8.0
 40
9.0
 40
10.0
 40
11.0
 40
12.0
 40
12.0
 40
12.0
 40
12.0
 10
-797.2244366677514
 20
-244.610003725333
 30
377.9346008300781
 10
-802.5477926796048
 20
-250.5395719998108
 30
377.9346008300781
 10
-813.3056707004108
 20
-262.2988744763627
 30
377.9346008300781
 10
-829.8694337355646
 20
-279.5404419397149
 30
377.9346008300781
 10
-847.0541914927109
 20
-296.1637119889622
 30
377.9346008300781
 10
-864.6718520838732
 20
-312.3237874891768
 30
377.9346008300781
 10
-882.3385188380745
 20
-328.4255459018226
 30
377.9346008300781
 10
-900.7296286787315
 20
-343.7376391694836
 30
377.9346008300781
 10
-920.157924345289
 20
-357.612179476657
 30
377.9346008300781
 10
-940.886428477461
 20
-369.9340993619101
 30
377.9346008300781
 10
-964.5977387771964
 20
-374.7484110720454
 30
377.9346008300781
 10
-988.5878976720888
 20
-374.0835414204978
 30
377.9346008300781
 10
-1012.093657911441
 20
-369.3656234503053
 30
377.9346008300781
 10
-1027.198977460352
 20
-364.1967539414893
 30
377.9346008300781
 10
-1034.586686282246
 20
-361.2117935285771
 30
377.9346008300781
  0
POLYLINE
  5
5D053
330
1F
100
AcDbEntity
  8
Default
100
AcDb2dPolyline
 66
     1
 10
0.0
 20
0.0
 30
377.9346008300781
  0
VERTEX
  5
5D054
330
5D053
100
AcDbEntity
  8
Default
100
AcDbVertex
100
AcDb2dVertex
 10
-652.5093946507332
 20
26.3419798204283
 30
377.9346008300781
  0
VERTEX
  5
5D055
330
5D053
100
AcDbEntity
  8
Default
100
AcDbVertex
100
AcDb2dVertex
 10
-618.3670529350783
 20
26.34197982042829
 30
377.9346008300781
  0
SEQEND
  5
5D056
330
5D053
100
AcDbEntity
  8
Default
  0
SPLINE
  5
5D057
330
1F
100
AcDbEntity
  8
Default
100
AcDbSpline
210
0.0
220
0.0
230
1.0
 70
    12
 71
     2
 72
     6
 73
     3
 74
     0
 42
0.000000001
 43
0.0000000001
 40
0.0
 40
0.0
 40
0.0
 40
0.2355890798875016
 40
0.2355890798875016
 40
0.2355890798875016
 10
-618.3670529350783
 20
26.34197982042829
 30
377.9346008300781
 41
1.0
 10
-614.5588501160491
 20
26.34018263941984
 30
377.9346008300781
 41
0.707440409735664
 10
-614.5570528606058
 20
22.53197982042334
 30
377.9346008300781
 41
1.0
  0
SPLINE
  5
5D058
330
1F
100
AcDbEntity
  8
Default
100
AcDbSpline
210
0.0
220
0.0
230
1.0
 70
    24
 71
     2
 72
     6
 73
     3
 74
     0
 42
0.000000001
 43
0.0000000001
 40
0.0
 40
0.0
 40
0.0
 40
0.3520000000000003
 40
0.3520000000000003
 40
0.3520000000000003
 10
-614.5570528606058
 20
22.53197982042334
 30
377.9346008300781
 10
-614.5570528606058
 20
18.061579820425
 30
377.9346008300781
 10
-614.5570528606058
 20
13.59117982042667
 30
377.9346008300781
  0
SPLINE
  5
5D059
330
1F
100
AcDbEntity
  8
Default
100
AcDbSpline
210
0.0
220
0.0
230
1.0
 70
    12
 71
     2
 72
     6
 73
     3
 74
     0
 42
0.000000001
 43
0.0000000001
 40
0.0
 40
0.0
 40
0.0
 40
0.1098876245644455
 40
0.1098876245644455
 40
0.1098876245644455
 10
-614.5570528606058
 20
13.59117982042667
 30
377.9346008300781
 41
1.0
 10
-614.5610826880528
 20
11.81720957590883
 30
377.9346008300781
 41
0.7087112325863247
 10
-616.3350529327417
 20
11.81317982042824
 30
377.9346008300781
 41
1.0
  0
POLYLINE
  5
5D05A
330
1F
100
AcDbEntity
  8
Default
100
AcDb2dPolyline
 66
     1
 10
0.0
 20
0.0
 30
377.9346008300781
  0
VERTEX
  5
5D05B
330
5D05A
100
AcDbEntity
  8
Default
100
AcDbVertex
100
AcDb2dVertex
 10
-616.3350529327417
 20
11.81317982042824
 30
377.9346008300781
  0
VERTEX
  5
5D05C
330
5D05A
100
AcDbEntity
  8
Default
100
AcDbVertex
100
AcDb2dVertex
 10
-651.5311337280145
 20
11.81317982042825
 30
377.9346008300781
  0
SEQEND
  5
5D05D
330
5D05A
100
AcDbEntity
  8
Default
  0
SPLINE
  5
5D05E
330
1F
100
AcDbEntity
  8
Default
100
AcDbSpline
210
0.0
220
0.0
230
1.0
 70
    12
 71
     2
 72
     6
 73
     3
 74
     0
 42
0.000000001
 43
0.0000000001
 40
-0.3669232257852178
 40
-0.3669232257852178
 40
-0.3669232257852178
 40
0.0
 40
0.0
 40
0.0
 10
-651.4296949331801
 20
9.566783969699516
 30
377.9346008300781
 41
0.999999991999253
 10
-646.7700680683956
 20
9.514089827427286
 30
377.9346008300781
 41
0.9999999958523481
 10
-642.1104393976129
 20
9.461555628311231
 30
377.9346008300781
 41
1.0
  0
SPLINE
  5
5D05F
330
1F
100
AcDbEntity
  8
Default
100
AcDbSpline
210
0.0
220
0.0
230
1.0
 70
     8
 71
     3
 72
    11
 73
     7
 74
     0
 42
0.000000001
 43
0.0000000001
 40
-0.5061957594563899
 40
-0.5061957594563899
 40
-0.5061957594563899
 40
-0.5061957594563899
 40
-0.2779307972340258
 40
-0.1436576036068027
 40
-0.0724650654421722
 40
0.0
 40
0.0
 40
0.0
 40
0.0
 10
-642.1104393976129
 20
9.461555628311231
 30
377.9346008300781
 10
-640.1206510493757
 20
9.468896850057404
 30
377.9346008300781
 10
-637.3849287181401
 20
7.55464852299488
 30
377.9346008300781
 10
-635.8507959389644
 20
4.186900553607897
 30
377.9346008300781
 10
-635.3240011730158
 20
1.883086250405226
 30
377.9346008300781
 10
-635.2495581521252
 20
0.6664333511304495
 30
377.9346008300781
 10
-635.2453479993019
 20
0.0529798204239843
 30
377.9346008300781
  0
SPLINE
  5
5D060
330
1F
100
AcDbEntity
  8
Default
100
AcDbSpline
210
0.0
220
0.0
230
1.0
 70
     8
 71
     3
 72
    11
 73
     7
 74
     0
 42
0.000000001
 43
0.0000000001
 40
0.0
 40
0.0
 40
0.0
 40
0.0
 40
0.0724650654421701
 40
0.143657603606799
 40
0.2779307972340275
 40
0.5061957594563471
 40
0.5061957594563471
 40
0.5061957594563471
 40
0.5061957594563471
 10
-635.2453479993019
 20
0.0529798204239843
 30
377.9346008300781
 10
-635.2495581521252
 20
-0.5604737102752051
 30
377.9346008300781
 10
-635.3240011730177
 20
-1.777126609557258
 30
377.9346008300781
 10
-635.8507959389644
 20
-4.080940912752653
 30
377.9346008300781
 10
-637.3849287181401
 20
-7.448688882132359
 30
377.9346008300781
 10
-640.1206510493794
 20
-9.362937209202158
 30
377.9346008300781
 10
-642.1104393976129
 20
-9.355595987441432
 30
377.9346008300781
  0
SPLINE
  5
5D061
330
1F
100
AcDbEntity
  8
Default
100
AcDbSpline
210
0.0
220
0.0
230
1.0
 70
    12
 71
     2
 72
     6
 73
     3
 74
     0
 42
0.000000001
 43
0.0000000001
 40
0.0
 40
0.0
 40
0.0
 40
0.3669232203978866
 40
0.3669232203978866
 40
0.3669232203978866
 10
-642.1104393976129
 20
-9.355595987441432
 30
377.9346008300781
 41
1.0
 10
-646.7700680195739
 20
-9.408128221481403
 30
377.9346008300781
 41
0.9999999957871185
 10
-651.4296948214487
 20
-9.460821650782547
 30
377.9346008300781
 41
0.9999999918734237
  0
POLYLINE
  5
5D062
330
1F
100
AcDbEntity
  8
Default
100
AcDb2dPolyline
 66
     1
 10
0.0
 20
0.0
 30
377.9346008300781
  0
VERTEX
  5
5D063
330
5D062
100
AcDbEntity
  8
Default
100
AcDbVertex
100
AcDb2dVertex
 10
-652.5093946507332
 20
-26.23602017957304
 30
377.9346008300781
  0
VERTEX
  5
5D064
330
5D062
100
AcDbEntity
  8
Default
100
AcDbVertex
100
AcDb2dVertex
 10
-618.3670529350783
 20
-26.23602017957305
 30
377.9346008300781
  0
SEQEND
  5
5D065
330
5D062
100
AcDbEntity
  8
Default
  0
SPLINE
  5
5D066
330
1F
100
AcDbEntity
  8
Default
100
AcDbSpline
210
0.0
220
0.0
230
1.0
 70
    12
 71
     2
 72
     6
 73
     3
 74
     0
 42
0.000000001
 43
0.0000000001
 40
0.0
 40
0.0
 40
0.0
 40
0.2355890798875016
 40
0.2355890798875016
 40
0.2355890798875016
 10
-618.3670529350783
 20
-26.23602017957305
 30
377.9346008300781
 41
1.0
 10
-614.5588501160491
 20
-26.23422299856461
 30
377.9346008300781
 41
0.707440409735664
 10
-614.5570528606058
 20
-22.42602017957538
 30
377.9346008300781
 41
1.0
  0
SPLINE
  5
5D067
330
1F
100
AcDbEntity
  8
Default
100
AcDbSpline
210
0.0
220
0.0
230
1.0
 70
    24
 71
     2
 72
     6
 73
     3
 74
     0
 42
0.000000001
 43
0.0000000001
 40
0.0
 40
0.0
 40
0.0
 40
0.3520000000000003
 40
0.3520000000000003
 40
0.3520000000000003
 10
-614.5570528606058
 20
-22.42602017957538
 30
377.9346008300781
 10
-614.5570528606058
 20
-17.95562017957704
 30
377.9346008300781
 10
-614.5570528606058
 20
-13.48522017957143
 30
377.9346008300781
  0
SPLINE
  5
5D068
330
1F
100
AcDbEntity
  8
Default
100
AcDbSpline
210
0.0
220
0.0
230
1.0
 70
    12
 71
     2
 72
     6
 73
     3
 74
     0
 42
0.000000001
 43
0.0000000001
 40
0.0
 40
0.0
 40
0.0
 40
0.1098876245644455
 40
0.1098876245644455
 40
0.1098876245644455
 10
-614.5570528606058
 20
-13.48522017957143
 30
377.9346008300781
 41
1.0
 10
-614.5610826880528
 20
-11.71124993504631
 30
377.9346008300781
 41
0.7087112325863247
 10
-616.3350529327417
 20
-11.707220179573
 30
377.9346008300781
 41
1.0
  0
POLYLINE
  5
5D069
330
1F
100
AcDbEntity
  8
Default
100
AcDb2dPolyline
 66
     1
 10
0.0
 20
0.0
 30
377.9346008300781
  0
VERTEX
  5
5D06A
330
5D069
100
AcDbEntity
  8
Default
100
AcDbVertex
100
AcDb2dVertex
 10
-616.3350529327417
 20
-11.707220179573
 30
377.9346008300781
  0
VERTEX
  5
5D06B
330
5D069
100
AcDbEntity
  8
Default
100
AcDbVertex
100
AcDb2dVertex
 10
-651.5311337280145
 20
-11.707220179573
 30
377.9346008300781
  0
SEQEND
  5
5D06C
330
5D069
100
AcDbEntity
  8
Default
  0
LINE
  5
5D06D
330
1F
100
AcDbEntity
  8
Default
100
AcDbLine
 10
-651.4506786365436
 20
-9.954616119647054
 30
377.9346008300781
 11
-629.1799329084751
 21
-9.954619902984946
 31
377.9346008300781
  0
ARC
  5
5D06E
330
1F
100
AcDbEntity
  8
Default
100
AcDbCircle
 10
-613.918510593928
 20
89295475.51902734
 30
377.9346008300781
 40
89295485.47364856
100
AcDbArc
 50
269.999990207606
 51
269.9999987473749
  0
SPLINE
  5
5D06F
330
1F
100
AcDbEntity
  8
Default
100
AcDbSpline
210
0.0
220
0.0
230
1.0
 70
    12
 71
     2
 72
     6
 73
     3
 74
     0
 42
0.000000001
 43
0.0000000001
 40
0.0
 40
0.0
 40
0.0
 40
0.0784842030870699
 40
0.0784842030870699
 40
0.0784842030870699
 10
-615.8707073437962
 20
-9.954621208633716
 30
377.9346008300781
 41
1.0
 10
-614.6016265003309
 20
-9.953701060460252
 30
377.9346008300781
 41
0.7071217743558634
 10
-614.6024823530733
 20
-8.684620179561852
 30
377.9346008300781
 41
1.0
  0
POLYLINE
  5
5D070
330
1F
100
AcDbEntity
  8
Default
100
AcDb2dPolyline
 66
     1
 10
0.0
 20
0.0
 30
377.9346008300781
  0
VERTEX
  5
5D071
330
5D070
100
AcDbEntity
  8
Default
100
AcDbVertex
100
AcDb2dVertex
 10
-614.6024823530733
 20
-8.684620179561852
 30
377.9346008300781
  0
VERTEX
  5
5D072
330
5D070
100
AcDbEntity
  8
Default
100
AcDbVertex
100
AcDb2dVertex
 10
-614.6024823530733
 20
8.790579820417088
 30
377.9346008300781
  0
SEQEND
  5
5D073
330
5D070
100
AcDbEntity
  8
Default
  0
SPLINE
  5
5D074
330
1F
100
AcDbEntity
  8
Default
100
AcDbSpline
210
0.0
220
0.0
230
1.0
 70
    12
 71
     2
 72
     6
 73
     3
 74
     0
 42
0.000000001
 43
0.0000000001
 40
-0.0784842030870699
 40
-0.0784842030870699
 40
-0.0784842030870699
 40
0.0
 40
0.0
 40
0.0
 10
-614.6024823530733
 20
8.790579820417088
 30
377.9346008300781
 41
1.0
 10
-614.6016265003309
 20
10.05966070131549
 30
377.9346008300781
 41
0.7071217743558634
 10
-615.8707073437962
 20
10.06058084948895
 30
377.9346008300781
 41
1.0
  0
ARC
  5
5D075
330
1F
100
AcDbEntity
  8
Default
100
AcDbCircle
 10
-613.9185106335832
 20
-89295475.41306769
 30
377.9346008300781
 40
89295485.47364856
100
AcDbArc
 50
90.00000125262518
 51
90.00000979239393
  0
LINE
  5
5D076
330
1F
100
AcDbEntity
  8
Default
100
AcDbLine
 10
-629.1799329084751
 20
10.06057954383291
 30
377.9346008300781
 11
-651.4506786368237
 21
10.0605757605023
 31
377.9346008300781
  0
POLYLINE
  5
5D077
330
1F
100
AcDbEntity
  8
Default
100
AcDb2dPolyline
 66
     1
 10
0.0
 20
0.0
 30
377.9346008300781
  0
VERTEX
  5
5D078
330
5D077
100
AcDbEntity
  8
Default
100
AcDbVertex
100
AcDb2dVertex
 10
-872.2930300351583
 20
-344.2003676311127
 30
377.9346008300781
  0
VERTEX
  5
5D079
330
5D077
100
AcDbEntity
  8
Default
100
AcDbVertex
100
AcDb2dVertex
 10
-849.3816737482449
 20
-344.2003676311127
 30
377.9346008300781
  0
SEQEND
  5
5D07A
330
5D077
100
AcDbEntity
  8
Default
  0
SPLINE
  5
5D07B
330
1F
100
AcDbEntity
  8
Default
100
AcDbSpline
210
0.0
220
0.0
230
1.0
 70
    12
 71
     2
 72
     6
 73
     3
 74
     0
 42
0.000000001
 43
0.0000000001
 40
0.0
 40
0.0
 40
0.0
 40
0.2355890798875016
 40
0.2355890798875016
 40
0.2355890798875016
 10
-849.3816737482449
 20
-344.2003676311127
 30
377.9346008300781
 41
1.0
 10
-845.5734709292157
 20
-344.1985704501042
 30
377.9346008300781
 41
0.707440409735664
 10
-845.5716736737723
 20
-340.390367631115
 30
377.9346008300781
 41
1.0
  0
SPLINE
  5
5D07C
330
1F
100
AcDbEntity
  8
Default
100
AcDbSpline
210
0.0
220
0.0
230
1.0
 70
    24
 71
     2
 72
     6
 73
     3
 74
     0
 42
0.000000001
 43
0.0000000001
 40
0.0
 40
0.0
 40
0.0
 40
0.3520000000000003
 40
0.3520000000000003
 40
0.3520000000000003
 10
-845.5716736737723
 20
-340.390367631115
 30
377.9346008300781
 10
-845.5716736737723
 20
-335.9199676311167
 30
377.9346008300781
 10
-845.5716736737723
 20
-331.4495676311183
 30
377.9346008300781
  0
SPLINE
  5
5D07D
330
1F
100
AcDbEntity
  8
Default
100
AcDbSpline
210
0.0
220
0.0
230
1.0
 70
    12
 71
     2
 72
     6
 73
     3
 74
     0
 42
0.000000001
 43
0.0000000001
 40
0.0
 40
0.0
 40
0.0
 40
0.1098876245644455
 40
0.1098876245644455
 40
0.1098876245644455
 10
-845.5716736737723
 20
-331.4495676311183
 30
377.9346008300781
 41
1.0
 10
-845.5757035012195
 20
-329.675597386586
 30
377.9346008300781
 41
0.7087112325863247
 10
-847.3496737459083
 20
-329.6715676311126
 30
377.9346008300781
 41
1.0
  0
POLYLINE
  5
5D07E
330
1F
100
AcDbEntity
  8
Default
100
AcDb2dPolyline
 66
     1
 10
0.0
 20
0.0
 30
377.9346008300781
  0
VERTEX
  5
5D07F
330
5D07E
100
AcDbEntity
  8
Default
100
AcDbVertex
100
AcDb2dVertex
 10
-847.3496737459083
 20
-329.6715676311126
 30
377.9346008300781
  0
VERTEX
  5
5D080
330
5D07E
100
AcDbEntity
  8
Default
100
AcDbVertex
100
AcDb2dVertex
 10
-854.9359286627952
 20
-329.6715676311126
 30
377.9346008300781
  0
SEQEND
  5
5D081
330
5D07E
100
AcDbEntity
  8
Default
  0
POLYLINE
  5
5D082
330
1F
100
AcDbEntity
  8
Default
100
AcDb2dPolyline
 66
     1
 10
0.0
 20
0.0
 30
377.9346008300781
  0
VERTEX
  5
5D083
330
5D082
100
AcDbEntity
  8
Default
100
AcDbVertex
100
AcDb2dVertex
 10
-1229.190056061457
 20
208.3259537562497
 30
377.9346008300781
  0
VERTEX
  5
5D084
330
5D082
100
AcDbEntity
  8
Default
100
AcDbVertex
100
AcDb2dVertex
 10
-1282.607181975352
 20
208.3259537562497
 30
377.9346008300781
  0
SEQEND
  5
5D085
330
5D082
100
AcDbEntity
  8
Default
  0
SPLINE
  5
5D086
330
1F
100
AcDbEntity
  8
Default
100
AcDbSpline
210
0.0
220
0.0
230
1.0
 70
    12
 71
     2
 72
     6
 73
     3
 74
     0
 42
0.000000001
 43
0.0000000001
 40
0.0
 40
0.0
 40
0.0
 40
0.109941564851661
 40
0.109941564851661
 40
0.109941564851661
 10
-1282.607181975352
 20
208.3259537562497
 30
377.9346008300781
 41
1.0
 10
-1284.384342900237
 20
208.3267928313961
 30
377.9346008300781
 41
0.7074405726109262
 10
-1284.38518204749
 20
210.1039537562481
 30
377.9346008300781
 41
1.0
  0
SPLINE
  5
5D087
330
1F
100
AcDbEntity
  8
Default
100
AcDbSpline
210
0.0
220
0.0
230
1.0
 70
    24
 71
     2
 72
     6
 73
     3
 74
     0
 42
0.000000001
 43
0.0000000001
 40
0.0
 40
0.0
 40
0.0
 40
0.3520000000000003
 40
0.3520000000000003
 40
0.3520000000000003
 10
-1284.38518204749
 20
210.1039537562481
 30
377.9346008300781
 10
-1284.38518204749
 20
214.5743537562465
 30
377.9346008300781
 10
-1284.38518204749
 20
219.0447537562521
 30
377.9346008300781
  0
SPLINE
  5
5D088
330
1F
100
AcDbEntity
  8
Default
100
AcDbSpline
210
0.0000000000000149
220
-0.0000000000000149
230
1.0
 70
    12
 71
     2
 72
     6
 73
     3
 74
     0
 42
0.000000001
 43
0.0000000001
 40
0.0
 40
0.0
 40
0.0
 40
0.2356186331260159
 40
0.2356186331260159
 40
0.2356186331260159
 10
-1284.38518204749
 20
219.0447537562521
 30
377.9346008300781
 41
1.0
 10
-1284.385133590042
 20
222.854705373278
 30
377.9346008300782
 41
0.7071157676638843
 10
-1280.575181973016
 20
222.8547537562497
 30
377.9346008300781
 41
1.0
  0
POLYLINE
  5
5D089
330
1F
100
AcDbEntity
  8
Default
100
AcDb2dPolyline
 66
     1
 10
0.0
 20
0.0
 30
377.9346008300781
  0
VERTEX
  5
5D08A
330
5D089
100
AcDbEntity
  8
Default
100
AcDbVertex
100
AcDb2dVertex
 10
-1280.575181973016
 20
222.8547537562497
 30
377.9346008300781
  0
VERTEX
  5
5D08B
330
5D089
100
AcDbEntity
  8
Default
100
AcDbVertex
100
AcDb2dVertex
 10
-1223.171182121963
 20
222.8547537562497
 30
377.9346008300781
  0
SEQEND
  5
5D08C
330
5D089
100
AcDbEntity
  8
Default
  0
SPLINE
  5
5D08D
330
1F
100
AcDbEntity
  8
Default
100
AcDbSpline
210
0.0
220
0.0
230
1.0
 70
    12
 71
     2
 72
     6
 73
     3
 74
     0
 42
0.000000001
 43
0.0000000001
 40
0.0
 40
0.0
 40
0.0
 40
0.0812712606071793
 40
0.0812712606071793
 40
0.0812712606071793
 10
-1223.171182121963
 20
222.8547537562497
 30
377.9346008300781
 41
1.0
 10
-1222.137479631151
 20
222.8542659275861
 30
377.9346008300781
 41
0.8990755992813575
 10
-1221.245647960457
 20
222.3316022224842
 30
377.9346008300781
 41
0.8677830616044564
  0
POLYLINE
  5
5D08E
330
1F
100
AcDbEntity
  8
Default
100
AcDb2dPolyline
 66
     1
 10
0.0
 20
0.0
 30
377.9346008300781
  0
VERTEX
  5
5D08F
330
5D08E
100
AcDbEntity
  8
Default
100
AcDbVertex
100
AcDb2dVertex
 10
-1229.190056061457
 20
-208.2199941153942
 30
377.9346008300781
  0
VERTEX
  5
5D090
330
5D08E
100
AcDbEntity
  8
Default
100
AcDbVertex
100
AcDb2dVertex
 10
-1282.607181975352
 20
-208.2199941153942
 30
377.9346008300781
  0
SEQEND
  5
5D091
330
5D08E
100
AcDbEntity
  8
Default
  0
SPLINE
  5
5D092
330
1F
100
AcDbEntity
  8
Default
100
AcDbSpline
210
0.0
220
0.0
230
1.0
 70
    12
 71
     2
 72
     6
 73
     3
 74
     0
 42
0.000000001
 43
0.0000000001
 40
0.0
 40
0.0
 40
0.0
 40
0.109941564851661
 40
0.109941564851661
 40
0.109941564851661
 10
-1282.607181975352
 20
-208.2199941153942
 30
377.9346008300781
 41
1.0
 10
-1284.384342900237
 20
-208.220833190541
 30
377.9346008300781
 41
0.7074405726109262
 10
-1284.38518204749
 20
-209.9979941153926
 30
377.9346008300781
 41
1.0
  0
SPLINE
  5
5D093
330
1F
100
AcDbEntity
  8
Default
100
AcDbSpline
210
0.0
220
0.0
230
1.0
 70
    24
 71
     2
 72
     6
 73
     3
 74
     0
 42
0.000000001
 43
0.0000000001
 40
0.0
 40
0.0
 40
0.0
 40
0.3520000000000003
 40
0.3520000000000003
 40
0.3520000000000003
 10
-1284.38518204749
 20
-209.9979941153926
 30
377.9346008300781
 10
-1284.38518204749
 20
-214.468394115391
 30
377.9346008300781
 10
-1284.38518204749
 20
-218.9387941153893
 30
377.9346008300781
  0
SPLINE
  5
5D094
330
1F
100
AcDbEntity
  8
Default
100
AcDbSpline
210
0.0000000000000149
220
0.0000000000000149
230
1.0
 70
    12
 71
     2
 72
     6
 73
     3
 74
     0
 42
0.000000001
 43
0.0000000001
 40
0.0
 40
0.0
 40
0.0
 40
0.2356186331260159
 40
0.2356186331260159
 40
0.2356186331260159
 10
-1284.38518204749
 20
-218.9387941153893
 30
377.9346008300781
 41
1.0
 10
-1284.385133590042
 20
-222.7487457324157
 30
377.9346008300782
 41
0.7071157676638843
 10
-1280.575181973016
 20
-222.7487941153942
 30
377.9346008300781
 41
1.0
  0
POLYLINE
  5
5D095
330
1F
100
AcDbEntity
  8
Default
100
AcDb2dPolyline
 66
     1
 10
0.0
 20
0.0
 30
377.9346008300781
  0
VERTEX
  5
5D096
330
5D095
100
AcDbEntity
  8
Default
100
AcDbVertex
100
AcDb2dVertex
 10
-1280.575181973016
 20
-222.7487941153942
 30
377.9346008300781
  0
VERTEX
  5
5D097
330
5D095
100
AcDbEntity
  8
Default
100
AcDbVertex
100
AcDb2dVertex
 10
-1223.171182121963
 20
-222.7487941153942
 30
377.9346008300781
  0
SEQEND
  5
5D098
330
5D095
100
AcDbEntity
  8
Default
  0
SPLINE
  5
5D099
330
1F
100
AcDbEntity
  8
Default
100
AcDbSpline
210
0.0
220
0.0
230
1.0
 70
    12
 71
     2
 72
     6
 73
     3
 74
     0
 42
0.000000001
 43
0.0000000001
 40
0.0
 40
0.0
 40
0.0
 40
0.0812712606071793
 40
0.0812712606071793
 40
0.0812712606071793
 10
-1223.171182121963
 20
-222.7487941153942
 30
377.9346008300781
 41
1.0
 10
-1222.137479631151
 20
-222.7483062867306
 30
377.9346008300781
 41
0.8990755992813575
 10
-1221.245647960457
 20
-222.2256425816287
 30
377.9346008300781
 41
0.8677830616044564
  0
POLYLINE
  5
5D09A
330
1F
100
AcDbEntity
  8
Default
100
AcDb2dPolyline
 66
     1
 10
0.0
 20
0.0
 30
377.9346008300781
  0
VERTEX
  5
5D09B
330
5D09A
100
AcDbEntity
  8
Default
100
AcDbVertex
100
AcDb2dVertex
 10
-872.2930300351579
 20
344.306327271968
 30
377.9346008300781
  0
VERTEX
  5
5D09C
330
5D09A
100
AcDbEntity
  8
Default
100
AcDbVertex
100
AcDb2dVertex
 10
-849.3816737482447
 20
344.306327271968
 30
377.9346008300781
  0
SEQEND
  5
5D09D
330
5D09A
100
AcDbEntity
  8
Default
  0
SPLINE
  5
5D09E
330
1F
100
AcDbEntity
  8
Default
100
AcDbSpline
210
0.0
220
0.0
230
1.0
 70
    12
 71
     2
 72
     6
 73
     3
 74
     0
 42
0.000000001
 43
0.0000000001
 40
0.0
 40
0.0
 40
0.0
 40
0.2355890798875016
 40
0.2355890798875016
 40
0.2355890798875016
 10
-849.3816737482447
 20
344.306327271968
 30
377.9346008300781
 41
1.0
 10
-845.5734709292155
 20
344.3045300909668
 30
377.9346008300781
 41
0.707440409735664
 10
-845.5716736737722
 20
340.4963272719703
 30
377.9346008300781
 41
1.0
  0
SPLINE
  5
5D09F
330
1F
100
AcDbEntity
  8
Default
100
AcDbSpline
210
0.0
220
0.0
230
1.0
 70
    24
 71
     2
 72
     6
 73
     3
 74
     0
 42
0.000000001
 43
0.0000000001
 40
0.0
 40
0.0
 40
0.0
 40
0.3520000000000003
 40
0.3520000000000003
 40
0.3520000000000003
 10
-845.5716736737722
 20
340.4963272719703
 30
377.9346008300781
 10
-845.5716736737722
 20
336.0259272719647
 30
377.9346008300781
 10
-845.5716736737722
 20
331.5555272719663
 30
377.9346008300781
  0
SPLINE
  5
5D0A0
330
1F
100
AcDbEntity
  8
Default
100
AcDbSpline
210
0.0
220
0.0
230
1.0
 70
    12
 71
     2
 72
     6
 73
     3
 74
     0
 42
0.000000001
 43
0.0000000001
 40
0.0
 40
0.0
 40
0.0
 40
0.1098876245644455
 40
0.1098876245644455
 40
0.1098876245644455
 10
-845.5716736737722
 20
331.5555272719663
 30
377.9346008300781
 41
1.0
 10
-845.5757035012192
 20
329.7815570274412
 30
377.9346008300781
 41
0.7087112325863247
 10
-847.3496737459081
 20
329.7775272719679
 30
377.9346008300781
 41
1.0
  0
POLYLINE
  5
5D0A1
330
1F
100
AcDbEntity
  8
Default
100
AcDb2dPolyline
 66
     1
 10
0.0
 20
0.0
 30
377.9346008300781
  0
VERTEX
  5
5D0A2
330
5D0A1
100
AcDbEntity
  8
Default
100
AcDbVertex
100
AcDb2dVertex
 10
-847.3496737459081
 20
329.7775272719679
 30
377.9346008300781
  0
VERTEX
  5
5D0A3
330
5D0A1
100
AcDbEntity
  8
Default
100
AcDbVertex
100
AcDb2dVertex
 10
-854.9359286627948
 20
329.7775272719679
 30
377.9346008300781
  0
SEQEND
  5
5D0A4
330
5D0A1
100
AcDbEntity
  8
Default
  0
ARC
  5
5D0A5
330
1F
100
AcDbEntity
  8
Default
100
AcDbCircle
 10
-1218.722639780813
 20
89295279.00625338
 30
377.9346008300781
 40
89295485.47364856
100
AcDbArc
 50
269.999990207606
 51
269.999991142828
  0
LINE
  5
5D0A6
330
1F
100
AcDbEntity
  8
Default
100
AcDbLine
 10
-1233.984062095358
 20
-206.4673938387989
 30
377.9346008300781
 11
-1283.04049318428
 21
-206.4673851277023
 31
377.9346008300781
  0
SPLINE
  5
5D0A7
330
1F
100
AcDbEntity
  8
Default
100
AcDbSpline
210
0.0000000000000449
220
0.0000000000000448
230
1.0
 70
    12
 71
     2
 72
     6
 73
     3
 74
     0
 42
0.000000001
 43
0.0000000001
 40
0.0
 40
0.0
 40
0.0
 40
0.0784456575506041
 40
0.0784456575506041
 40
0.0784456575506041
 10
-1283.04049318428
 20
-206.4673851277023
 30
377.9346008300781
 41
1.0
 10
-1284.308968413465
 20
-206.4658693488511
 30
377.9346008300782
 41
0.7071077818591104
 10
-1284.307456602259
 20
-205.197394115383
 30
377.9346008300781
 41
1.0
  0
SPLINE
  5
5D0A8
330
1F
100
AcDbEntity
  8
Default
100
AcDbSpline
210
0.0
220
0.0
230
1.0
 70
    12
 71
     2
 72
     6
 73
     3
 74
     0
 42
0.000000001
 43
0.0000000001
 40
0.0
 40
0.0
 40
0.0
 40
0.0351460068279919
 40
0.0351460068279919
 40
0.0351460068279919
 10
-1284.307456602259
 20
-205.197394115383
 30
377.9346008300781
 41
1.0
 10
-1284.387908675269
 20
-204.7560416917024
 30
377.9346008300781
 41
0.9924246250463484
 10
-1284.35830892394
 20
-204.3083941153001
 30
377.9346008300781
 41
1.0
  0
SPLINE
  5
5D0A9
330
1F
100
AcDbEntity
  8
Default
100
AcDbSpline
210
0.0
220
0.0
230
1.0
 70
    24
 71
     2
 72
     6
 73
     3
 74
     0
 42
0.000000001
 43
0.0000000001
 40
-0.6179999945348698
 40
-0.6179999945348698
 40
-0.6179999945348698
 40
0.0
 40
0.0
 40
0.0
 10
-1284.35830892394
 20
-204.3083941153001
 30
377.9346008300781
 10
-1284.358308923936
 20
-196.4597941847007
 30
377.9346008300781
 10
-1284.358308923936
 20
-188.6111942541085
 30
377.9346008300781
  0
SPLINE
  5
5D0AA
330
1F
100
AcDbEntity
  8
Default
100
AcDbSpline
210
0.0
220
0.0
230
1.0
 70
    12
 71
     2
 72
     6
 73
     3
 74
     0
 42
0.000000001
 43
0.0000000001
 40
0.0
 40
0.0
 40
0.0
 40
0.0351460122197656
 40
0.0351460122197656
 40
0.0351460122197656
 10
-1284.358308923936
 20
-188.6111942541085
 30
377.9346008300781
 41
1.0
 10
-1284.387908666298
 20
-188.1635466097343
 30
377.9346008300781
 41
0.9924246303389436
 10
-1284.30745660604
 20
-187.722194115404
 30
377.9346008300781
 41
1.0
  0
SPLINE
  5
5D0AB
330
1F
100
AcDbEntity
  8
Default
100
AcDbSpline
210
0.0
220
0.0
230
1.0
 70
    12
 71
     2
 72
     6
 73
     3
 74
     0
 42
0.000000001
 43
0.0000000001
 40
0.0
 40
0.0
 40
0.0
 40
0.0784456577816192
 40
0.0784456577816192
 40
0.0784456577816192
 10
-1284.30745660604
 20
-187.722194115404
 30
377.9346008300781
 41
1.0
 10
-1284.308968404122
 20
-186.453718882991
 30
377.9346008300781
 41
0.707107785543906
 10
-1283.040493176011
 20
-186.4522027256445
 30
377.9346008300781
 41
1.0
  0
LINE
  5
5D0AC
330
1F
100
AcDbEntity
  8
Default
100
AcDbLine
 10
-1283.040493176011
 20
-186.4522027256445
 30
377.9346008300781
 11
-1240.235289875665
 21
-186.4521954539361
 31
377.9346008300781
  0
POLYLINE
  5
5D0AD
330
1F
100
AcDbEntity
  8
Default
100
AcDb2dPolyline
 66
     1
 10
0.0
 20
0.0
 30
377.9346008300781
  0
VERTEX
  5
5D0AE
330
5D0AD
100
AcDbEntity
  8
Default
100
AcDbVertex
100
AcDb2dVertex
 10
-1241.059409442598
 20
-184.6995941153929
 30
377.9346008300781
  0
VERTEX
  5
5D0AF
330
5D0AD
100
AcDbEntity
  8
Default
100
AcDbVertex
100
AcDb2dVertex
 10
-1282.607181975352
 20
-184.6995941153929
 30
377.9346008300781
  0
SEQEND
  5
5D0B0
330
5D0AD
100
AcDbEntity
  8
Default
  0
SPLINE
  5
5D0B1
330
1F
100
AcDbEntity
  8
Default
100
AcDbSpline
210
0.0
220
0.0
230
1.0
 70
    12
 71
     2
 72
     6
 73
     3
 74
     0
 42
0.000000001
 43
0.0000000001
 40
0.0
 40
0.0
 40
0.0
 40
0.109941564851661
 40
0.109941564851661
 40
0.109941564851661
 10
-1282.607181975352
 20
-184.6995941153929
 30
377.9346008300781
 41
1.0
 10
-1284.384342900237
 20
-184.6987550402466
 30
377.9346008300781
 41
0.7074405726109262
 10
-1284.38518204749
 20
-182.9215941153945
 30
377.9346008300781
 41
1.0
  0
SPLINE
  5
5D0B2
330
1F
100
AcDbEntity
  8
Default
100
AcDbSpline
210
0.0
220
0.0
230
1.0
 70
    24
 71
     2
 72
     6
 73
     3
 74
     0
 42
0.000000001
 43
0.0000000001
 40
0.0
 40
0.0
 40
0.0
 40
0.3520000000000003
 40
0.3520000000000003
 40
0.3520000000000003
 10
-1284.38518204749
 20
-182.9215941153945
 30
377.9346008300781
 10
-1284.38518204749
 20
-178.4511941153889
 30
377.9346008300781
 10
-1284.38518204749
 20
-173.9807941153905
 30
377.9346008300781
  0
SPLINE
  5
5D0B3
330
1F
100
AcDbEntity
  8
Default
100
AcDbSpline
210
0.0000000000000149
220
-0.0000000000000149
230
1.0
 70
    12
 71
     2
 72
     6
 73
     3
 74
     0
 42
0.000000001
 43
0.0000000001
 40
0.0
 40
0.0
 40
0.0
 40
0.2356186331260159
 40
0.2356186331260159
 40
0.2356186331260159
 10
-1284.38518204749
 20
-173.9807941153905
 30
377.9346008300781
 41
1.0
 10
-1284.385133590042
 20
-170.1708424983719
 30
377.9346008300782
 41
0.7071157676638843
 10
-1280.575181973016
 20
-170.1707941153929
 30
377.9346008300781
 41
1.0
  0
POLYLINE
  5
5D0B4
330
1F
100
AcDbEntity
  8
Default
100
AcDb2dPolyline
 66
     1
 10
0.0
 20
0.0
 30
377.9346008300781
  0
VERTEX
  5
5D0B5
330
5D0B4
100
AcDbEntity
  8
Default
100
AcDbVertex
100
AcDb2dVertex
 10
-1280.575181973016
 20
-170.1707941153929
 30
377.9346008300781
  0
VERTEX
  5
5D0B6
330
5D0B4
100
AcDbEntity
  8
Default
100
AcDbVertex
100
AcDb2dVertex
 10
-1247.535827370464
 20
-170.1707941153929
 30
377.9346008300781
  0
SEQEND
  5
5D0B7
330
5D0B4
100
AcDbEntity
  8
Default
  0
ARC
  5
5D0B8
330
1F
100
AcDbEntity
  8
Default
100
AcDbCircle
 10
-1218.722639820468
 20
-89295278.90029373
 30
377.9346008300781
 40
89295485.47364856
100
AcDbArc
 50
90.00000885717204
 51
90.00000979239393
  0
LINE
  5
5D0B9
330
1F
100
AcDbEntity
  8
Default
100
AcDbLine
 10
-1233.984062095358
 20
206.5733534796544
 30
377.9346008300781
 11
-1283.04049318428
 21
206.5733447685578
 31
377.9346008300781
  0
SPLINE
  5
5D0BA
330
1F
100
AcDbEntity
  8
Default
100
AcDbSpline
210
0.0000000000000449
220
-0.0000000000000448
230
1.0
 70
    12
 71
     2
 72
     6
 73
     3
 74
     0
 42
0.000000001
 43
0.0000000001
 40
0.0
 40
0.0
 40
0.0
 40
0.0784456575506041
 40
0.0784456575506041
 40
0.0784456575506041
 10
-1283.04049318428
 20
206.5733447685578
 30
377.9346008300781
 41
1.0
 10
-1284.308968413465
 20
206.5718289897066
 30
377.9346008300782
 41
0.7071077818591104
 10
-1284.307456602259
 20
205.3033537562385
 30
377.9346008300781
 41
1.0
  0
SPLINE
  5
5D0BB
330
1F
100
AcDbEntity
  8
Default
100
AcDbSpline
210
0.0
220
0.0
230
1.0
 70
    12
 71
     2
 72
     6
 73
     3
 74
     0
 42
0.000000001
 43
0.0000000001
 40
0.0
 40
0.0
 40
0.0
 40
0.0351460068279919
 40
0.0351460068279919
 40
0.0351460068279919
 10
-1284.307456602259
 20
205.3033537562385
 30
377.9346008300781
 41
1.0
 10
-1284.387908675269
 20
204.8620013325579
 30
377.9346008300781
 41
0.9924246250463484
 10
-1284.35830892394
 20
204.4143537561484
 30
377.9346008300781
 41
1.0
  0
SPLINE
  5
5D0BC
330
1F
100
AcDbEntity
  8
Default
100
AcDbSpline
210
0.0
220
0.0
230
1.0
 70
    24
 71
     2
 72
     6
 73
     3
 74
     0
 42
0.000000001
 43
0.0000000001
 40
-0.6179999945348698
 40
-0.6179999945348698
 40
-0.6179999945348698
 40
0.0
 40
0.0
 40
0.0
 10
-1284.35830892394
 20
204.4143537561484
 30
377.9346008300781
 10
-1284.358308923936
 20
196.5657538255562
 30
377.9346008300781
 10
-1284.358308923936
 20
188.717153894964
 30
377.9346008300781
  0
SPLINE
  5
5D0BD
330
1F
100
AcDbEntity
  8
Default
100
AcDbSpline
210
0.0
220
0.0
230
1.0
 70
    12
 71
     2
 72
     6
 73
     3
 74
     0
 42
0.000000001
 43
0.0000000001
 40
0.0
 40
0.0
 40
0.0
 40
0.0351460122197656
 40
0.0351460122197656
 40
0.0351460122197656
 10
-1284.358308923936
 20
188.717153894964
 30
377.9346008300781
 41
1.0
 10
-1284.387908666298
 20
188.2695062505971
 30
377.9346008300781
 41
0.9924246303389436
 10
-1284.30745660604
 20
187.8281537562523
 30
377.9346008300781
 41
1.0
  0
SPLINE
  5
5D0BE
330
1F
100
AcDbEntity
  8
Default
100
AcDbSpline
210
0.0
220
0.0
230
1.0
 70
    12
 71
     2
 72
     6
 73
     3
 74
     0
 42
0.000000001
 43
0.0000000001
 40
0.0
 40
0.0
 40
0.0
 40
0.0784456577816192
 40
0.0784456577816192
 40
0.0784456577816192
 10
-1284.30745660604
 20
187.8281537562523
 30
377.9346008300781
 41
1.0
 10
-1284.308968404122
 20
186.5596785238393
 30
377.9346008300781
 41
0.707107785543906
 10
-1283.040493176011
 20
186.5581631223338
 30
377.9346008300781
 41
1.0
  0
LINE
  5
5D0BF
330
1F
100
AcDbEntity
  8
Default
100
AcDbLine
 10
-1283.040493176011
 20
186.5581623664928
 30
377.9346008300781
 11
-1240.235289880998
 21
186.5581550761215
 31
377.9346008300781
  0
POLYLINE
  5
5D0C0
330
1F
100
AcDbEntity
  8
Default
100
AcDb2dPolyline
 66
     1
 10
0.0
 20
0.0
 30
377.9346008300781
  0
VERTEX
  5
5D0C1
330
5D0C0
100
AcDbEntity
  8
Default
100
AcDbVertex
100
AcDb2dVertex
 10
-1241.059409442598
 20
184.8055537562484
 30
377.9346008300781
  0
VERTEX
  5
5D0C2
330
5D0C0
100
AcDbEntity
  8
Default
100
AcDbVertex
100
AcDb2dVertex
 10
-1282.607181975352
 20
184.8055537562484
 30
377.9346008300781
  0
SEQEND
  5
5D0C3
330
5D0C0
100
AcDbEntity
  8
Default
  0
SPLINE
  5
5D0C4
330
1F
100
AcDbEntity
  8
Default
100
AcDbSpline
210
0.0
220
0.0
230
1.0
 70
    12
 71
     2
 72
     6
 73
     3
 74
     0
 42
0.000000001
 43
0.0000000001
 40
0.0
 40
0.0
 40
0.0
 40
0.109941564851661
 40
0.109941564851661
 40
0.109941564851661
 10
-1282.607181975352
 20
184.8055537562484
 30
377.9346008300781
 41
1.0
 10
-1284.384342900237
 20
184.8047146810875
 30
377.9346008300781
 41
0.7074405726109262
 10
-1284.38518204749
 20
183.02755375625
 30
377.9346008300781
 41
1.0
  0
SPLINE
  5
5D0C5
330
1F
100
AcDbEntity
  8
Default
100
AcDbSpline
210
0.0
220
0.0
230
1.0
 70
    24
 71
     2
 72
     6
 73
     3
 74
     0
 42
0.000000001
 43
0.0000000001
 40
0.0
 40
0.0
 40
0.0
 40
0.3520000000000003
 40
0.3520000000000003
 40
0.3520000000000003
 10
-1284.38518204749
 20
183.02755375625
 30
377.9346008300781
 10
-1284.38518204749
 20
178.5571537562517
 30
377.9346008300781
 10
-1284.38518204749
 20
174.0867537562533
 30
377.9346008300781
  0
SPLINE
  5
5D0C6
330
1F
100
AcDbEntity
  8
Default
100
AcDbSpline
210
0.0000000000000149
220
0.0000000000000149
230
1.0
 70
    12
 71
     2
 72
     6
 73
     3
 74
     0
 42
0.000000001
 43
0.0000000001
 40
0.0
 40
0.0
 40
0.0
 40
0.2356186331260159
 40
0.2356186331260159
 40
0.2356186331260159
 10
-1284.38518204749
 20
174.0867537562533
 30
377.9346008300781
 41
1.0
 10
-1284.385133590042
 20
170.2768021392201
 30
377.9346008300782
 41
0.7071157676638843
 10
-1280.575181973016
 20
170.2767537562484
 30
377.9346008300781
 41
1.0
  0
POLYLINE
  5
5D0C7
330
1F
100
AcDbEntity
  8
Default
100
AcDb2dPolyline
 66
     1
 10
0.0
 20
0.0
 30
377.9346008300781
  0
VERTEX
  5
5D0C8
330
5D0C7
100
AcDbEntity
  8
Default
100
AcDbVertex
100
AcDb2dVertex
 10
-1280.575181973016
 20
170.2767537562484
 30
377.9346008300781
  0
VERTEX
  5
5D0C9
330
5D0C7
100
AcDbEntity
  8
Default
100
AcDbVertex
100
AcDb2dVertex
 10
-1247.535827370468
 20
170.2767537562484
 30
377.9346008300781
  0
SEQEND
  5
5D0CA
330
5D0C7
100
AcDbEntity
  8
Default
  0
ARC
  5
5D0CB
330
1F
100
AcDbEntity
  8
Default
100
AcDbCircle
 10
-844.9331314467496
 20
-89295157.44872022
 30
377.9346008300781
 40
89295485.47364856
100
AcDbArc
 50
90.00000125262518
 51
90.00000513129217
  0
SPLINE
  5
5D0CC
330
1F
100
AcDbEntity
  8
Default
100
AcDbSpline
210
0.0
220
0.0
230
1.0
 70
    12
 71
     2
 72
     6
 73
     3
 74
     0
 42
0.000000001
 43
0.0000000001
 40
0.0
 40
0.0
 40
0.0
 40
0.0784842030870699
 40
0.0784842030870699
 40
0.0784842030870699
 10
-846.8853281569625
 20
328.0249283010286
 30
377.9346008300781
 41
1.0
 10
-845.6162473134973
 20
328.0240081528625
 30
377.9346008300781
 41
0.7071217743558634
 10
-845.6171031662396
 20
326.754927271964
 30
377.9346008300781
 41
1.0
  0
POLYLINE
  5
5D0CD
330
1F
100
AcDbEntity
  8
Default
100
AcDb2dPolyline
 66
     1
 10
0.0
 20
0.0
 30
377.9346008300781
  0
VERTEX
  5
5D0CE
330
5D0CD
100
AcDbEntity
  8
Default
100
AcDbVertex
100
AcDb2dVertex
 10
-845.6171031662396
 20
326.754927271964
 30
377.9346008300781
  0
VERTEX
  5
5D0CF
330
5D0CD
100
AcDbEntity
  8
Default
100
AcDbVertex
100
AcDb2dVertex
 10
-845.6171031662396
 20
321.4894804438533
 30
377.9346008300781
  0
SEQEND
  5
5D0D0
330
5D0CD
100
AcDbEntity
  8
Default
  0
ARC
  5
5D0D1
330
1F
100
AcDbEntity
  8
Default
100
AcDbCircle
 10
-844.9331314070944
 20
89295157.55467988
 30
377.9346008300781
 40
89295485.47364856
100
AcDbArc
 50
269.9999948687078
 51
269.9999987473749
  0
SPLINE
  5
5D0D2
330
1F
100
AcDbEntity
  8
Default
100
AcDbSpline
210
0.0
220
0.0
230
1.0
 70
    12
 71
     2
 72
     6
 73
     3
 74
     0
 42
0.000000001
 43
0.0000000001
 40
0.0
 40
0.0
 40
0.0
 40
0.0784842030870699
 40
0.0784842030870699
 40
0.0784842030870699
 10
-846.8853281569629
 20
-327.9189686601733
 30
377.9346008300781
 41
1.0
 10
-845.6162473134973
 20
-327.9180485119999
 30
377.9346008300781
 41
0.7071217743558634
 10
-845.6171031662398
 20
-326.6489676311015
 30
377.9346008300781
 41
1.0
  0
POLYLINE
  5
5D0D3
330
1F
100
AcDbEntity
  8
Default
100
AcDb2dPolyline
 66
     1
 10
0.0
 20
0.0
 30
377.9346008300781
  0
VERTEX
  5
5D0D4
330
5D0D3
100
AcDbEntity
  8
Default
100
AcDbVertex
100
AcDb2dVertex
 10
-845.6171031662398
 20
-326.6489676311015
 30
377.9346008300781
  0
VERTEX
  5
5D0D5
330
5D0D3
100
AcDbEntity
  8
Default
100
AcDbVertex
100
AcDb2dVertex
 10
-845.6171031662398
 20
-321.3835208030053
 30
377.9346008300781
  0
SEQEND
  5
5D0D6
330
5D0D3
100
AcDbEntity
  8
Default
  0
SPLINE
  5
5D0D7
330
1F
100
AcDbEntity
  8
Default
100
AcDbSpline
210
0.0000000000000055
220
0.0000000000000149
230
1.0
 70
    12
 71
     2
 72
     6
 73
     3
 74
     0
 42
0.000000001
 43
0.0000000001
 40
0.1699723053228755
 40
0.1699723053228755
 40
0.1699723053228755
 40
0.6213186892081751
 40
0.6213186892081751
 40
0.6213186892081751
 10
-1230.318663760274
 20
-206.1280112406732
 30
377.9346008300781
 41
0.8838882857041388
 10
-1236.711758232845
 20
-207.5660897611221
 30
377.9346008300782
 41
0.7877819625056607
 10
-1240.611507743266
 20
-202.3000019796438
 30
377.9346008300781
 41
1.0
  0
SPLINE
  5
5D0D8
330
1F
100
AcDbEntity
  8
Default
100
AcDbSpline
210
0.0
220
0.0
230
1.0
 70
    12
 71
     2
 72
     6
 73
     3
 74
     0
 42
0.000000001
 43
0.0000000001
 40
0.0
 40
0.0
 40
0.0
 40
0.5780956337957553
 40
0.5780956337957553
 40
0.5780956337957553
 10
-1240.611507743266
 20
-202.3000019796438
 30
377.9346008300781
 41
1.0
 10
-1245.881477230927
 20
-194.9059051083301
 30
377.9346008300781
 41
0.7281867164683567
 10
-1239.064655511281
 20
-188.9078897210622
 30
377.9346008300781
 41
0.9621819287679231
  0
SPLINE
  5
5D0D9
330
1F
100
AcDbEntity
  8
Default
100
AcDbSpline
210
-0.0000000000000093
220
-0.0000000000000011
230
1.0
 70
    12
 71
     2
 72
     6
 73
     3
 74
     0
 42
0.000000001
 43
0.0000000001
 40
0.0432228048386966
 40
0.0432228048386966
 40
0.0432228048386966
 40
0.6213186892081751
 40
0.6213186892081751
 40
0.6213186892081751
 10
-1239.064656127079
 20
189.0138480803596
 30
377.9346008300781
 41
0.9621818109507904
 10
-1245.88149498147
 20
195.0118625876583
 30
377.9346008300781
 41
0.728185760549657
 10
-1240.61150761385
 20
202.4059617986221
 30
377.9346008300781
 41
1.0
  0
SPLINE
  5
5D0DA
330
1F
100
AcDbEntity
  8
Default
100
AcDbSpline
210
0.0
220
0.0
230
1.0
 70
    12
 71
     2
 72
     6
 73
     3
 74
     0
 42
0.000000001
 43
0.0000000001
 40
0.0
 40
0.0
 40
0.0
 40
0.4513461501451067
 40
0.4513461501451067
 40
0.4513461501451067
 10
-1240.61150761385
 20
202.4059617986221
 30
377.9346008300781
 41
1.0
 10
-1236.711754714959
 20
207.6720381458598
 30
377.9346008300781
 41
0.7877827267526954
 10
-1230.318666003428
 20
206.2339666963761
 30
377.9346008300781
 41
0.8838886685644926
  0
LWPOLYLINE
  5
5D0F3
330
1F
100
AcDbEntity
  8
Default
100
AcDbPolyline
 90
        8
 70
     1
 43
0.0
 10
-457.0000000000001
 20
-422.0
 10
-457.0000000000001
 20
422.0
 42
-0.4142135623730951
 10
-422.0000000000001
 20
457.0
 10
422.0000000000001
 20
457.0
 42
-0.4142135623730951
 10
457.0000000000001
 20
422.0
 10
457.0000000000001
 20
-422.0
 42
-0.4142135623730951
 10
422.0000000000001
 20
-457.0
 10
-422.0000000000001
 20
-457.0
 42
-0.4142135623730951
  0
ENDSEC
  0
SECTION
  2
OBJECTS
  0
DICTIONARY
  5
C
330
0
100
AcDbDictionary
281
     1
  3
ACAD_BACKGROUND
350
5CB6D
  3
ACAD_CIP_PREVIOUS_PRODUCT_INFO
350
5CB52
  3
ACAD_COLOR
350
5CB4A
  3
ACAD_DETAILVIEWSTYLE
350
5CB47
  3
ACAD_GROUP
350
D
  3
ACAD_LAYOUT
350
1A
  3
ACAD_MATERIAL
350
43
  3
ACAD_MLEADERSTYLE
350
5CB46
  3
ACAD_MLINESTYLE
350
17
  3
ACAD_PLOTSETTINGS
350
19
  3
ACAD_PLOTSTYLENAME
350
E
  3
ACAD_SCALELIST
350
47
  3
ACAD_SECTIONVIEWSTYLE
350
5CB48
  3
ACAD_TABLESTYLE
350
5CB45
  3
ACAD_VISUALSTYLE
350
2A
  3
ACDB_RECOMPOSE_DATA
350
5D114
  3
AcDbVariableDictionary
350
5CB0C
  0
DICTIONARY
  5
5CB0A
330
8
100
AcDbDictionary
280
     1
281
     1
  0
SUN
  5
69
330
29
100
AcDbSun
 90
        1
290
     0
 63
     7
421
 16777215
 40
1.0
291
     1
 91
  2455826
 92
 54000000
292
     0
 70
     0
 71
   256
280
     1
  0
DICTIONARY
  5
5CB5A
330
2
100
AcDbDictionary
280
     1
281
     1
  3
ACAD_LAYERSTATES
360
5CB5B
  0
DICTIONARY
  5
5CB53
330
10
100
AcDbDictionary
280
     1
281
     1
  3
ADSK_XREC_LAYER_RECONCILED
360
5CB54
  0
DICTIONARY
  5
5CB55
330
6A
100
AcDbDictionary
280
     1
281
     1
  3
ADSK_XREC_LAYER_RECONCILED
360
5CB56
  0
DICTIONARY
  5
5CCE0
330
1F
100
AcDbDictionary
280
     1
281
     1
  3
ACAD_SORTENTS
360
5CCE1
  0
DICTIONARY
  5
5CB6D
102
{ACAD_REACTORS
330
C
102
}
330
C
100
AcDbDictionary
281
     1
  0
XRECORD
  5
5CB52
102
{ACAD_REACTORS
330
C
102
}
330
C
100
AcDbXrecord
280
     1
300
ACD
300
2016
300
ACD_F_S
  0
DICTIONARY
  5
5CB4A
102
{ACAD_REACTORS
330
C
102
}
330
C
100
AcDbDictionary
281
     1
  0
DICTIONARY
  5
5CB47
102
{ACAD_REACTORS
330
C
102
}
330
C
100
AcDbDictionary
281
     1
  3
Imperial24
350
5CB4E
  0
DICTIONARY
  5
D
102
{ACAD_REACTORS
330
C
102
}
330
C
100
AcDbDictionary
281
     1
  0
DICTIONARY
  5
1A
102
{ACAD_REACTORS
330
C
102
}
330
C
100
AcDbDictionary
281
     1
  3
Layout1
350
1E
  3
Layout2
350
26
  3
Model
350
22
  0
DICTIONARY
  5
43
102
{ACAD_REACTORS
330
C
102
}
330
C
100
AcDbDictionary
281
     1
  3
ByBlock
350
45
  3
ByLayer
350
44
  3
Global
350
46
  0
DICTIONARY
  5
5CB46
102
{ACAD_REACTORS
330
C
102
}
330
C
100
AcDbDictionary
281
     1
  3
Standard
350
5CB4C
  0
DICTIONARY
  5
17
102
{ACAD_REACTORS
330
C
102
}
330
C
100
AcDbDictionary
281
     1
  3
Standard
350
18
  0
DICTIONARY
  5
19
102
{ACAD_REACTORS
330
C
102
}
330
C
100
AcDbDictionary
281
     1
  0
ACDBDICTIONARYWDFLT
  5
E
102
{ACAD_REACTORS
330
C
102
}
330
C
100
AcDbDictionary
281
     1
  3
Normal
350
F
100
AcDbDictionaryWithDefault
340
F
  0
DICTIONARY
  5
47
102
{ACAD_REACTORS
330
C
102
}
330
C
100
AcDbDictionary
281
     1
  3
A0
350
48
  3
A1
350
49
  3
A2
350
4A
  3
A3
350
4B
  3
A4
350
4C
  3
A5
350
4D
  3
A6
350
4E
  3
A7
350
4F
  3
A8
350
50
  3
A9
350
51
  3
B0
350
52
  3
B1
350
53
  3
B2
350
54
  3
B3
350
55
  3
B4
350
56
  3
B5
350
57
  3
B6
350
58
  3
B7
350
59
  3
B8
350
5A
  3
B9
350
5B
  3
C0
350
5C
  3
C1
350
5D
  3
C2
350
5E
  3
C3
350
5F
  3
C4
350
60
  3
C5
350
61
  3
C6
350
62
  3
C7
350
63
  3
C8
350
64
  3
C9
350
65
  3
D0
350
66
  3
D1
350
67
  3
D2
350
68
  0
DICTIONARY
  5
5CB48
102
{ACAD_REACTORS
330
C
102
}
330
C
100
AcDbDictionary
281
     1
  3
Imperial24
350
5CB4D
  0
DICTIONARY
  5
5CB45
102
{ACAD_REACTORS
330
C
102
}
330
C
100
AcDbDictionary
281
     1
  3
Standard
350
5CB4B
  0
DICTIONARY
  5
2A
102
{ACAD_REACTORS
330
C
102
}
330
C
100
AcDbDictionary
281
     1
  3
2dWireframe
350
2F
  3
3D Hidden
350
5CB80
  3
3dWireframe
350
5CB81
  3
Basic
350
32
  3
Brighten
350
36
  3
ColorChange
350
3A
  3
Conceptual
350
34
  3
Dim
350
35
  3
EdgeColorOff
350
3D
  3
Facepattern
350
39
  3
Flat
350
2B
  3
FlatWithEdges
350
2C
  3
Gouraud
350
2D
  3
GouraudWithEdges
350
2E
  3
Hidden
350
31
  3
JitterOff
350
3B
  3
Linepattern
350
38
  3
OverhangOff
350
3C
  3
Realistic
350
33
  3
Shaded
350
42
  3
Shaded with edges
350
41
  3
Shades of Gray
350
3E
  3
Sketchy
350
3F
  3
Thicken
350
37
  3
Wireframe
350
30
  3
X-Ray
350
40
  0
XRECORD
  5
5D114
102
{ACAD_REACTORS
330
C
102
}
330
C
100
AcDbXrecord
280
     1
 90
        1
330
5CB4B
330
5CB4D
330
5CB4E
  0
DICTIONARY
  5
5CB0C
102
{ACAD_REACTORS
330
C
102
}
330
C
100
AcDbDictionary
281
     1
  3
CANNOSCALE
350
5CB0D
  3
CMLEADERSTYLE
350
5CD77
  3
CTABLESTYLE
350
5CD76
  3
CVIEWDETAILSTYLE
350
5CD78
  3
CVIEWSECTIONSTYLE
350
5CD79
  3
LAYEREVAL
350
5CD7B
  3
LAYERNOTIFY
350
5CD7C
  3
LIGHTINGUNITS
350
5CD7A
  3
MSLTSCALE
350
5CB0E
  0
DICTIONARY
  5
5CB5B
102
{ACAD_REACTORS
330
5CB5A
102
}
330
5CB5A
100
AcDbDictionary
281
     1
  0
XRECORD
  5
5CB54
102
{ACAD_REACTORS
330
5CB53
102
}
330
5CB53
100
AcDbXrecord
280
     1
290
     1
  0
XRECORD
  5
5CB56
102
{ACAD_REACTORS
330
5CB55
102
}
330
5CB55
100
AcDbXrecord
280
     1
290
     1
  0
SORTENTSTABLE
  5
5CCE1
102
{ACAD_REACTORS
330
5CCE0
102
}
330
5CCE0
100
AcDbSortentsTable
330
1F
  0
ACDBDETAILVIEWSTYLE
  5
5CB4E
102
{ACAD_XDICTIONARY
360
5CD73
102
}
102
{ACAD_REACTORS
330
5CB47
102
}
330
5CB47
100
AcDbModelDocViewStyle
 70
     0
  3
Imperial24
290
     0
100
AcDbDetailViewStyle
 70
     0
 71
     0
 90
        3
 71
     1
340
11
 62
   256
 40
0.24
340
0
 62
   256
 40
0.24
300

 40
0.36
280
     3
 71
     2
340
16
 90
       25
 62
   256
 71
     3
340
11
 62
   256
 40
0.24
 90
        1
 40
0.75
 90
        1
300
%<\AcVar ViewType \f "%tc1">% %<\AcVar ViewDetailId>%\PSCALE %<\AcVar ViewScale \f "%sn">%
 71
     4
340
16
 90
       25
 62
   256
340
16
 90
       25
 62
   256
280
     0
  0
LAYOUT
  5
1E
102
{ACAD_REACTORS
330
1A
102
}
330
1A
100
AcDbPlotSettings
  1

  2
none_device
  4

  6

 40
0.0
 41
0.0
 42
0.0
 43
0.0
 44
0.0
 45
0.0
 46
0.0
 47
0.0
 48
0.0
 49
0.0
140
0.0
141
0.0
142
1.0
143
1.0
 70
   688
 72
     0
 73
     0
 74
     5
  7

 75
    16
147
1.0
 76
     0
 77
     2
 78
   300
148
0.0
149
0.0
100
AcDbLayout
  1
Layout1
 70
     1
 71
     1
 10
0.0
 20
0.0
 11
12.0
 21
9.0
 12
0.0
 22
0.0
 32
0.0
 14
1.000000000000000E+20
 24
1.000000000000000E+20
 34
1.000000000000000E+20
 15
-1.000000000000000E+20
 25
-1.000000000000000E+20
 35
-1.000000000000000E+20
146
0.0
 13
0.0
 23
0.0
 33
0.0
 16
1.0
 26
0.0
 36
0.0
 17
0.0
 27
1.0
 37
0.0
 76
     0
330
1B
  0
LAYOUT
  5
26
102
{ACAD_REACTORS
330
1A
102
}
330
1A
100
AcDbPlotSettings
  1

  2
none_device
  4

  6

 40
0.0
 41
0.0
 42
0.0
 43
0.0
 44
0.0
 45
0.0
 46
0.0
 47
0.0
 48
0.0
 49
0.0
140
0.0
141
0.0
142
1.0
143
1.0
 70
   688
 72
     0
 73
     0
 74
     5
  7

 75
    16
147
1.0
 76
     0
 77
     2
 78
   300
148
0.0
149
0.0
100
AcDbLayout
  1
Layout2
 70
     1
 71
     2
 10
0.0
 20
0.0
 11
0.0
 21
0.0
 12
0.0
 22
0.0
 32
0.0
 14
0.0
 24
0.0
 34
0.0
 15
0.0
 25
0.0
 35
0.0
146
0.0
 13
0.0
 23
0.0
 33
0.0
 16
1.0
 26
0.0
 36
0.0
 17
0.0
 27
1.0
 37
0.0
 76
     0
330
23
  0
LAYOUT
  5
22
102
{ACAD_REACTORS
330
1A
102
}
330
1A
100
AcDbPlotSettings
  1

  2
none_device
  4
Letter_(8.50_x_11.00_Inches)
  6

 40
6.349999999999999
 41
6.349999999999999
 42
6.350005079999999
 43
6.350005079999999
 44
215.9
 45
279.4
 46
0.0
 47
0.0
 48
0.0
 49
0.0
140
0.0
141
0.0
142
1.0
143
1.0
 70
  1712
 72
     0
 73
     0
 74
     0
  7

 75
     0
147
1.0
 76
     0
 77
     2
 78
   300
148
0.0
149
0.0
100
AcDbLayout
  1
Model
 70
     1
 71
     0
 10
0.0
 20
0.0
 11
12.0
 21
9.0
 12
0.0
 22
0.0
 32
0.0
 14
-1264.202880859375
 24
-1264.202880859375
 34
-0.000000000000652
 15
1264.202880859375
 25
1264.202880859375
 35
709.343017578125
146
0.0
 13
0.0
 23
0.0
 33
0.0
 16
1.0
 26
0.0
 36
0.0
 17
0.0
 27
1.0
 37
0.0
 76
     0
330
1F
331
29
  0
MATERIAL
  5
45
102
{ACAD_REACTORS
330
43
102
}
330
43
100
AcDbMaterial
  1
ByBlock
 73
     1
 78
     1
172
     1
176
     1
270
     1
274
     1
  0
MATERIAL
  5
44
102
{ACAD_REACTORS
330
43
102
}
330
43
100
AcDbMaterial
  1
ByLayer
 73
     1
 78
     1
172
     1
176
     1
270
     1
274
     1
  0
MATERIAL
  5
46
102
{ACAD_REACTORS
330
43
102
}
330
43
100
AcDbMaterial
  1
Global
 73
     1
 78
     1
172
     1
176
     1
270
     1
274
     1
  0
MLEADERSTYLE
  5
5CB4C
102
{ACAD_REACTORS
330
5CB46
102
}
330
5CB46
100
AcDbMLeaderStyle
179
     2
170
     2
171
     1
172
     0
 90
        2
 40
0.0
 41
0.0
173
     1
 91
-1056964608
340
14
 92
       -2
290
     1
 42
0.09
291
     1
 43
0.36
  3
Standard
 44
0.18
300

342
11
174
     1
178
     6
175
     1
176
     0
 93
-1056964608
 45
0.18
292
     0
297
     0
 46
0.18
 94
-1056964608
 47
1.0
 49
1.0
140
1.0
293
     1
141
0.0
294
     1
177
     0
142
1.0
295
     1
296
     0
143
0.125
271
     0
272
     9
273
     9
298
     1
  0
MLINESTYLE
  5
18
102
{ACAD_REACTORS
330
17
102
}
330
17
100
AcDbMlineStyle
  2
STANDARD
 70
     0
  3

 62
   256
 51
90.0
 52
90.0
 71
     2
 49
0.5
 62
   256
  6
BYLAYER
 49
-0.5
 62
   256
  6
BYLAYER
  0
ACDBPLACEHOLDER
  5
F
102
{ACAD_REACTORS
330
E
102
}
330
E
  0
SCALE
  5
48
102
{ACAD_REACTORS
330
47
102
}
330
47
100
AcDbScale
 70
     0
300
1:1
140
1.0
141
1.0
290
     1
  0
SCALE
  5
49
102
{ACAD_REACTORS
330
47
102
}
330
47
100
AcDbScale
 70
     0
300
1:2
140
1.0
141
2.0
290
     0
  0
SCALE
  5
4A
102
{ACAD_REACTORS
330
47
102
}
330
47
100
AcDbScale
 70
     0
300
1:4
140
1.0
141
4.0
290
     0
  0
SCALE
  5
4B
102
{ACAD_REACTORS
330
47
102
}
330
47
100
AcDbScale
 70
     0
300
1:5
140
1.0
141
5.0
290
     0
  0
SCALE
  5
4C
102
{ACAD_REACTORS
330
47
102
}
330
47
100
AcDbScale
 70
     0
300
1:8
140
1.0
141
8.0
290
     0
  0
SCALE
  5
4D
102
{ACAD_REACTORS
330
47
102
}
330
47
100
AcDbScale
 70
     0
300
1:10
140
1.0
141
10.0
290
     0
  0
SCALE
  5
4E
102
{ACAD_REACTORS
330
47
102
}
330
47
100
AcDbScale
 70
     0
300
1:16
140
1.0
141
16.0
290
     0
  0
SCALE
  5
4F
102
{ACAD_REACTORS
330
47
102
}
330
47
100
AcDbScale
 70
     0
300
1:20
140
1.0
141
20.0
290
     0
  0
SCALE
  5
50
102
{ACAD_REACTORS
330
47
102
}
330
47
100
AcDbScale
 70
     0
300
1:30
140
1.0
141
30.0
290
     0
  0
SCALE
  5
51
102
{ACAD_REACTORS
330
47
102
}
330
47
100
AcDbScale
 70
     0
300
1:40
140
1.0
141
40.0
290
     0
  0
SCALE
  5
52
102
{ACAD_REACTORS
330
47
102
}
330
47
100
AcDbScale
 70
     0
300
1:50
140
1.0
141
50.0
290
     0
  0
SCALE
  5
53
102
{ACAD_REACTORS
330
47
102
}
330
47
100
AcDbScale
 70
     0
300
1:100
140
1.0
141
100.0
290
     0
  0
SCALE
  5
54
102
{ACAD_REACTORS
330
47
102
}
330
47
100
AcDbScale
 70
     0
300
2:1
140
2.0
141
1.0
290
     0
  0
SCALE
  5
55
102
{ACAD_REACTORS
330
47
102
}
330
47
100
AcDbScale
 70
     0
300
4:1
140
4.0
141
1.0
290
     0
  0
SCALE
  5
56
102
{ACAD_REACTORS
330
47
102
}
330
47
100
AcDbScale
 70
     0
300
8:1
140
8.0
141
1.0
290
     0
  0
SCALE
  5
57
102
{ACAD_REACTORS
330
47
102
}
330
47
100
AcDbScale
 70
     0
300
10:1
140
10.0
141
1.0
290
     0
  0
SCALE
  5
58
102
{ACAD_REACTORS
330
47
102
}
330
47
100
AcDbScale
 70
     0
300
100:1
140
100.0
141
1.0
290
     0
  0
SCALE
  5
59
102
{ACAD_REACTORS
330
47
102
}
330
47
100
AcDbScale
 70
     0
300
1/128" = 1'-0"
140
0.0078125
141
12.0
290
     0
  0
SCALE
  5
5A
102
{ACAD_REACTORS
330
47
102
}
330
47
100
AcDbScale
 70
     0
300
1/64" = 1'-0"
140
0.015625
141
12.0
290
     0
  0
SCALE
  5
5B
102
{ACAD_REACTORS
330
47
102
}
330
47
100
AcDbScale
 70
     0
300
1/32" = 1'-0"
140
0.03125
141
12.0
290
     0
  0
SCALE
  5
5C
102
{ACAD_REACTORS
330
47
102
}
330
47
100
AcDbScale
 70
     0
300
1/16" = 1'-0"
140
0.0625
141
12.0
290
     0
  0
SCALE
  5
5D
102
{ACAD_REACTORS
330
47
102
}
330
47
100
AcDbScale
 70
     0
300
3/32" = 1'-0"
140
0.09375
141
12.0
290
     0
  0
SCALE
  5
5E
102
{ACAD_REACTORS
330
47
102
}
330
47
100
AcDbScale
 70
     0
300
1/8" = 1'-0"
140
0.125
141
12.0
290
     0
  0
SCALE
  5
5F
102
{ACAD_REACTORS
330
47
102
}
330
47
100
AcDbScale
 70
     0
300
3/16" = 1'-0"
140
0.1875
141
12.0
290
     0
  0
SCALE
  5
60
102
{ACAD_REACTORS
330
47
102
}
330
47
100
AcDbScale
 70
     0
300
1/4" = 1'-0"
140
0.25
141
12.0
290
     0
  0
SCALE
  5
61
102
{ACAD_REACTORS
330
47
102
}
330
47
100
AcDbScale
 70
     0
300
3/8" = 1'-0"
140
0.375
141
12.0
290
     0
  0
SCALE
  5
62
102
{ACAD_REACTORS
330
47
102
}
330
47
100
AcDbScale
 70
     0
300
1/2" = 1'-0"
140
0.5
141
12.0
290
     0
  0
SCALE
  5
63
102
{ACAD_REACTORS
330
47
102
}
330
47
100
AcDbScale
 70
     0
300
3/4" = 1'-0"
140
0.75
141
12.0
290
     0
  0
SCALE
  5
64
102
{ACAD_REACTORS
330
47
102
}
330
47
100
AcDbScale
 70
     0
300
1" = 1'-0"
140
1.0
141
12.0
290
     0
  0
SCALE
  5
65
102
{ACAD_REACTORS
330
47
102
}
330
47
100
AcDbScale
 70
     0
300
1-1/2" = 1'-0"
140
1.5
141
12.0
290
     0
  0
SCALE
  5
66
102
{ACAD_REACTORS
330
47
102
}
330
47
100
AcDbScale
 70
     0
300
3" = 1'-0"
140
3.0
141
12.0
290
     0
  0
SCALE
  5
67
102
{ACAD_REACTORS
330
47
102
}
330
47
100
AcDbScale
 70
     0
300
6" = 1'-0"
140
6.0
141
12.0
290
     0
  0
SCALE
  5
68
102
{ACAD_REACTORS
330
47
102
}
330
47
100
AcDbScale
 70
     0
300
1'-0" = 1'-0"
140
12.0
141
12.0
290
     0
  0
ACDBSECTIONVIEWSTYLE
  5
5CB4D
102
{ACAD_XDICTIONARY
360
5CD71
102
}
102
{ACAD_REACTORS
330
5CB48
102
}
330
5CB48
100
AcDbModelDocViewStyle
 70
     0
  3
Imperial24
290
     0
100
AcDbSectionViewStyle
 70
     0
 71
     0
 90
       78
 71
     1
340
11
 62
   256
 40
0.24
340
0
340
0
 62
   256
 40
0.24
300
I, O, Q, S, X, Z
 40
0.48
 90
        3
 40
0.18
 90
        1
 71
     2
340
16
 90
       25
 62
   256
340
16
 90
       50
 62
   256
 40
0.24
 40
0.0
 40
0.24
 71
     3
340
11
 62
   256
 40
0.24
 90
        1
 40
0.75
 90
        1
300
%<\AcVar ViewType \f "%tc1">% %<\AcVar ViewSectionStartId>%-%<\AcVar ViewSectionEndId>%\PSCALE %<\AcVar ViewScale \f "%sn">%
 71
     4
 62
   256
 62
   257
300
ANSI31
 40
1.0
 90
        0
290
     0
290
     0
 90
        6
 40
0.0
 40
1.570796326794896
 40
0.2617993877991494
 40
1.308996938995747
 40
-0.2617993877991494
 40
1.832595714594046
  0
TABLESTYLE
  5
5CB4B
102
{ACAD_XDICTIONARY
360
5D110
102
}
102
{ACAD_REACTORS
330
5CB45
102
}
330
5CB45
100
AcDbTableStyle
280
     0
  3
Standard
 70
     0
 71
     0
 40
0.06
 41
0.06
280
     0
281
     0
  7
Standard
140
0.18
170
     2
 62
     0
 63
     7
283
     0
 90
      512
 91
        0
  1

274
    -2
284
     1
 64
     0
275
    -2
285
     1
 65
     0
276
    -2
286
     1
 66
     0
277
    -2
287
     1
 67
     0
278
    -2
288
     1
 68
     0
279
    -2
289
     1
 69
     0
  7
Standard
140
0.25
170
     5
 62
     0
 63
     7
283
     0
 90
      512
 91
        0
  1

274
    -2
284
     1
 64
     0
275
    -2
285
     1
 65
     0
276
    -2
286
     1
 66
     0
277
    -2
287
     1
 67
     0
278
    -2
288
     1
 68
     0
279
    -2
289
     1
 69
     0
  7
Standard
140
0.18
170
     5
 62
     0
 63
     7
283
     0
 90
      512
 91
        0
  1

274
    -2
284
     1
 64
     0
275
    -2
285
     1
 65
     0
276
    -2
286
     1
 66
     0
277
    -2
287
     1
 67
     0
278
    -2
288
     1
 68
     0
279
    -2
289
     1
 69
     0
  0
VISUALSTYLE
  5
2F
102
{ACAD_REACTORS
330
2A
102
}
330
2A
100
AcDbVisualStyle
  2
2dWireframe
 70
     4
177
     3
291
     0
 70
    58
 90
        0
176
     1
 90
        2
176
     1
 90
        0
176
     1
 90
        0
176
     1
 40
0.6
176
     1
 40
30.0
176
     1
 62
     7
420
 16777215
176
     1
 90
        1
176
     1
 90
        4
176
     1
 62
     7
176
     1
 62
   257
176
     1
 90
        1
176
     1
 90
        1
176
     1
 40
1.0
176
     1
 90
        0
176
     1
 62
   257
176
     1
 40
1.0
176
     1
 90
        1
176
     1
 90
        6
176
     1
 90
        2
176
     1
 62
     7
176
     1
 90
        5
176
     1
 90
        0
176
     1
 90
        0
176
     1
290
     0
176
     1
 90
        1
176
     1
 40
0.0
176
     1
 90
        0
176
     1
290
     1
176
     1
290
     1
176
     1
290
     0
176
     1
290
     0
176
     1
290
     0
176
     1
290
     0
176
     1
290
     0
176
     1
290
     0
176
     1
290
     0
176
     1
 90
       50
176
     1
 40
0.0
176
     1
 40
1.0
176
     1
 90
        0
176
     1
 62
    18
420
        0
176
     1
 90
       50
176
     1
 90
        3
176
     1
 62
     5
420
      255
176
     1
290
     0
176
     1
 90
       50
176
     1
 90
       50
176
     1
 90
       50
176
     1
290
     0
176
     1
 90
       50
176
     1
 62
   256
176
     0
 40
1.0
176
     0
 90
        2
176
     1
  1
strokes_ogs.tif
176
     1
290
     0
176
     1
 40
1.0
176
     1
 40
1.0
176
     1
  0
VISUALSTYLE
  5
5CB80
102
{ACAD_REACTORS
330
2A
102
}
330
2A
100
AcDbVisualStyle
  2

 70
     6
177
     3
291
     0
 70
    58
 90
        1
176
     1
 90
        2
176
     1
 90
        2
176
     1
 90
        0
176
     1
 40
0.6
176
     1
 40
30.0
176
     1
 62
     7
420
 16777215
176
     1
 90
        2
176
     1
 90
        2
176
     1
 62
     7
176
     1
 62
   257
176
     1
 90
        2
176
     1
 90
        1
176
     1
 40
40.0
176
     1
 90
        0
176
     1
 62
   257
176
     1
 40
1.0
176
     1
 90
        1
176
     1
 90
        6
176
     1
 90
        2
176
     1
 62
     7
176
     1
 90
        3
176
     1
 90
        0
176
     1
 90
        0
176
     1
290
     0
176
     1
 90
        1
176
     1
 40
0.0
176
     1
 90
        0
176
     1
290
     0
176
     1
290
     1
176
     1
290
     1
176
     1
290
     0
176
     1
290
     0
176
     1
290
     0
176
     1
290
     0
176
     1
290
     0
176
     1
290
     0
176
     1
 90
       50
176
     1
 40
0.0
176
     1
 40
1.0
176
     1
 90
        0
176
     1
 62
    18
420
        0
176
     1
 90
       50
176
     1
 90
        3
176
     1
 62
     5
420
      255
176
     1
290
     0
176
     1
 90
       50
176
     1
 90
       50
176
     1
 90
       50
176
     1
290
     0
176
     1
 90
       50
176
     1
 62
   256
176
     0
 40
1.0
176
     0
 90
        2
176
     1
  1
strokes_ogs.tif
176
     1
290
     0
176
     1
 40
1.0
176
     1
 40
1.0
176
     1
  0
VISUALSTYLE
  5
5CB81
102
{ACAD_REACTORS
330
2A
102
}
330
2A
100
AcDbVisualStyle
  2

 70
     5
177
     3
291
     0
 70
    58
 90
        0
176
     1
 90
        2
176
     1
 90
        0
176
     1
 90
        0
176
     1
 40
0.6
176
     1
 40
30.0
176
     1
 62
     7
420
 16777215
176
     1
 90
        1
176
     1
 90
        4
176
     1
 62
     7
176
     1
 62
   257
176
     1
 90
        1
176
     1
 90
        1
176
     1
 40
1.0
176
     1
 90
        0
176
     1
 62
   257
176
     1
 40
1.0
176
     1
 90
        1
176
     1
 90
        6
176
     1
 90
        2
176
     1
 62
     7
176
     1
 90
        5
176
     1
 90
        0
176
     1
 90
        0
176
     1
290
     0
176
     1
 90
        1
176
     1
 40
0.0
176
     1
 90
        0
176
     1
290
     0
176
     1
290
     1
176
     1
290
     1
176
     1
290
     0
176
     1
290
     0
176
     1
290
     0
176
     1
290
     0
176
     1
290
     0
176
     1
290
     0
176
     1
 90
       50
176
     1
 40
0.0
176
     1
 40
1.0
176
     1
 90
        0
176
     1
 62
    18
420
        0
176
     1
 90
       50
176
     1
 90
        3
176
     1
 62
     5
420
      255
176
     1
290
     0
176
     1
 90
       50
176
     1
 90
       50
176
     1
 90
       50
176
     1
290
     0
176
     1
 90
       50
176
     1
 62
   256
176
     0
 40
1.0
176
     0
 90
        2
176
     1
  1
strokes_ogs.tif
176
     1
290
     0
176
     1
 40
1.0
176
     1
 40
1.0
176
     1
  0
VISUALSTYLE
  5
32
102
{ACAD_REACTORS
330
2A
102
}
330
2A
100
AcDbVisualStyle
  2
Basic
 70
     7
177
     3
291
     1
 70
    58
 90
        1
176
     1
 90
        0
176
     1
 90
        1
176
     1
 90
        0
176
     1
 40
0.6
176
     1
 40
30.0
176
     1
 62
     7
420
 16777215
176
     1
 90
        0
176
     1
 90
        4
176
     1
 62
     7
176
     1
 62
   257
176
     1
 90
        1
176
     1
 90
        1
176
     1
 40
1.0
176
     1
 90
        8
176
     1
 62
     7
176
     1
 40
1.0
176
     1
 90
        1
176
     1
 90
        6
176
     1
 90
        2
176
     1
 62
     7
176
     1
 90
        5
176
     1
 90
        0
176
     1
 90
        0
176
     1
290
     0
176
     1
 90
        1
176
     1
 40
0.0
176
     1
 90
        0
176
     1
290
     0
176
     1
290
     1
176
     1
290
     1
176
     1
290
     0
176
     1
290
     0
176
     1
290
     0
176
     1
290
     0
176
     1
290
     0
176
     1
290
     0
176
     1
 90
       50
176
     1
 40
0.0
176
     1
 40
1.0
176
     1
 90
        0
176
     1
 62
    18
420
        0
176
     1
 90
       50
176
     1
 90
        3
176
     1
 62
     5
420
      255
176
     1
290
     0
176
     1
 90
       50
176
     1
 90
       50
176
     1
 90
       50
176
     1
290
     0
176
     1
 90
       50
176
     1
 62
   256
176
     0
 40
1.0
176
     0
 90
        2
176
     1
  1
strokes_ogs.tif
176
     1
290
     0
176
     1
 40
1.0
176
     1
 40
1.0
176
     1
  0
VISUALSTYLE
  5
36
102
{ACAD_REACTORS
330
2A
102
}
330
2A
100
AcDbVisualStyle
  2
Brighten
 70
    12
177
     3
291
     1
 70
    58
 90
        2
176
     1
 90
        2
176
     1
 90
        0
176
     1
 90
        0
176
     1
 40
0.6
176
     1
 40
30.0
176
     1
 62
     7
420
 16777215
176
     1
 90
        1
176
     1
 90
        4
176
     1
 62
     7
176
     1
 62
   257
176
     1
 90
        1
176
     1
 90
        1
176
     1
 40
1.0
176
     1
 90
        8
176
     1
 62
     7
176
     1
 40
1.0
176
     1
 90
        1
176
     1
 90
        6
176
     1
 90
        2
176
     1
 62
     7
176
     1
 90
        5
176
     1
 90
        0
176
     1
 90
        0
176
     1
290
     0
176
     1
 90
        1
176
     1
 40
50.0
176
     1
 90
        0
176
     1
290
     0
176
     1
290
     1
176
     1
290
     1
176
     1
290
     0
176
     1
290
     0
176
     1
290
     0
176
     1
290
     0
176
     1
290
     0
176
     1
290
     0
176
     1
 90
       50
176
     1
 40
0.0
176
     1
 40
1.0
176
     1
 90
        0
176
     1
 62
    18
420
        0
176
     1
 90
       50
176
     1
 90
        3
176
     1
 62
     5
420
      255
176
     1
290
     0
176
     1
 90
       50
176
     1
 90
       50
176
     1
 90
       50
176
     1
290
     0
176
     1
 90
       50
176
     1
 62
   256
176
     0
 40
1.0
176
     0
 90
        2
176
     1
  1
strokes_ogs.tif
176
     1
290
     0
176
     1
 40
1.0
176
     1
 40
1.0
176
     1
  0
VISUALSTYLE
  5
3A
102
{ACAD_REACTORS
330
2A
102
}
330
2A
100
AcDbVisualStyle
  2
ColorChange
 70
    16
177
     3
291
     1
 70
    58
 90
        2
176
     1
 90
        2
176
     1
 90
        3
176
     1
 90
        0
176
     1
 40
0.6
176
     1
 40
30.0
176
     1
 62
     8
420
  8421504
176
     1
 90
        1
176
     1
 90
        4
176
     1
 62
     7
176
     1
 62
   257
176
     1
 90
        1
176
     1
 90
        1
176
     1
 40
1.0
176
     1
 90
        8
176
     1
 62
     8
420
  8421504
176
     1
 40
1.0
176
     1
 90
        1
176
     1
 90
        6
176
     1
 90
        2
176
     1
 62
     7
176
     1
 90
        5
176
     1
 90
        0
176
     1
 90
        0
176
     1
290
     0
176
     1
 90
        1
176
     1
 40
0.0
176
     1
 90
        0
176
     1
290
     0
176
     1
290
     1
176
     1
290
     1
176
     1
290
     0
176
     1
290
     0
176
     1
290
     0
176
     1
290
     0
176
     1
290
     0
176
     1
290
     0
176
     1
 90
       50
176
     1
 40
0.0
176
     1
 40
1.0
176
     1
 90
        0
176
     1
 62
    18
420
        0
176
     1
 90
       50
176
     1
 90
        3
176
     1
 62
     5
420
      255
176
     1
290
     0
176
     1
 90
       50
176
     1
 90
       50
176
     1
 90
       50
176
     1
290
     0
176
     1
 90
       50
176
     1
 62
   256
176
     0
 40
1.0
176
     0
 90
        2
176
     1
  1
strokes_ogs.tif
176
     1
290
     0
176
     1
 40
1.0
176
     1
 40
1.0
176
     1
  0
VISUALSTYLE
  5
34
102
{ACAD_REACTORS
330
2A
102
}
330
2A
100
AcDbVisualStyle
  2
Conceptual
 70
     9
177
     3
291
     0
 70
    58
 90
        3
176
     1
 90
        2
176
     1
 90
        0
176
     1
 90
        0
176
     1
 40
0.6
176
     1
 40
30.0
176
     1
 62
     7
420
 16777215
176
     1
 90
        2
176
     1
 90
        2
176
     1
 62
     7
176
     1
 62
   257
176
     1
 90
        1
176
     1
 90
        1
176
     1
 40
179.0
176
     1
 90
        8
176
     1
 62
     7
176
     1
 40
1.0
176
     1
 90
        1
176
     1
 90
        6
176
     1
 90
        2
176
     1
 62
     7
176
     1
 90
        3
176
     1
 90
        0
176
     1
 90
        0
176
     1
290
     0
176
     1
 90
        1
176
     1
 40
0.0
176
     1
 90
        0
176
     1
290
     0
176
     1
290
     1
176
     1
290
     1
176
     1
290
     0
176
     1
290
     0
176
     1
290
     0
176
     1
290
     0
176
     1
290
     0
176
     1
290
     0
176
     1
 90
       50
176
     1
 40
0.0
176
     1
 40
1.0
176
     1
 90
        0
176
     1
 62
    18
420
        0
176
     1
 90
       50
176
     1
 90
        3
176
     1
 62
     5
420
      255
176
     1
290
     0
176
     1
 90
       50
176
     1
 90
       50
176
     1
 90
       50
176
     1
290
     0
176
     1
 90
       50
176
     1
 62
   256
176
     0
 40
1.0
176
     0
 90
        2
176
     1
  1
strokes_ogs.tif
176
     1
290
     0
176
     1
 40
1.0
176
     1
 40
1.0
176
     1
  0
VISUALSTYLE
  5
35
102
{ACAD_REACTORS
330
2A
102
}
330
2A
100
AcDbVisualStyle
  2
Dim
 70
    11
177
     3
291
     1
 70
    58
 90
        2
176
     1
 90
        2
176
     1
 90
        0
176
     1
 90
        0
176
     1
 40
0.6
176
     1
 40
30.0
176
     1
 62
     7
420
 16777215
176
     1
 90
        1
176
     1
 90
        4
176
     1
 62
     7
176
     1
 62
   257
176
     1
 90
        1
176
     1
 90
        1
176
     1
 40
1.0
176
     1
 90
        8
176
     1
 62
     7
176
     1
 40
1.0
176
     1
 90
        1
176
     1
 90
        6
176
     1
 90
        2
176
     1
 62
     7
176
     1
 90
        5
176
     1
 90
        0
176
     1
 90
        0
176
     1
290
     0
176
     1
 90
        1
176
     1
 40
-50.0
176
     1
 90
        0
176
     1
290
     0
176
     1
290
     1
176
     1
290
     1
176
     1
290
     0
176
     1
290
     0
176
     1
290
     0
176
     1
290
     0
176
     1
290
     0
176
     1
290
     0
176
     1
 90
       50
176
     1
 40
0.0
176
     1
 40
1.0
176
     1
 90
        0
176
     1
 62
    18
420
        0
176
     1
 90
       50
176
     1
 90
        3
176
     1
 62
     5
420
      255
176
     1
290
     0
176
     1
 90
       50
176
     1
 90
       50
176
     1
 90
       50
176
     1
290
     0
176
     1
 90
       50
176
     1
 62
   256
176
     0
 40
1.0
176
     0
 90
        2
176
     1
  1
strokes_ogs.tif
176
     1
290
     0
176
     1
 40
1.0
176
     1
 40
1.0
176
     1
  0
VISUALSTYLE
  5
3D
102
{ACAD_REACTORS
330
2A
102
}
330
2A
100
AcDbVisualStyle
  2
EdgeColorOff
 70
    22
177
     3
291
     1
 70
    58
 90
        2
176
     0
 90
        2
176
     0
 90
        0
176
     0
 90
        0
176
     0
 40
0.6
176
     0
 40
30.0
176
     0
 62
     7
420
 16777215
176
     0
 90
        1
176
     0
 90
        4
176
     0
 62
     7
176
     0
 62
   257
176
     0
 90
        1
176
     0
 90
        1
176
     0
 40
1.0
176
     0
 90
        8
176
     2
 62
     7
176
     0
 40
1.0
176
     0
 90
        1
176
     0
 90
        6
176
     0
 90
        2
176
     0
 62
     7
176
     0
 90
        5
176
     0
 90
        0
176
     0
 90
        0
176
     0
290
     0
176
     0
 90
        1
176
     0
 40
0.0
176
     0
 90
        0
176
     0
290
     0
176
     0
290
     1
176
     0
290
     1
176
     0
290
     0
176
     0
290
     0
176
     0
290
     0
176
     0
290
     0
176
     0
290
     0
176
     0
290
     0
176
     0
 90
       50
176
     0
 40
0.0
176
     0
 40
1.0
176
     0
 90
        0
176
     0
 62
    18
420
        0
176
     0
 90
       50
176
     0
 90
        3
176
     0
 62
     5
420
      255
176
     0
290
     0
176
     0
 90
       50
176
     0
 90
       50
176
     0
 90
       50
176
     0
290
     0
176
     0
 90
       50
176
     0
 62
   256
176
     0
 40
1.0
176
     0
 90
        2
176
     0
  1
strokes_ogs.tif
176
     0
290
     0
176
     0
 40
1.0
176
     0
 40
1.0
176
     0
  0
VISUALSTYLE
  5
39
102
{ACAD_REACTORS
330
2A
102
}
330
2A
100
AcDbVisualStyle
  2
Facepattern
 70
    15
177
     3
291
     1
 70
    58
 90
        2
176
     1
 90
        2
176
     1
 90
        0
176
     1
 90
        0
176
     1
 40
0.6
176
     1
 40
30.0
176
     1
 62
     7
420
 16777215
176
     1
 90
        1
176
     1
 90
        4
176
     1
 62
     7
176
     1
 62
   257
176
     1
 90
        1
176
     1
 90
        1
176
     1
 40
1.0
176
     1
 90
        8
176
     1
 62
     7
176
     1
 40
1.0
176
     1
 90
        1
176
     1
 90
        6
176
     1
 90
        2
176
     1
 62
     7
176
     1
 90
        5
176
     1
 90
        0
176
     1
 90
        0
176
     1
290
     0
176
     1
 90
        1
176
     1
 40
0.0
176
     1
 90
        0
176
     1
290
     0
176
     1
290
     1
176
     1
290
     1
176
     1
290
     0
176
     1
290
     0
176
     1
290
     0
176
     1
290
     0
176
     1
290
     0
176
     1
290
     0
176
     1
 90
       50
176
     1
 40
0.0
176
     1
 40
1.0
176
     1
 90
        0
176
     1
 62
    18
420
        0
176
     1
 90
       50
176
     1
 90
        3
176
     1
 62
     5
420
      255
176
     1
290
     0
176
     1
 90
       50
176
     1
 90
       50
176
     1
 90
       50
176
     1
290
     0
176
     1
 90
       50
176
     1
 62
   256
176
     0
 40
1.0
176
     0
 90
        2
176
     1
  1
strokes_ogs.tif
176
     1
290
     0
176
     1
 40
1.0
176
     1
 40
1.0
176
     1
  0
VISUALSTYLE
  5
2B
102
{ACAD_REACTORS
330
2A
102
}
330
2A
100
AcDbVisualStyle
  2
Flat
 70
     0
177
     3
291
     1
 70
    58
 90
        2
176
     1
 90
        1
176
     1
 90
        1
176
     1
 90
        2
176
     1
 40
0.6
176
     1
 40
30.0
176
     1
 62
     7
420
 16777215
176
     1
 90
        0
176
     1
 90
        0
176
     1
 62
     7
176
     1
 62
   257
176
     1
 90
        1
176
     1
 90
        1
176
     1
 40
1.0
176
     1
 90
        8
176
     1
 62
     7
176
     1
 40
1.0
176
     1
 90
        1
176
     1
 90
        6
176
     1
 90
        2
176
     1
 62
     7
176
     1
 90
        5
176
     1
 90
        0
176
     1
 90
        0
176
     1
290
     0
176
     1
 90
       13
176
     1
 40
0.0
176
     1
 90
        0
176
     1
290
     0
176
     1
290
     1
176
     1
290
     1
176
     1
290
     0
176
     1
290
     0
176
     1
290
     0
176
     1
290
     0
176
     1
290
     0
176
     1
290
     0
176
     1
 90
       50
176
     1
 40
0.0
176
     1
 40
1.0
176
     1
 90
        0
176
     1
 62
    18
420
        0
176
     1
 90
       50
176
     1
 90
        3
176
     1
 62
     5
420
      255
176
     1
290
     0
176
     1
 90
       50
176
     1
 90
       50
176
     1
 90
       50
176
     1
290
     0
176
     1
 90
       50
176
     1
 62
   256
176
     0
 40
1.0
176
     0
 90
        2
176
     1
  1
strokes_ogs.tif
176
     1
290
     0
176
     1
 40
1.0
176
     1
 40
1.0
176
     1
  0
VISUALSTYLE
  5
2C
102
{ACAD_REACTORS
330
2A
102
}
330
2A
100
AcDbVisualStyle
  2
FlatWithEdges
 70
     1
177
     3
291
     1
 70
    58
 90
        2
176
     1
 90
        1
176
     1
 90
        1
176
     1
 90
        2
176
     1
 40
0.6
176
     1
 40
30.0
176
     1
 62
     7
420
 16777215
176
     1
 90
        1
176
     1
 90
        0
176
     1
 62
     7
176
     1
 62
   257
176
     1
 90
        1
176
     1
 90
        1
176
     1
 40
1.0
176
     1
 90
        0
176
     1
 62
   257
176
     1
 40
1.0
176
     1
 90
        1
176
     1
 90
        6
176
     1
 90
        2
176
     1
 62
     7
176
     1
 90
        5
176
     1
 90
        0
176
     1
 90
        0
176
     1
290
     0
176
     1
 90
       13
176
     1
 40
0.0
176
     1
 90
        0
176
     1
290
     0
176
     1
290
     1
176
     1
290
     1
176
     1
290
     0
176
     1
290
     0
176
     1
290
     0
176
     1
290
     0
176
     1
290
     0
176
     1
290
     0
176
     1
 90
       50
176
     1
 40
0.0
176
     1
 40
1.0
176
     1
 90
        0
176
     1
 62
    18
420
        0
176
     1
 90
       50
176
     1
 90
        3
176
     1
 62
     5
420
      255
176
     1
290
     0
176
     1
 90
       50
176
     1
 90
       50
176
     1
 90
       50
176
     1
290
     0
176
     1
 90
       50
176
     1
 62
   256
176
     0
 40
1.0
176
     0
 90
        2
176
     1
  1
strokes_ogs.tif
176
     1
290
     0
176
     1
 40
1.0
176
     1
 40
1.0
176
     1
  0
VISUALSTYLE
  5
2D
102
{ACAD_REACTORS
330
2A
102
}
330
2A
100
AcDbVisualStyle
  2
Gouraud
 70
     2
177
     3
291
     1
 70
    58
 90
        2
176
     1
 90
        2
176
     1
 90
        1
176
     1
 90
        2
176
     1
 40
0.6
176
     1
 40
30.0
176
     1
 62
     7
420
 16777215
176
     1
 90
        0
176
     1
 90
        0
176
     1
 62
     7
176
     1
 62
   257
176
     1
 90
        1
176
     1
 90
        1
176
     1
 40
1.0
176
     1
 90
        0
176
     1
 62
     7
176
     1
 40
1.0
176
     1
 90
        1
176
     1
 90
        6
176
     1
 90
        2
176
     1
 62
     7
176
     1
 90
        5
176
     1
 90
        0
176
     1
 90
        0
176
     1
290
     0
176
     1
 90
       13
176
     1
 40
0.0
176
     1
 90
        0
176
     1
290
     0
176
     1
290
     1
176
     1
290
     1
176
     1
290
     0
176
     1
290
     0
176
     1
290
     0
176
     1
290
     0
176
     1
290
     0
176
     1
290
     0
176
     1
 90
       50
176
     1
 40
0.0
176
     1
 40
1.0
176
     1
 90
        0
176
     1
 62
    18
420
        0
176
     1
 90
       50
176
     1
 90
        3
176
     1
 62
     5
420
      255
176
     1
290
     0
176
     1
 90
       50
176
     1
 90
       50
176
     1
 90
       50
176
     1
290
     0
176
     1
 90
       50
176
     1
 62
   256
176
     0
 40
1.0
176
     0
 90
        2
176
     1
  1
strokes_ogs.tif
176
     1
290
     0
176
     1
 40
1.0
176
     1
 40
1.0
176
     1
  0
VISUALSTYLE
  5
2E
102
{ACAD_REACTORS
330
2A
102
}
330
2A
100
AcDbVisualStyle
  2
GouraudWithEdges
 70
     3
177
     3
291
     1
 70
    58
 90
        2
176
     1
 90
        2
176
     1
 90
        1
176
     1
 90
        2
176
     1
 40
0.6
176
     1
 40
30.0
176
     1
 62
     7
420
 16777215
176
     1
 90
        1
176
     1
 90
        0
176
     1
 62
     7
176
     1
 62
   257
176
     1
 90
        1
176
     1
 90
        1
176
     1
 40
1.0
176
     1
 90
        0
176
     1
 62
   257
176
     1
 40
1.0
176
     1
 90
        1
176
     1
 90
        6
176
     1
 90
        2
176
     1
 62
     7
176
     1
 90
        5
176
     1
 90
        0
176
     1
 90
        0
176
     1
290
     0
176
     1
 90
       13
176
     1
 40
0.0
176
     1
 90
        0
176
     1
290
     0
176
     1
290
     1
176
     1
290
     1
176
     1
290
     0
176
     1
290
     0
176
     1
290
     0
176
     1
290
     0
176
     1
290
     0
176
     1
290
     0
176
     1
 90
       50
176
     1
 40
0.0
176
     1
 40
1.0
176
     1
 90
        0
176
     1
 62
    18
420
        0
176
     1
 90
       50
176
     1
 90
        3
176
     1
 62
     5
420
      255
176
     1
290
     0
176
     1
 90
       50
176
     1
 90
       50
176
     1
 90
       50
176
     1
290
     0
176
     1
 90
       50
176
     1
 62
   256
176
     0
 40
1.0
176
     0
 90
        2
176
     1
  1
strokes_ogs.tif
176
     1
290
     0
176
     1
 40
1.0
176
     1
 40
1.0
176
     1
  0
VISUALSTYLE
  5
31
102
{ACAD_REACTORS
330
2A
102
}
330
2A
100
AcDbVisualStyle
  2
Hidden
 70
     6
177
     3
291
     0
 70
    58
 90
        1
176
     1
 90
        2
176
     1
 90
        2
176
     1
 90
        0
176
     1
 40
0.6
176
     1
 40
30.0
176
     1
 62
     7
420
 16777215
176
     1
 90
        2
176
     1
 90
        2
176
     1
 62
     7
176
     1
 62
   257
176
     1
 90
        2
176
     1
 90
        1
176
     1
 40
40.0
176
     1
 90
        0
176
     1
 62
   257
176
     1
 40
1.0
176
     1
 90
        1
176
     1
 90
        6
176
     1
 90
        2
176
     1
 62
     7
176
     1
 90
        3
176
     1
 90
        0
176
     1
 90
        0
176
     1
290
     0
176
     1
 90
        1
176
     1
 40
0.0
176
     1
 90
        0
176
     1
290
     0
176
     1
290
     1
176
     1
290
     1
176
     1
290
     0
176
     1
290
     0
176
     1
290
     0
176
     1
290
     0
176
     1
290
     0
176
     1
290
     0
176
     1
 90
       50
176
     1
 40
0.0
176
     1
 40
1.0
176
     1
 90
        0
176
     1
 62
    18
420
        0
176
     1
 90
       50
176
     1
 90
        3
176
     1
 62
     5
420
      255
176
     1
290
     0
176
     1
 90
       50
176
     1
 90
       50
176
     1
 90
       50
176
     1
290
     0
176
     1
 90
       50
176
     1
 62
   256
176
     0
 40
1.0
176
     0
 90
        2
176
     1
  1
strokes_ogs.tif
176
     1
290
     0
176
     1
 40
1.0
176
     1
 40
1.0
176
     1
  0
VISUALSTYLE
  5
3B
102
{ACAD_REACTORS
330
2A
102
}
330
2A
100
AcDbVisualStyle
  2
JitterOff
 70
    20
177
     3
291
     1
 70
    58
 90
        2
176
     0
 90
        2
176
     0
 90
        0
176
     0
 90
        0
176
     0
 40
0.6
176
     0
 40
30.0
176
     0
 62
     7
420
 16777215
176
     0
 90
        1
176
     0
 90
        4
176
     0
 62
     7
176
     0
 62
   257
176
     0
 90
        1
176
     0
 90
        1
176
     0
 40
1.0
176
     0
 90
       10
176
     2
 62
     7
176
     0
 40
1.0
176
     0
 90
        1
176
     0
 90
        6
176
     0
 90
        2
176
     0
 62
     7
176
     0
 90
        5
176
     0
 90
        0
176
     0
 90
        0
176
     0
290
     0
176
     0
 90
        1
176
     0
 40
0.0
176
     0
 90
        0
176
     0
290
     0
176
     0
290
     1
176
     0
290
     1
176
     0
290
     0
176
     0
290
     0
176
     0
290
     0
176
     0
290
     0
176
     0
290
     0
176
     0
290
     0
176
     0
 90
       50
176
     0
 40
0.0
176
     0
 40
1.0
176
     0
 90
        0
176
     0
 62
    18
420
        0
176
     0
 90
       50
176
     0
 90
        3
176
     0
 62
     5
420
      255
176
     0
290
     0
176
     0
 90
       50
176
     0
 90
       50
176
     0
 90
       50
176
     0
290
     0
176
     0
 90
       50
176
     0
 62
   256
176
     0
 40
1.0
176
     0
 90
        2
176
     0
  1
strokes_ogs.tif
176
     0
290
     0
176
     0
 40
1.0
176
     0
 40
1.0
176
     0
  0
VISUALSTYLE
  5
38
102
{ACAD_REACTORS
330
2A
102
}
330
2A
100
AcDbVisualStyle
  2
Linepattern
 70
    14
177
     3
291
     1
 70
    58
 90
        2
176
     1
 90
        2
176
     1
 90
        0
176
     1
 90
        0
176
     1
 40
0.6
176
     1
 40
30.0
176
     1
 62
     7
420
 16777215
176
     1
 90
        1
176
     1
 90
        4
176
     1
 62
     7
176
     1
 62
   257
176
     1
 90
        7
176
     1
 90
        7
176
     1
 40
1.0
176
     1
 90
        8
176
     1
 62
     7
176
     1
 40
1.0
176
     1
 90
        1
176
     1
 90
        6
176
     1
 90
        2
176
     1
 62
     7
176
     1
 90
        5
176
     1
 90
        0
176
     1
 90
        0
176
     1
290
     0
176
     1
 90
        1
176
     1
 40
0.0
176
     1
 90
        0
176
     1
290
     0
176
     1
290
     1
176
     1
290
     1
176
     1
290
     0
176
     1
290
     0
176
     1
290
     0
176
     1
290
     0
176
     1
290
     0
176
     1
290
     0
176
     1
 90
       50
176
     1
 40
0.0
176
     1
 40
1.0
176
     1
 90
        0
176
     1
 62
    18
420
        0
176
     1
 90
       50
176
     1
 90
        3
176
     1
 62
     5
420
      255
176
     1
290
     0
176
     1
 90
       50
176
     1
 90
       50
176
     1
 90
       50
176
     1
290
     0
176
     1
 90
       50
176
     1
 62
   256
176
     0
 40
1.0
176
     0
 90
        2
176
     1
  1
strokes_ogs.tif
176
     1
290
     0
176
     1
 40
1.0
176
     1
 40
1.0
176
     1
  0
VISUALSTYLE
  5
3C
102
{ACAD_REACTORS
330
2A
102
}
330
2A
100
AcDbVisualStyle
  2
OverhangOff
 70
    21
177
     3
291
     1
 70
    58
 90
        2
176
     0
 90
        2
176
     0
 90
        0
176
     0
 90
        0
176
     0
 40
0.6
176
     0
 40
30.0
176
     0
 62
     7
420
 16777215
176
     0
 90
        1
176
     0
 90
        4
176
     0
 62
     7
176
     0
 62
   257
176
     0
 90
        1
176
     0
 90
        1
176
     0
 40
1.0
176
     0
 90
        9
176
     2
 62
     7
176
     0
 40
1.0
176
     0
 90
        1
176
     0
 90
        6
176
     0
 90
        2
176
     0
 62
     7
176
     0
 90
        5
176
     0
 90
        0
176
     0
 90
        0
176
     0
290
     0
176
     0
 90
        1
176
     0
 40
0.0
176
     0
 90
        0
176
     0
290
     0
176
     0
290
     1
176
     0
290
     1
176
     0
290
     0
176
     0
290
     0
176
     0
290
     0
176
     0
290
     0
176
     0
290
     0
176
     0
290
     0
176
     0
 90
       50
176
     0
 40
0.0
176
     0
 40
1.0
176
     0
 90
        0
176
     0
 62
    18
420
        0
176
     0
 90
       50
176
     0
 90
        3
176
     0
 62
     5
420
      255
176
     0
290
     0
176
     0
 90
       50
176
     0
 90
       50
176
     0
 90
       50
176
     0
290
     0
176
     0
 90
       50
176
     0
 62
   256
176
     0
 40
1.0
176
     0
 90
        2
176
     0
  1
strokes_ogs.tif
176
     0
290
     0
176
     0
 40
1.0
176
     0
 40
1.0
176
     0
  0
VISUALSTYLE
  5
33
102
{ACAD_REACTORS
330
2A
102
}
330
2A
100
AcDbVisualStyle
  2
Realistic
 70
     8
177
     3
291
     0
 70
    58
 90
        2
176
     1
 90
        3
176
     1
 90
        0
176
     1
 90
        2
176
     1
 40
0.6
176
     1
 40
30.0
176
     1
 62
     7
420
 16777215
176
     1
 90
        0
176
     1
 90
        0
176
     1
 62
     7
176
     1
 62
   257
176
     1
 90
        1
176
     1
 90
        1
176
     1
 40
1.0
176
     1
 90
        8
176
     1
 62
   257
176
     1
 40
1.0
176
     1
 90
        1
176
     1
 90
        6
176
     1
 90
        2
176
     1
 62
     7
176
     1
 90
        3
176
     1
 90
        0
176
     1
 90
        0
176
     1
290
     0
176
     1
 90
       13
176
     1
 40
0.0
176
     1
 90
        0
176
     1
290
     0
176
     1
290
     1
176
     1
290
     1
176
     1
290
     0
176
     1
290
     0
176
     1
290
     0
176
     1
290
     0
176
     1
290
     0
176
     1
290
     0
176
     1
 90
       50
176
     1
 40
0.0
176
     1
 40
1.0
176
     1
 90
        0
176
     1
 62
    18
420
        0
176
     1
 90
       50
176
     1
 90
        3
176
     1
 62
     5
420
      255
176
     1
290
     0
176
     1
 90
       50
176
     1
 90
       50
176
     1
 90
       50
176
     1
290
     0
176
     1
 90
       50
176
     1
 62
   256
176
     0
 40
1.0
176
     0
 90
        2
176
     1
  1
strokes_ogs.tif
176
     1
290
     0
176
     1
 40
1.0
176
     1
 40
1.0
176
     1
  0
VISUALSTYLE
  5
42
102
{ACAD_REACTORS
330
2A
102
}
330
2A
100
AcDbVisualStyle
  2
Shaded
 70
    27
177
     3
291
     0
 70
    58
 90
        2
176
     1
 90
        2
176
     1
 90
        1
176
     1
 90
        2
176
     1
 40
0.6
176
     1
 40
30.0
176
     1
 62
     7
420
 16777215
176
     1
 90
        0
176
     1
 90
        4
176
     1
 62
     7
176
     1
 62
   257
176
     1
 90
        1
176
     1
 90
        1
176
     1
 40
1.0
176
     1
 90
        8
176
     1
 62
   257
176
     1
 40
1.0
176
     1
 90
        1
176
     1
 90
        6
176
     1
 90
        2
176
     1
 62
     8
420
  7895160
176
     1
 90
        3
176
     1
 90
        0
176
     1
 90
        0
176
     1
290
     0
176
     1
 90
        5
176
     1
 40
0.0
176
     1
 90
        0
176
     1
290
     0
176
     1
290
     1
176
     1
290
     1
176
     1
290
     0
176
     1
290
     0
176
     1
290
     0
176
     1
290
     0
176
     1
290
     0
176
     1
290
     0
176
     1
 90
       50
176
     1
 40
0.0
176
     1
 40
1.0
176
     1
 90
        0
176
     1
 62
    18
420
        0
176
     1
 90
       50
176
     1
 90
        3
176
     1
 62
     5
420
      255
176
     1
290
     0
176
     1
 90
       50
176
     1
 90
       50
176
     1
 90
       50
176
     1
290
     0
176
     1
 90
       50
176
     1
 62
   256
176
     0
 40
1.0
176
     0
 90
        2
176
     1
  1
strokes_ogs.tif
176
     1
290
     0
176
     1
 40
1.0
176
     1
 40
1.0
176
     1
  0
VISUALSTYLE
  5
41
102
{ACAD_REACTORS
330
2A
102
}
330
2A
100
AcDbVisualStyle
  2
Shaded with edges
 70
    26
177
     3
291
     0
 70
    58
 90
        2
176
     1
 90
        2
176
     1
 90
        1
176
     1
 90
        2
176
     1
 40
0.6
176
     1
 40
30.0
176
     1
 62
     7
420
 16777215
176
     1
 90
        1
176
     1
 90
       10
176
     1
 62
     7
176
     1
 62
   257
176
     1
 90
        2
176
     1
 90
        1
176
     1
 40
1.0
176
     1
 90
        8
176
     1
 62
   257
176
     1
 40
1.0
176
     1
 90
        1
176
     1
 90
        6
176
     1
 90
        2
176
     1
 62
     7
176
     1
 90
        3
176
     1
 90
        0
176
     1
 90
        0
176
     1
290
     0
176
     1
 90
        5
176
     1
 40
0.0
176
     1
 90
        0
176
     1
290
     0
176
     1
290
     1
176
     1
290
     1
176
     1
290
     0
176
     1
290
     0
176
     1
290
     0
176
     1
290
     0
176
     1
290
     0
176
     1
290
     0
176
     1
 90
       50
176
     1
 40
0.0
176
     1
 40
1.0
176
     1
 90
        0
176
     1
 62
    18
420
        0
176
     1
 90
       50
176
     1
 90
        3
176
     1
 62
     5
420
      255
176
     1
290
     0
176
     1
 90
       50
176
     1
 90
       50
176
     1
 90
       50
176
     1
290
     0
176
     1
 90
       50
176
     1
 62
   256
176
     0
 40
1.0
176
     0
 90
        2
176
     1
  1
strokes_ogs.tif
176
     1
290
     0
176
     1
 40
1.0
176
     1
 40
1.0
176
     1
  0
VISUALSTYLE
  5
3E
102
{ACAD_REACTORS
330
2A
102
}
330
2A
100
AcDbVisualStyle
  2
Shades of Gray
 70
    23
177
     3
291
     0
 70
    58
 90
        2
176
     1
 90
        2
176
     1
 90
        3
176
     1
 90
        0
176
     1
 40
0.6
176
     1
 40
30.0
176
     1
 62
     7
420
 16777215
176
     1
 90
        2
176
     1
 90
        2
176
     1
 62
     7
176
     1
 62
     7
176
     1
 90
        1
176
     1
 90
        1
176
     1
 40
40.0
176
     1
 90
        8
176
     1
 62
     7
176
     1
 40
1.0
176
     1
 90
        1
176
     1
 90
        6
176
     1
 90
        2
176
     1
 62
     7
176
     1
 90
        3
176
     1
 90
        0
176
     1
 90
        0
176
     1
290
     0
176
     1
 90
        1
176
     1
 40
0.0
176
     1
 90
        0
176
     1
290
     0
176
     1
290
     1
176
     1
290
     1
176
     1
290
     0
176
     1
290
     0
176
     1
290
     0
176
     1
290
     0
176
     1
290
     0
176
     1
290
     0
176
     1
 90
       50
176
     1
 40
0.0
176
     1
 40
1.0
176
     1
 90
        0
176
     1
 62
    18
420
        0
176
     1
 90
       50
176
     1
 90
        3
176
     1
 62
     5
420
      255
176
     1
290
     0
176
     1
 90
       50
176
     1
 90
       50
176
     1
 90
       50
176
     1
290
     0
176
     1
 90
       50
176
     1
 62
   256
176
     0
 40
1.0
176
     0
 90
        2
176
     1
  1
strokes_ogs.tif
176
     1
290
     0
176
     1
 40
1.0
176
     1
 40
1.0
176
     1
  0
VISUALSTYLE
  5
3F
102
{ACAD_REACTORS
330
2A
102
}
330
2A
100
AcDbVisualStyle
  2
Sketchy
 70
    24
177
     3
291
     0
 70
    58
 90
        1
176
     1
 90
        2
176
     1
 90
        2
176
     1
 90
        0
176
     1
 40
0.6
176
     1
 40
30.0
176
     1
 62
     7
420
 16777215
176
     1
 90
        2
176
     1
 90
        2
176
     1
 62
     7
176
     1
 62
     7
176
     1
 90
        1
176
     1
 90
        1
176
     1
 40
40.0
176
     1
 90
       11
176
     1
 62
     7
176
     1
 40
1.0
176
     1
 90
        1
176
     1
 90
        6
176
     1
 90
        2
176
     1
 62
     7
176
     1
 90
        6
176
     1
 90
        0
176
     1
 90
        0
176
     1
290
     0
176
     1
 90
        1
176
     1
 40
0.0
176
     1
 90
        0
176
     1
290
     0
176
     1
290
     1
176
     1
290
     1
176
     1
290
     0
176
     1
290
     0
176
     1
290
     0
176
     1
290
     0
176
     1
290
     0
176
     1
290
     0
176
     1
 90
       50
176
     1
 40
0.0
176
     1
 40
1.0
176
     1
 90
        0
176
     1
 62
    18
420
        0
176
     1
 90
       50
176
     1
 90
        3
176
     1
 62
     5
420
      255
176
     1
290
     0
176
     1
 90
       50
176
     1
 90
       50
176
     1
 90
       50
176
     1
290
     0
176
     1
 90
       50
176
     1
 62
   256
176
     0
 40
1.0
176
     0
 90
        2
176
     1
  1
strokes_ogs.tif
176
     1
290
     0
176
     1
 40
1.0
176
     1
 40
1.0
176
     1
  0
VISUALSTYLE
  5
37
102
{ACAD_REACTORS
330
2A
102
}
330
2A
100
AcDbVisualStyle
  2
Thicken
 70
    13
177
     3
291
     1
 70
    58
 90
        2
176
     1
 90
        2
176
     1
 90
        0
176
     1
 90
        0
176
     1
 40
0.6
176
     1
 40
30.0
176
     1
 62
     7
420
 16777215
176
     1
 90
        1
176
     1
 90
        4
176
     1
 62
     7
176
     1
 62
   257
176
     1
 90
        1
176
     1
 90
        1
176
     1
 40
1.0
176
     1
 90
       12
176
     1
 62
     7
176
     1
 40
1.0
176
     1
 90
        1
176
     1
 90
        6
176
     1
 90
        2
176
     1
 62
     7
176
     1
 90
        5
176
     1
 90
        0
176
     1
 90
        0
176
     1
290
     0
176
     1
 90
        1
176
     1
 40
0.0
176
     1
 90
        0
176
     1
290
     0
176
     1
290
     1
176
     1
290
     1
176
     1
290
     0
176
     1
290
     0
176
     1
290
     0
176
     1
290
     0
176
     1
290
     0
176
     1
290
     0
176
     1
 90
       50
176
     1
 40
0.0
176
     1
 40
1.0
176
     1
 90
        0
176
     1
 62
    18
420
        0
176
     1
 90
       50
176
     1
 90
        3
176
     1
 62
     5
420
      255
176
     1
290
     0
176
     1
 90
       50
176
     1
 90
       50
176
     1
 90
       50
176
     1
290
     0
176
     1
 90
       50
176
     1
 62
   256
176
     0
 40
1.0
176
     0
 90
        2
176
     1
  1
strokes_ogs.tif
176
     1
290
     0
176
     1
 40
1.0
176
     1
 40
1.0
176
     1
  0
VISUALSTYLE
  5
30
102
{ACAD_REACTORS
330
2A
102
}
330
2A
100
AcDbVisualStyle
  2
Wireframe
 70
     5
177
     3
291
     0
 70
    58
 90
        0
176
     1
 90
        2
176
     1
 90
        0
176
     1
 90
        0
176
     1
 40
0.6
176
     1
 40
30.0
176
     1
 62
     7
420
 16777215
176
     1
 90
        1
176
     1
 90
        4
176
     1
 62
     7
176
     1
 62
   257
176
     1
 90
        1
176
     1
 90
        1
176
     1
 40
1.0
176
     1
 90
        0
176
     1
 62
   257
176
     1
 40
1.0
176
     1
 90
        1
176
     1
 90
        6
176
     1
 90
        2
176
     1
 62
     7
176
     1
 90
        3
176
     1
 90
        0
176
     1
 90
        0
176
     1
290
     0
176
     1
 90
        1
176
     1
 40
0.0
176
     1
 90
        0
176
     1
290
     0
176
     1
290
     1
176
     1
290
     1
176
     1
290
     0
176
     1
290
     0
176
     1
290
     0
176
     1
290
     0
176
     1
290
     0
176
     1
290
     0
176
     1
 90
       50
176
     1
 40
0.0
176
     1
 40
1.0
176
     1
 90
        0
176
     1
 62
    18
420
        0
176
     1
 90
       50
176
     1
 90
        3
176
     1
 62
     5
420
      255
176
     1
290
     0
176
     1
 90
       50
176
     1
 90
       50
176
     1
 90
       50
176
     1
290
     0
176
     1
 90
       50
176
     1
 62
   256
176
     0
 40
1.0
176
     0
 90
        2
176
     1
  1
strokes_ogs.tif
176
     1
290
     0
176
     1
 40
1.0
176
     1
 40
1.0
176
     1
  0
VISUALSTYLE
  5
40
102
{ACAD_REACTORS
330
2A
102
}
330
2A
100
AcDbVisualStyle
  2
X-Ray
 70
    25
177
     3
291
     0
 70
    58
 90
        2
176
     1
 90
        2
176
     1
 90
        1
176
     1
 90
        1
176
     1
 40
0.5
176
     1
 40
30.0
176
     1
 62
     7
420
 16777215
176
     1
 90
        1
176
     1
 90
        0
176
     1
 62
     7
176
     1
 62
   257
176
     1
 90
        1
176
     1
 90
        1
176
     1
 40
1.0
176
     1
 90
        8
176
     1
 62
     7
176
     1
 40
1.0
176
     1
 90
        1
176
     1
 90
        6
176
     1
 90
        2
176
     1
 62
     7
176
     1
 90
        3
176
     1
 90
        0
176
     1
 90
        0
176
     1
290
     0
176
     1
 90
       13
176
     1
 40
0.0
176
     1
 90
        0
176
     1
290
     0
176
     1
290
     1
176
     1
290
     1
176
     1
290
     0
176
     1
290
     0
176
     1
290
     0
176
     1
290
     0
176
     1
290
     0
176
     1
290
     0
176
     1
 90
       50
176
     1
 40
0.0
176
     1
 40
1.0
176
     1
 90
        0
176
     1
 62
    18
420
        0
176
     1
 90
       50
176
     1
 90
        3
176
     1
 62
     5
420
      255
176
     1
290
     0
176
     1
 90
       50
176
     1
 90
       50
176
     1
 90
       50
176
     1
290
     0
176
     1
 90
       50
176
     1
 62
   256
176
     0
 40
1.0
176
     0
 90
        2
176
     1
  1
strokes_ogs.tif
176
     1
290
     0
176
     1
 40
1.0
176
     1
 40
1.0
176
     1
  0
DICTIONARYVAR
  5
5CB0D
102
{ACAD_REACTORS
330
5CB0C
102
}
330
5CB0C
100
DictionaryVariables
280
     0
  1
1:1
  0
DICTIONARYVAR
  5
5CD77
102
{ACAD_REACTORS
330
5CB0C
102
}
330
5CB0C
100
DictionaryVariables
280
     0
  1
STANDARD
  0
DICTIONARYVAR
  5
5CD76
102
{ACAD_REACTORS
330
5CB0C
102
}
330
5CB0C
100
DictionaryVariables
280
     0
  1
STANDARD
  0
DICTIONARYVAR
  5
5CD78
102
{ACAD_REACTORS
330
5CB0C
102
}
330
5CB0C
100
DictionaryVariables
280
     0
  1
Imperial24
  0
DICTIONARYVAR
  5
5CD79
102
{ACAD_REACTORS
330
5CB0C
102
}
330
5CB0C
100
DictionaryVariables
280
     0
  1
Imperial24
  0
DICTIONARYVAR
  5
5CD7B
102
{ACAD_REACTORS
330
5CB0C
102
}
330
5CB0C
100
DictionaryVariables
280
     0
  1
1
  0
DICTIONARYVAR
  5
5CD7C
102
{ACAD_REACTORS
330
5CB0C
102
}
330
5CB0C
100
DictionaryVariables
280
     0
  1
15
  0
DICTIONARYVAR
  5
5CD7A
102
{ACAD_REACTORS
330
5CB0C
102
}
330
5CB0C
100
DictionaryVariables
280
     0
  1
0
  0
DICTIONARYVAR
  5
5CB0E
102
{ACAD_REACTORS
330
5CB0C
102
}
330
5CB0C
100
DictionaryVariables
280
     0
  1
1
  0
DICTIONARY
  5
5CD73
330
5CB4E
100
AcDbDictionary
280
     1
281
     1
  3
ACAD_XREC_ROUNDTRIP
360
5D113
  0
DICTIONARY
  5
5CD71
330
5CB4D
100
AcDbDictionary
280
     1
281
     1
  3
ACAD_XREC_ROUNDTRIP
360
5D112
  0
DICTIONARY
  5
5D110
330
5CB4B
100
AcDbDictionary
280
     1
281
     1
  3
ACAD_ROUNDTRIP_2008_TABLESTYLE_CELLSTYLEMAP
360
5D111
  0
XRECORD
  5
5D113
102
{ACAD_REACTORS
330
5CD73
102
}
330
5CD73
100
AcDbXrecord
280
     1
102
DISPLAYNAME
  1
Imperial24
102
FLAGS
 90
        0
  0
XRECORD
  5
5D112
102
{ACAD_REACTORS
330
5CD71
102
}
330
5CD71
100
AcDbXrecord
280
     1
102
DISPLAYNAME
  1
Imperial24
102
FLAGS
 90
        0
  0
CELLSTYLEMAP
  5
5D111
102
{ACAD_REACTORS
330
5D110
102
}
330
5D110
100
AcDbCellStyleMap
 90
        3
300
CELLSTYLE
  1
TABLEFORMAT_BEGIN
 90
        5
170
     1
 91
        0
 92
    32768
 62
   257
 93
        1
300
CONTENTFORMAT
  1
CONTENTFORMAT_BEGIN
 90
        0
 91
        0
 92
      512
 93
        0
300

 40
0.0
140
1.0
 94
        5
 62
     0
340
11
144
0.25
309
CONTENTFORMAT_END
171
     0
 94
        0
309
TABLEFORMAT_END
  1
CELLSTYLE_BEGIN
 90
        1
 91
        1
300
_TITLE
309
CELLSTYLE_END
300
CELLSTYLE
  1
TABLEFORMAT_BEGIN
 90
        5
170
     1
 91
        0
 92
        0
 62
   257
 93
        1
300
CONTENTFORMAT
  1
CONTENTFORMAT_BEGIN
 90
        0
 91
        0
 92
      512
 93
        0
300

 40
0.0
140
1.0
 94
        5
 62
     0
340
11
144
0.18
309
CONTENTFORMAT_END
171
     0
 94
        0
309
TABLEFORMAT_END
  1
CELLSTYLE_BEGIN
 90
        2
 91
        1
300
_HEADER
309
CELLSTYLE_END
300
CELLSTYLE
  1
TABLEFORMAT_BEGIN
 90
        5
170
     1
 91
        0
 92
        0
 62
   257
 93
        1
300
CONTENTFORMAT
  1
CONTENTFORMAT_BEGIN
 90
        0
 91
        0
 92
      512
 93
        0
300

 40
0.0
140
1.0
 94
        2
 62
     0
340
11
144
0.18
309
CONTENTFORMAT_END
171
     0
 94
        0
309
TABLEFORMAT_END
  1
CELLSTYLE_BEGIN
 90
        3
 91
        2
300
_DATA
309
CELLSTYLE_END
  0
ENDSEC
  0
SECTION
  2
ACDSDATA
 70
     2
 71
     8
  0
ACDSSCHEMA
 90
        0
  1
AcDb_Thumbnail_Schema
  2
AcDbDs::ID
280
    10
 91
        8
  2
Thumbnail_Data
280
    15
 91
        0
101
ACDSRECORD
 95
        0
 90
        1
  2
AcDbDs::TreatedAsObjectData
280
     1
291
     1
101
ACDSRECORD
 95
        0
 90
        2
  2
AcDbDs::Legacy
280
     1
291
     1
101
ACDSRECORD
  1
AcDbDs::ID
 90
        3
  2
AcDs:Indexable
280
     1
291
     1
101
ACDSRECORD
  1
AcDbDs::ID
 90
        4
  2
AcDbDs::HandleAttribute
280
     7
282
     1
  0
ACDSSCHEMA
 90
        1
  1
AcDbDs::TreatedAsObjectDataSchema
  2
AcDbDs::TreatedAsObjectData
280
     1
 91
        0
  0
ACDSSCHEMA
 90
        2
  1
AcDbDs::LegacySchema
  2
AcDbDs::Legacy
280
     1
 91
        0
  0
ACDSSCHEMA
 90
        3
  1
AcDbDs::IndexedPropertySchema
  2
AcDs:Indexable
280
     1
 91
        0
  0
ACDSSCHEMA
 90
        4
  1
AcDbDs::HandleAttributeSchema
  2
AcDbDs::HandleAttribute
280
     7
 91
        1
284
     1
  0
ACDSRECORD
 90
        0
  2
AcDbDs::ID
280
    10
320
22
  2
Thumbnail_Data
280
    15
 94
     1419
310
89504E470D0A1A0A0000000D4948445200000100000000670803000000D82A6C0200000300504C5445000000000000C8C8C80000000000000000000000000000000000000000000000000000330000660000990000CC0000FF0033000033330033660033990033CC0033FF0066000066330066660066990066CC0066FF0099
310
000099330099660099990099CC0099FF00CC0000CC3300CC6600CC9900CCCC00CCFF00FF0000FF3300FF6600FF9900FFCC00FFFF3300003300333300663300993300CC3300FF3333003333333333663333993333CC3333FF3366003366333366663366993366CC3366FF3399003399333399663399993399CC3399FF33CC00
310
33CC3333CC6633CC9933CCCC33CCFF33FF0033FF3333FF6633FF9933FFCC33FFFF6600006600336600666600996600CC6600FF6633006633336633666633996633CC6633FF6666006666336666666666996666CC6666FF6699006699336699666699996699CC6699FF66CC0066CC3366CC6666CC9966CCCC66CCFF66FF0066
310
FF3366FF6666FF9966FFCC66FFFF9900009900339900669900999900CC9900FF9933009933339933669933999933CC9933FF9966009966339966669966999966CC9966FF9999009999339999669999999999CC9999FF99CC0099CC3399CC6699CC9999CCCC99CCFF99FF0099FF3399FF6699FF9999FFCC99FFFFCC0000CC00
310
33CC0066CC0099CC00CCCC00FFCC3300CC3333CC3366CC3399CC33CCCC33FFCC6600CC6633CC6666CC6699CC66CCCC66FFCC9900CC9933CC9966CC9999CC99CCCC99FFCCCC00CCCC33CCCC66CCCC99CCCCCCCCCCFFCCFF00CCFF33CCFF66CCFF99CCFFCCCCFFFFFF0000FF0033FF0066FF0099FF00CCFF00FFFF3300FF3333
310
FF3366FF3399FF33CCFF33FFFF6600FF6633FF6666FF6699FF66CCFF66FFFF9900FF9933FF9966FF9999FF99CCFF99FFFFCC00FFCC33FFCC66FFCC99FFCCCCFFCCFFFFFF00FFFF33FFFF66FFFF99FFFFCCFFFFFF0000000D0D0D1A1A1A2828283535354343435050505D5D5D6B6B6B787878868686939393A1A1A1AEAEAEBB
310
BBBBC9C9C9D6D6D6E4E4E4F1F1F1FFFFFF00000000000000000000000000000000000000000000000000000000000008F1915C000001964944415478DAED9BCB6EC3300C04F5FFFFBBF7226DA488B2E34780A2E8EECCC9099203D73445AEA5D60000000000000000000000E0D7D044A8002F2532EFFF8E1669B77FE47F9C02
310
CFF89F1FA6EB280146CC813950E20F14A026C0F7659E006AC1023CC2CD1660697E94B80ED64628B6150AEE85A759A0650E435D81D461F03510879B020D0052ABDF42D230AC8B5F5ADDF1B3D25F5B43A784E8FEDF3CFCED2746698D6D24E881489705B0EA1116FFF78200E3A70E0ACCD93C143816600ADEA0126876BF7A3C87
310
02943C31C881ADFF7B2C40AD950ECF40B57F752A40FDABC123B0F17F0F0590DE8AF76F05D0664D782F801C05A819102FC08D1AE05105B5D6B5B022787B196C66CBE04F23A40F1A219381486514B8D80A4FC380C33CA4CDC07F3A0C35C371F0D6382CA7F8FB5A78D710B1F2081787EBD412737F5D9C678AEE6544B22D0E00B5
310
510C0E3FBAFAC9EB05C8A7E1A73E085ADE8566573F25EE94B533FFEE1680E8CDD2F1DBE5E30F4CC41F99D93B3495D8064D9B20824F4E8E1C886E856367C1D446783443D88100000000000000F0877C01A804DF89B79D32C60000000049454E44AE426082812A44FAEF06B646282D2D2D2DAD95402700A6FB6004857E26B2FB
310
5004D7F21FDE37676139D09FC19FFEED7914017C07097A0F117A17197C1FA1EC24950012804F800E00D35112DF5334BBCA9A5B47C402706D2D8D13055ABDC54982C0AD53A48780D84DAE548591FF62A36CAFCF04502E8B3E06E00B5C2B52067BFE40C20000000049454E44AE42608249454E44AE426082A4E30FFE15C01784
310
B5E1093069C30F0000000049454E44AE426082826082
  0
ENDSEC
  0
EOF
