  0
SECTION
  2
HEADER
  9
$ACADVER
  1
AC1027
  9
$ACADMAINTVER
 70
   105
  9
$DWGCODEPAGE
  3
ANSI_1252
  9
$LASTSAVEDBY
  1
Sandra
  9
$REQUIREDVERSIONS
160
                 0
  9
$INSBASE
 10
0.0
 20
0.0
 30
0.0
  9
$EXTMIN
 10
-1020.356766487897
 20
-1020.356878428701
 30
0.0
  9
$EXTMAX
 10
1020.356990369506
 20
1020.356878428702
 30
714.9442138671876
  9
$LIMMIN
 10
0.0
 20
0.0
  9
$LIMMAX
 10
12.0
 20
9.0
  9
$ORTHOMODE
 70
     1
  9
$REGENMODE
 70
     1
  9
$FILLMODE
 70
     1
  9
$QTEXTMODE
 70
     0
  9
$MIRRTEXT
 70
     1
  9
$LTSCALE
 40
1.0
  9
$ATTMODE
 70
     1
  9
$TEXTSIZE
 40
0.2
  9
$TRACEWID
 40
0.05
  9
$TEXTSTYLE
  7
Standard
  9
$CLAYER
  8
Default
  9
$CELTYPE
  6
ByLayer
  9
$CECOLOR
 62
   256
  9
$CELTSCALE
 40
1.0
  9
$DISPSILH
 70
     0
  9
$DIMSCALE
 40
1.0
  9
$DIMASZ
 40
0.18
  9
$DIMEXO
 40
0.0625
  9
$DIMDLI
 40
0.38
  9
$DIMRND
 40
0.0
  9
$DIMDLE
 40
0.0
  9
$DIMEXE
 40
0.18
  9
$DIMTP
 40
0.0
  9
$DIMTM
 40
0.0
  9
$DIMTXT
 40
0.18
  9
$DIMCEN
 40
0.09
  9
$DIMTSZ
 40
0.0
  9
$DIMTOL
 70
     0
  9
$DIMLIM
 70
     0
  9
$DIMTIH
 70
     1
  9
$DIMTOH
 70
     1
  9
$DIMSE1
 70
     0
  9
$DIMSE2
 70
     0
  9
$DIMTAD
 70
     0
  9
$DIMZIN
 70
     0
  9
$DIMBLK
  1

  9
$DIMASO
 70
     1
  9
$DIMSHO
 70
     1
  9
$DIMPOST
  1

  9
$DIMAPOST
  1

  9
$DIMALT
 70
     0
  9
$DIMALTD
 70
     2
  9
$DIMALTF
 40
25.4
  9
$DIMLFAC
 40
1.0
  9
$DIMTOFL
 70
     0
  9
$DIMTVP
 40
0.0
  9
$DIMTIX
 70
     0
  9
$DIMSOXD
 70
     0
  9
$DIMSAH
 70
     0
  9
$DIMBLK1
  1

  9
$DIMBLK2
  1

  9
$DIMSTYLE
  2
Standard
  9
$DIMCLRD
 70
     0
  9
$DIMCLRE
 70
     0
  9
$DIMCLRT
 70
     0
  9
$DIMTFAC
 40
1.0
  9
$DIMGAP
 40
0.09
  9
$DIMJUST
 70
     0
  9
$DIMSD1
 70
     0
  9
$DIMSD2
 70
     0
  9
$DIMTOLJ
 70
     1
  9
$DIMTZIN
 70
     0
  9
$DIMALTZ
 70
     0
  9
$DIMALTTZ
 70
     0
  9
$DIMUPT
 70
     0
  9
$DIMDEC
 70
     4
  9
$DIMTDEC
 70
     4
  9
$DIMALTU
 70
     2
  9
$DIMALTTD
 70
     2
  9
$DIMTXSTY
  7
Standard
  9
$DIMAUNIT
 70
     0
  9
$DIMADEC
 70
     0
  9
$DIMALTRND
 40
0.0
  9
$DIMAZIN
 70
     0
  9
$DIMDSEP
 70
    46
  9
$DIMATFIT
 70
     3
  9
$DIMFRAC
 70
     0
  9
$DIMLDRBLK
  1

  9
$DIMLUNIT
 70
     2
  9
$DIMLWD
 70
    -2
  9
$DIMLWE
 70
    -2
  9
$DIMTMOVE
 70
     2
  9
$DIMFXL
 40
1.0
  9
$DIMFXLON
 70
     0
  9
$DIMJOGANG
 40
0.7853981633974483
  9
$DIMTFILL
 70
     0
  9
$DIMTFILLCLR
 70
     0
  9
$DIMARCSYM
 70
     0
  9
$DIMLTYPE
  6

  9
$DIMLTEX1
  6

  9
$DIMLTEX2
  6

  9
$DIMTXTDIRECTION
 70
     0
  9
$LUNITS
 70
     2
  9
$LUPREC
 70
     3
  9
$SKETCHINC
 40
0.1
  9
$FILLETRAD
 40
0.5
  9
$AUNITS
 70
     0
  9
$AUPREC
 70
     0
  9
$MENU
  1
.
  9
$ELEVATION
 40
0.0
  9
$PELEVATION
 40
0.0
  9
$THICKNESS
 40
0.0
  9
$LIMCHECK
 70
     0
  9
$CHAMFERA
 40
0.0
  9
$CHAMFERB
 40
0.0
  9
$CHAMFERC
 40
0.0
  9
$CHAMFERD
 40
0.0
  9
$SKPOLY
 70
     0
  9
$TDCREATE
 40
2456645.632341875
  9
$TDUCREATE
 40
2456645.799008542
  9
$TDUPDATE
 40
2457842.442127303
  9
$TDUUPDATE
 40
2457842.608793970
  9
$TDINDWG
 40
0.0058034838
  9
$TDUSRTIMER
 40
0.0058034838
  9
$USRTIMER
 70
     1
  9
$ANGBASE
 50
0.0
  9
$ANGDIR
 70
     0
  9
$PDMODE
 70
     0
  9
$PDSIZE
 40
0.0
  9
$PLINEWID
 40
0.0
  9
$SPLFRAME
 70
     0
  9
$SPLINETYPE
 70
     6
  9
$SPLINESEGS
 70
     8
  9
$HANDSEED
  5
9B468
  9
$SURFTAB1
 70
     6
  9
$SURFTAB2
 70
     6
  9
$SURFTYPE
 70
     6
  9
$SURFU
 70
     6
  9
$SURFV
 70
     6
  9
$UCSBASE
  2

  9
$UCSNAME
  2

  9
$UCSORG
 10
0.0
 20
0.0
 30
0.0
  9
$UCSXDIR
 10
1.0
 20
0.0
 30
0.0
  9
$UCSYDIR
 10
0.0
 20
1.0
 30
0.0
  9
$UCSORTHOREF
  2

  9
$UCSORTHOVIEW
 70
     0
  9
$UCSORGTOP
 10
0.0
 20
0.0
 30
0.0
  9
$UCSORGBOTTOM
 10
0.0
 20
0.0
 30
0.0
  9
$UCSORGLEFT
 10
0.0
 20
0.0
 30
0.0
  9
$UCSORGRIGHT
 10
0.0
 20
0.0
 30
0.0
  9
$UCSORGFRONT
 10
0.0
 20
0.0
 30
0.0
  9
$UCSORGBACK
 10
0.0
 20
0.0
 30
0.0
  9
$PUCSBASE
  2

  9
$PUCSNAME
  2

  9
$PUCSORG
 10
0.0
 20
0.0
 30
0.0
  9
$PUCSXDIR
 10
1.0
 20
0.0
 30
0.0
  9
$PUCSYDIR
 10
0.0
 20
1.0
 30
0.0
  9
$PUCSORTHOREF
  2

  9
$PUCSORTHOVIEW
 70
     0
  9
$PUCSORGTOP
 10
0.0
 20
0.0
 30
0.0
  9
$PUCSORGBOTTOM
 10
0.0
 20
0.0
 30
0.0
  9
$PUCSORGLEFT
 10
0.0
 20
0.0
 30
0.0
  9
$PUCSORGRIGHT
 10
0.0
 20
0.0
 30
0.0
  9
$PUCSORGFRONT
 10
0.0
 20
0.0
 30
0.0
  9
$PUCSORGBACK
 10
0.0
 20
0.0
 30
0.0
  9
$USERI1
 70
     0
  9
$USERI2
 70
     0
  9
$USERI3
 70
     0
  9
$USERI4
 70
     0
  9
$USERI5
 70
     0
  9
$USERR1
 40
0.0
  9
$USERR2
 40
0.0
  9
$USERR3
 40
0.0
  9
$USERR4
 40
0.0
  9
$USERR5
 40
0.0
  9
$WORLDVIEW
 70
     1
  9
$SHADEDGE
 70
     3
  9
$SHADEDIF
 70
    70
  9
$TILEMODE
 70
     1
  9
$MAXACTVP
 70
    64
  9
$PINSBASE
 10
0.0
 20
0.0
 30
0.0
  9
$PLIMCHECK
 70
     0
  9
$PEXTMIN
 10
1.000000000000000E+20
 20
1.000000000000000E+20
 30
1.000000000000000E+20
  9
$PEXTMAX
 10
-1.000000000000000E+20
 20
-1.000000000000000E+20
 30
-1.000000000000000E+20
  9
$PLIMMIN
 10
0.0
 20
0.0
  9
$PLIMMAX
 10
12.0
 20
9.0
  9
$UNITMODE
 70
     0
  9
$VISRETAIN
 70
     1
  9
$PLINEGEN
 70
     0
  9
$PSLTSCALE
 70
     1
  9
$TREEDEPTH
 70
  3020
  9
$CMLSTYLE
  2
Standard
  9
$CMLJUST
 70
     0
  9
$CMLSCALE
 40
1.0
  9
$PROXYGRAPHICS
 70
     1
  9
$MEASUREMENT
 70
     0
  9
$CELWEIGHT
370
    -1
  9
$ENDCAPS
280
     0
  9
$JOINSTYLE
280
     0
  9
$LWDISPLAY
290
     0
  9
$INSUNITS
 70
     4
  9
$HYPERLINKBASE
  1

  9
$STYLESHEET
  1

  9
$XEDIT
290
     1
  9
$CEPSNTYPE
380
     0
  9
$PSTYLEMODE
290
     1
  9
$FINGERPRINTGUID
  2
{68489FF6-7D1C-4EE8-B3BF-7D9188491E5C}
  9
$VERSIONGUID
  2
{E5343071-0D3F-4E4E-80FD-176D33EB6313}
  9
$EXTNAMES
290
     1
  9
$PSVPSCALE
 40
0.0
  9
$OLESTARTUP
290
     0
  9
$SORTENTS
280
   127
  9
$INDEXCTL
280
     0
  9
$HIDETEXT
280
     1
  9
$XCLIPFRAME
280
     0
  9
$HALOGAP
280
     0
  9
$OBSCOLOR
 70
   257
  9
$OBSLTYPE
280
     0
  9
$INTERSECTIONDISPLAY
280
     0
  9
$INTERSECTIONCOLOR
 70
   257
  9
$DIMASSOC
280
     2
  9
$PROJECTNAME
  1

  9
$CAMERADISPLAY
290
     0
  9
$LENSLENGTH
 40
50.0
  9
$CAMERAHEIGHT
 40
0.0
  9
$STEPSPERSEC
 40
2.0
  9
$STEPSIZE
 40
6.0
  9
$3DDWFPREC
 40
2.0
  9
$PSOLWIDTH
 40
0.25
  9
$PSOLHEIGHT
 40
4.0
  9
$LOFTANG1
 40
1.570796326794896
  9
$LOFTANG2
 40
1.570796326794896
  9
$LOFTMAG1
 40
0.0
  9
$LOFTMAG2
 40
0.0
  9
$LOFTPARAM
 70
     7
  9
$LOFTNORMALS
280
     1
  9
$LATITUDE
 40
37.795
  9
$LONGITUDE
 40
-122.394
  9
$NORTHDIRECTION
 40
0.0
  9
$TIMEZONE
 70
 -8000
  9
$LIGHTGLYPHDISPLAY
280
     1
  9
$TILEMODELIGHTSYNCH
280
     1
  9
$CMATERIAL
347
44
  9
$SOLIDHIST
280
     0
  9
$SHOWHIST
280
     1
  9
$DWFFRAME
280
     2
  9
$DGNFRAME
280
     0
  9
$REALWORLDSCALE
290
     1
  9
$INTERFERECOLOR
 62
     1
  9
$INTERFEREOBJVS
345
33
  9
$INTERFEREVPVS
346
30
  9
$CSHADOW
280
     0
  9
$SHADOWPLANELOCATION
 40
0.0
  0
ENDSEC
  0
SECTION
  2
CLASSES
  0
CLASS
  1
ACDBDICTIONARYWDFLT
  2
AcDbDictionaryWithDefault
  3
ObjectDBX Classes
 90
        0
 91
        1
280
     0
281
     0
  0
CLASS
  1
VISUALSTYLE
  2
AcDbVisualStyle
  3
ObjectDBX Classes
 90
     4095
 91
       26
280
     0
281
     0
  0
CLASS
  1
MATERIAL
  2
AcDbMaterial
  3
ObjectDBX Classes
 90
     1153
 91
        3
280
     0
281
     0
  0
CLASS
  1
SCALE
  2
AcDbScale
  3
ObjectDBX Classes
 90
     1153
 91
       33
280
     0
281
     0
  0
CLASS
  1
SUN
  2
AcDbSun
  3
SCENEOE
 90
     1153
 91
        1
280
     0
281
     0
  0
CLASS
  1
DICTIONARYVAR
  2
AcDbDictionaryVar
  3
ObjectDBX Classes
 90
        0
 91
        9
280
     0
281
     0
  0
CLASS
  1
TABLESTYLE
  2
AcDbTableStyle
  3
ObjectDBX Classes
 90
     4095
 91
        1
280
     0
281
     0
  0
CLASS
  1
MLEADERSTYLE
  2
AcDbMLeaderStyle
  3
ACDB_MLEADERSTYLE_CLASS
 90
     4095
 91
        1
280
     0
281
     0
  0
CLASS
  1
ACDBSECTIONVIEWSTYLE
  2
AcDbSectionViewStyle
  3
ObjectDBX Classes
 90
     1025
 91
        1
280
     0
281
     0
  0
CLASS
  1
ACDBDETAILVIEWSTYLE
  2
AcDbDetailViewStyle
  3
ObjectDBX Classes
 90
     1025
 91
        1
280
     0
281
     0
  0
CLASS
  1
SOLID_BACKGROUND
  2
AcDbSolidBackground
  3
SCENEOE
 90
     4095
 91
        0
280
     0
281
     0
  0
CLASS
  1
NPOCOLLECTION
  2
AcDbImpNonPersistentObjectsCollection
  3
ObjectDBX Classes
 90
     1153
 91
        0
280
     0
281
     0
  0
CLASS
  1
SORTENTSTABLE
  2
AcDbSortentsTable
  3
ObjectDBX Classes
 90
        0
 91
        1
280
     0
281
     0
  0
CLASS
  1
CELLSTYLEMAP
  2
AcDbCellStyleMap
  3
ObjectDBX Classes
 90
     1152
 91
        1
280
     0
281
     0
  0
ENDSEC
  0
SECTION
  2
TABLES
  0
TABLE
  2
VPORT
  5
8
102
{ACAD_XDICTIONARY
360
9AC34
102
}
330
0
100
AcDbSymbolTable
 70
     1
  0
VPORT
  5
29
330
8
100
AcDbSymbolTableRecord
100
AcDbViewportTableRecord
  2
*Active
 70
     0
 10
0.0
 20
0.0
 11
1.0
 21
1.0
 12
564.7326195563983
 22
-1438.305201086422
 13
0.0
 23
0.0
 14
0.5
 24
0.5
 15
0.5
 25
0.5
 16
-0.0000000000038416
 26
0.0
 36
17301.0519853668
 17
-0.8257019254737087
 27
1463.891364253162
 37
462.8289520824328
 40
2195.28349076218
 41
2.334549878345498
 42
50.0
 43
0.0
 44
0.0
 50
0.0
 51
0.0
 71
     0
 72
   100
 73
     1
 74
     3
 75
     1
 76
     0
 77
     0
 78
     0
281
     0
 65
     1
110
0.0
120
0.0
130
0.0
111
1.0
121
0.0
131
0.0
112
0.0
122
1.0
132
0.0
 79
     0
146
0.0
348
2F
 60
     3
 61
     5
292
     1
282
     1
141
0.0
142
0.0
 63
   250
421
  3355443
361
69
1001
ACAD_NAV_VCDISPLAY
1070
     3
  0
ENDTAB
  0
TABLE
  2
LTYPE
  5
5
330
0
100
AcDbSymbolTable
 70
     1
  0
LTYPE
  5
14
330
5
100
AcDbSymbolTableRecord
100
AcDbLinetypeTableRecord
  2
ByBlock
 70
     0
  3

 72
    65
 73
     0
 40
0.0
  0
LTYPE
  5
15
330
5
100
AcDbSymbolTableRecord
100
AcDbLinetypeTableRecord
  2
ByLayer
 70
     0
  3

 72
    65
 73
     0
 40
0.0
  0
LTYPE
  5
16
330
5
100
AcDbSymbolTableRecord
100
AcDbLinetypeTableRecord
  2
Continuous
 70
     0
  3
Solid line
 72
    65
 73
     0
 40
0.0
  0
ENDTAB
  0
TABLE
  2
LAYER
  5
2
102
{ACAD_XDICTIONARY
360
9AC84
102
}
330
0
100
AcDbSymbolTable
 70
     4
  0
LAYER
  5
10
102
{ACAD_XDICTIONARY
360
9AC7D
102
}
330
2
100
AcDbSymbolTableRecord
100
AcDbLayerTableRecord
  2
0
 70
     0
 62
     7
  6
Continuous
370
    -3
390
F
347
46
348
0
  0
LAYER
  5
6A
102
{ACAD_XDICTIONARY
360
9AC7F
102
}
330
2
100
AcDbSymbolTableRecord
100
AcDbLayerTableRecord
  2
Default
 70
     0
 62
     7
  6
Continuous
370
    -3
390
F
347
46
348
0
  0
LAYER
  5
9ACA6
102
{ACAD_XDICTIONARY
360
9ACA7
102
}
330
2
100
AcDbSymbolTableRecord
100
AcDbLayerTableRecord
  2
Make2D visible lines
 70
     0
 62
     7
  6
Continuous
370
    -3
390
F
347
46
348
0
  0
LAYER
  5
9ACA8
102
{ACAD_XDICTIONARY
360
9ACA9
102
}
330
2
100
AcDbSymbolTableRecord
100
AcDbLayerTableRecord
  2
Make2D visible lines - Tangent
 70
     0
 62
     7
  6
Continuous
370
    -3
390
F
347
46
348
0
  0
ENDTAB
  0
TABLE
  2
STYLE
  5
3
330
0
100
AcDbSymbolTable
 70
     1
  0
STYLE
  5
11
330
3
100
AcDbSymbolTableRecord
100
AcDbTextStyleTableRecord
  2
Standard
 70
     0
 40
0.0
 41
1.0
 50
0.0
 71
     0
 42
0.2
  3
txt
  4

  0
ENDTAB
  0
TABLE
  2
VIEW
  5
6
330
0
100
AcDbSymbolTable
 70
     0
  0
ENDTAB
  0
TABLE
  2
UCS
  5
7
330
0
100
AcDbSymbolTable
 70
     0
  0
ENDTAB
  0
TABLE
  2
APPID
  5
9
330
0
100
AcDbSymbolTable
 70
     3
  0
APPID
  5
12
330
9
100
AcDbSymbolTableRecord
100
AcDbRegAppTableRecord
  2
ACAD
 70
     0
  0
APPID
  5
9AC8A
330
9
100
AcDbSymbolTableRecord
100
AcDbRegAppTableRecord
  2
ACAD_NAV_VCDISPLAY
 70
     0
  0
APPID
  5
9AF23
330
9
100
AcDbSymbolTableRecord
100
AcDbRegAppTableRecord
  2
ACAD_EXEMPT_FROM_CAD_STANDARDS
 70
     0
  0
ENDTAB
  0
TABLE
  2
DIMSTYLE
  5
A
330
0
100
AcDbSymbolTable
 70
     1
100
AcDbDimStyleTable
 71
     1
340
27
  0
DIMSTYLE
105
27
330
A
100
AcDbSymbolTableRecord
100
AcDbDimStyleTableRecord
  2
Standard
 70
     0
340
11
  0
ENDTAB
  0
TABLE
  2
BLOCK_RECORD
  5
1
330
0
100
AcDbSymbolTable
 70
     1
  0
BLOCK_RECORD
  5
1F
102
{ACAD_XDICTIONARY
360
9AEFA
102
}
330
1
100
AcDbSymbolTableRecord
100
AcDbBlockTableRecord
  2
*Model_Space
340
22
 70
     0
280
     1
281
     0
  0
BLOCK_RECORD
  5
1B
330
1
100
AcDbSymbolTableRecord
100
AcDbBlockTableRecord
  2
*Paper_Space
340
1E
 70
     0
280
     1
281
     0
  0
BLOCK_RECORD
  5
23
330
1
100
AcDbSymbolTableRecord
100
AcDbBlockTableRecord
  2
*Paper_Space0
340
26
 70
     0
280
     1
281
     0
  0
ENDTAB
  0
ENDSEC
  0
SECTION
  2
BLOCKS
  0
BLOCK
  5
20
330
1F
100
AcDbEntity
  8
0
100
AcDbBlockBegin
  2
*Model_Space
 70
     0
 10
0.0
 20
0.0
 30
0.0
  3
*Model_Space
  1

  0
ENDBLK
  5
21
330
1F
100
AcDbEntity
  8
0
100
AcDbBlockEnd
  0
BLOCK
  5
1C
330
1B
100
AcDbEntity
 67
     1
  8
0
100
AcDbBlockBegin
  2
*Paper_Space
 70
     0
 10
0.0
 20
0.0
 30
0.0
  3
*Paper_Space
  1

  0
ENDBLK
  5
1D
330
1B
100
AcDbEntity
 67
     1
  8
0
100
AcDbBlockEnd
  0
BLOCK
  5
24
330
23
100
AcDbEntity
 67
     1
  8
0
100
AcDbBlockBegin
  2
*Paper_Space0
 70
     0
 10
0.0
 20
0.0
 30
0.0
  3
*Paper_Space0
  1

  0
ENDBLK
  5
25
330
23
100
AcDbEntity
 67
     1
  8
0
100
AcDbBlockEnd
  0
ENDSEC
  0
SECTION
  2
ENTITIES
  0
SPLINE
  5
9B339
330
1F
100
AcDbEntity
  8
Make2D visible lines
100
AcDbSpline
210
0.0
220
0.0
230
1.0
 70
     8
 71
     3
 72
    16
 73
    12
 74
     0
 42
0.000000001
 43
0.0000000001
 40
8.859681867019631
 40
8.859681867019631
 40
8.859681867019631
 40
8.859681867019631
 40
9.014211833764461
 40
9.264211833764461
 40
9.514211833764461
 40
9.514211833764461
 40
9.514211833764461
 40
9.764211833764461
 40
10.01421183376446
 40
10.26421183376446
 40
10.51421183376446
 40
10.51421183376446
 40
10.51421183376446
 40
10.51421183376446
 10
-209.2185598476517
 20
708.0209267662585
 30
714.9442138671875
 10
-208.6877553034942
 20
702.812682566059
 30
714.9442138671875
 10
-206.9117008713538
 20
688.8740492406984
 30
714.9442138671875
 10
-201.7542326733214
 20
663.5734203080215
 30
714.9442138671875
 10
-195.6771182298926
 20
645.7397555035897
 30
714.9442138671875
 10
-191.8345817386785
 20
636.6897867998182
 30
714.9442138671875
 10
-188.7352430334408
 20
629.3026485440059
 30
714.9442138671875
 10
-181.4632575660657
 20
614.4109311387945
 30
714.9442138671875
 10
-168.0288619443026
 20
593.8326849019081
 30
714.9442138671875
 10
-153.4336796302264
 20
576.3104547476084
 30
714.9442138671875
 10
-134.1249034044654
 20
557.9392826533205
 30
714.9442138671875
 10
-101.6040752596031
 20
541.0245960662189
 30
714.9442138671875
  0
SPLINE
  5
9B33A
330
1F
100
AcDbEntity
  8
Make2D visible lines
100
AcDbSpline
210
0.0
220
0.0
230
1.0
 70
     8
 71
     3
 72
    16
 73
    12
 74
     0
 42
0.000000001
 43
0.0000000001
 40
8.859681867019631
 40
8.859681867019631
 40
8.859681867019631
 40
8.859681867019631
 40
9.014211833764461
 40
9.264211833764461
 40
9.514211833764461
 40
9.514211833764461
 40
9.514211833764461
 40
9.764211833764461
 40
10.01421183376446
 40
10.26421183376446
 40
10.51421183376446
 40
10.51421183376446
 40
10.51421183376446
 40
10.51421183376446
 10
209.4549055877915
 20
708.0209267662585
 30
714.9442138671875
 10
208.924101043634
 20
702.812682566059
 30
714.9442138671875
 10
207.1480466114936
 20
688.8740492406984
 30
714.9442138671875
 10
201.9905784134612
 20
663.5734203080215
 30
714.9442138671875
 10
195.9134639700323
 20
645.7397555035897
 30
714.9442138671875
 10
192.0709274788182
 20
636.6897867998182
 30
714.9442138671875
 10
188.9715887735806
 20
629.3026485440059
 30
714.9442138671875
 10
181.6996033062055
 20
614.4109311387945
 30
714.9442138671875
 10
168.2652076844424
 20
593.8326849019081
 30
714.9442138671875
 10
153.6700253703661
 20
576.3104547476084
 30
714.9442138671875
 10
134.3612491446051
 20
557.9392826533205
 30
714.9442138671875
 10
101.8404209997429
 20
541.0245960662189
 30
714.9442138671875
  0
LINE
  5
9B33B
330
1F
100
AcDbEntity
  8
Make2D visible lines - Tangent
100
AcDbLine
 10
130.8295371373765
 20
537.4986750489167
 30
714.9442138671875
 11
148.1595396560169
 21
552.7647761448999
 31
714.9442138671875
  0
SPLINE
  5
9B33C
330
1F
100
AcDbEntity
  8
Make2D visible lines - Tangent
100
AcDbSpline
210
0.0
220
0.0
230
1.0
 70
     8
 71
     3
 72
    24
 73
    20
 74
     0
 42
0.000000001
 43
0.0000000001
 40
-17.0
 40
-17.0
 40
-17.0
 40
-17.0
 40
-15.99999896874797
 40
-14.99999793749595
 40
-13.99999690624392
 40
-12.9999958749919
 40
-11.99999484373987
 40
-10.99999381248784
 40
-9.999992781235816
 40
-8.999991749983788
 40
-7.999990718731763
 40
-6.999989687479736
 40
-5.999988656227711
 40
-4.999987624975684
 40
-3.999986593723658
 40
-2.999985562471633
 40
-1.999984531219606
 40
-0.9999834999675806
 40
0.0
 40
0.0
 40
0.0
 40
0.0
 10
148.1595396560169
 20
552.7647761448999
 30
714.9442138671875
 10
156.6665763778469
 20
560.2586748031963
 30
714.9442138671875
 10
172.1865607844383
 20
576.8972555497559
 30
714.9442138671875
 10
191.0271561509007
 20
605.3236158527088
 30
714.9442138671875
 10
205.5855345719865
 20
636.1377375788513
 30
714.9442138671875
 10
215.9568397488656
 20
668.5900815908626
 30
714.9442138671875
 10
222.3458525735345
 20
702.041710998144
 30
714.9442138671875
 10
225.2336548591652
 20
735.9550461523108
 30
714.9442138671875
 10
224.6811926086425
 20
770.0256494461648
 30
714.9442138671875
 10
219.4976442979664
 20
803.6692797477872
 30
714.9442138671875
 10
213.1190061608322
 20
837.0767945355078
 30
714.9442138671875
 10
201.9375674772896
 20
869.3808446842195
 30
714.9442138671875
 10
184.1189782532828
 20
898.4803240516438
 30
714.9442138671875
 10
162.1068351927033
 20
924.6833492413959
 30
714.9442138671875
 10
133.1218498864314
 20
943.1464565762682
 30
714.9442138671875
 10
101.209599497884
 20
955.1243115247473
 30
714.9442138671875
 10
67.94968373167558
 20
962.528490246531
 30
714.9442138671875
 10
34.11961802309907
 20
966.2540528019324
 30
714.9442138671875
 10
11.45170338828165
 20
967.0060458285252
 30
714.9442138671875
 10
0.1181728700698841
 20
967.0027725513744
 30
714.9442138671875
  0
SPLINE
  5
9B33D
330
1F
100
AcDbEntity
  8
Make2D visible lines - Tangent
100
AcDbSpline
210
0.0
220
0.0
230
1.0
 70
     8
 71
     3
 72
    24
 73
    20
 74
     0
 42
0.000000001
 43
0.0000000001
 40
0.0
 40
0.0
 40
0.0
 40
0.0
 40
0.9999834999675806
 40
1.999984531219606
 40
2.999985562471633
 40
3.999986593723658
 40
4.999987624975684
 40
5.999988656227711
 40
6.999989687479736
 40
7.999990718731763
 40
8.999991749983788
 40
9.999992781235816
 40
10.99999381248784
 40
11.99999484373987
 40
12.9999958749919
 40
13.99999690624392
 40
14.99999793749595
 40
15.99999896874797
 40
17.0
 40
17.0
 40
17.0
 40
17.0
 10
0.1181728700698841
 20
967.0027725513744
 30
714.9442138671875
 10
-11.21535764814189
 20
967.0060458285252
 30
714.9442138671875
 10
-33.8832722829593
 20
966.2540528019324
 30
714.9442138671875
 10
-67.7133379915358
 20
962.528490246531
 30
714.9442138671875
 10
-100.9732537577438
 20
955.1243115247473
 30
714.9442138671875
 10
-132.8855041462916
 20
943.1464565762682
 30
714.9442138671875
 10
-161.8704894525635
 20
924.6833492413959
 30
714.9442138671875
 10
-183.8826325131431
 20
898.4803240516438
 30
714.9442138671875
 10
-201.7012217371498
 20
869.3808446842195
 30
714.9442138671875
 10
-212.8826604206925
 20
837.0767945355078
 30
714.9442138671875
 10
-219.2612985578267
 20
803.6692797477872
 30
714.9442138671875
 10
-224.4448468685027
 20
770.0256494461648
 30
714.9442138671875
 10
-224.9973091190254
 20
735.9550461523108
 30
714.9442138671875
 10
-222.1095068333948
 20
702.041710998144
 30
714.9442138671875
 10
-215.7204940087258
 20
668.5900815908626
 30
714.9442138671875
 10
-205.3491888318467
 20
636.1377375788513
 30
714.9442138671875
 10
-190.790810410761
 20
605.3236158527088
 30
714.9442138671875
 10
-171.9502150442986
 20
576.8972555497559
 30
714.9442138671875
 10
-156.4302306377071
 20
560.2586748031963
 30
714.9442138671875
 10
-147.9231939158767
 20
552.7647761448999
 30
714.9442138671875
  0
LINE
  5
9B33E
330
1F
100
AcDbEntity
  8
Make2D visible lines - Tangent
100
AcDbLine
 10
-147.9231939158767
 20
552.7647761448999
 30
714.9442138671875
 11
-130.5931913972363
 21
537.4986750489158
 31
714.9442138671875
  0
SPLINE
  5
9B33F
330
1F
100
AcDbEntity
  8
Default
100
AcDbSpline
210
0.0
220
0.0
230
1.0
 70
     8
 71
     3
 72
    11
 73
     7
 74
     0
 42
0.000000001
 43
0.0000000001
 40
0.0
 40
0.0
 40
0.0
 40
0.0
 40
0.467605547583452
 40
0.9142111430713327
 40
1.790162585470303
 40
3.412367086947839
 40
3.412367086947839
 40
3.412367086947839
 40
3.412367086947839
 10
0.1181728700698841
 20
978.5261567932989
 30
714.9442138671875
 10
-3.840679755444853
 20
978.5222480104525
 30
714.9442138671875
 10
-11.5814403881518
 20
978.4435372747346
 30
714.9442138671875
 10
-26.72905090035647
 20
977.901250150019
 30
714.9442138671875
 10
-51.60822713902689
 20
976.1696535965993
 30
714.9442138671875
 10
-72.55254411755323
 20
972.9811799336305
 30
714.9442138671875
 10
-85.96903471148289
 20
970.0345082825181
 30
714.9442138671875
  0
SPLINE
  5
9B340
330
1F
100
AcDbEntity
  8
Default
100
AcDbSpline
210
0.0
220
0.0
230
1.0
 70
     8
 71
     3
 72
     8
 73
     4
 74
     0
 42
0.000000001
 43
0.0000000001
 40
0.0
 40
0.0
 40
0.0
 40
0.0
 40
1.0
 40
1.0
 40
1.0
 40
1.0
 10
-85.96903471148289
 20
970.0345082825181
 30
714.9442138671875
 10
-125.8722802424395
 20
961.2705352025038
 30
714.9442138671875
 10
-166.4529738359188
 20
943.1117225316894
 30
714.9442138671875
 10
-194.1696127827513
 20
901.8795336258188
 30
714.9442138671875
  0
SPLINE
  5
9B341
330
1F
100
AcDbEntity
  8
Default
100
AcDbSpline
210
0.0
220
0.0
230
1.0
 70
     8
 71
     3
 72
    35
 73
    31
 74
     0
 42
0.000000001
 43
0.0000000001
 40
0.0
 40
0.0
 40
0.0
 40
0.0
 40
1.200721309039849
 40
2.474806189780193
 40
3.195853407963301
 40
3.98021372722645
 40
5.573951835782332
 40
7.111438093592548
 40
8.622931506501279
 40
9.33701971540726
 40
10.03763722837931
 40
10.71619595131842
 40
11.38765340373526
 40
12.6667968358364
 40
13.90631383006255
 40
14.48211977252136
 40
15.05812707602911
 40
16.24216093903146
 40
16.56621434235525
 40
16.81447999607517
 40
17.05433016171483
 40
17.29779240719692
 40
17.64791820344995
 40
18.00118544930303
 40
18.20323209221873
 40
18.40348689596203
 40
18.79616858581712
 40
19.4508953258949
 40
20.09030225747283
 40
21.29052340907742
 40
21.29052340907742
 40
21.29052340907742
 40
21.29052340907742
 10
-194.1696127827513
 20
901.8795336258188
 30
714.9442138671875
 10
-199.8408639900936
 20
893.4427927366245
 30
714.9442138671875
 10
-209.8995785458651
 20
874.9633170770565
 30
714.9442138671875
 10
-218.5930623296394
 20
849.2508266614052
 30
714.9442138671875
 10
-223.8510835460806
 20
826.3072735827186
 30
714.9442138671875
 10
-228.119123924961
 20
800.4063064890319
 30
714.9442138671875
 10
-231.1218780071054
 20
767.3437550123272
 30
714.9442138671875
 10
-230.0113361739354
 20
727.9778517936433
 30
714.9442138671875
 10
-225.7885742656835
 20
696.3656588384842
 30
714.9442138671875
 10
-220.3365328675595
 20
672.1734039466712
 30
714.9442138671875
 10
-215.3770099157882
 20
655.1563833088107
 30
714.9442138671875
 10
-209.464802278902
 20
638.8177398368395
 30
714.9442138671875
 10
-200.4678227942563
 20
618.4451745988674
 30
714.9442138671875
 10
-187.2011104165681
 20
594.8527639051063
 30
714.9442138671875
 10
-171.3588404012771
 20
573.9020657599107
 30
714.9442138671875
 10
-157.4435238021192
 20
559.1763607908141
 30
714.9442138671875
 10
-142.7339094921881
 20
545.9304049293173
 30
714.9442138671875
 10
-128.3651540515616
 20
535.6154537358925
 30
714.9442138671875
 10
-115.5623924488354
 20
528.0432928027903
 30
714.9442138671875
 10
-109.549314195764
 20
524.7079256067268
 30
714.9442138671875
 10
-103.99747325635
 20
521.9545019641966
 30
714.9442138671875
 10
-97.52993528942898
 20
519.1312686747912
 30
714.9442138671875
 10
-90.07365197798298
 20
516.1815668686083
 30
714.9442138671875
 10
-82.89114604648876
 20
513.5033268239338
 30
714.9442138671875
 10
-76.81300088496437
 20
511.5018631006929
 30
714.9442138671875
 10
-70.40429377359533
 20
509.4476444610971
 30
714.9442138671875
 10
-60.27647674512536
 20
506.4376654884632
 30
714.9442138671875
 10
-46.39842997191226
 20
503.038034678689
 30
714.9442138671875
 10
-25.60998047935846
 20
499.2641751922326
 30
714.9442138671875
 10
-10.04570104459208
 20
498.019698266337
 30
714.9442138671875
 10
0.1181728700698841
 20
498.0212595015764
 30
714.9442138671875
  0
SPLINE
  5
9B342
330
1F
100
AcDbEntity
  8
Default
100
AcDbSpline
210
0.0
220
0.0
230
1.0
 70
     8
 71
     3
 72
    35
 73
    31
 74
     0
 42
0.000000001
 43
0.0000000001
 40
-21.29052340907742
 40
-21.29052340907742
 40
-21.29052340907742
 40
-21.29052340907742
 40
-20.09030225747283
 40
-19.4508953258949
 40
-18.79616858581712
 40
-18.40348689596203
 40
-18.20323209221873
 40
-18.00118544930303
 40
-17.64791820344995
 40
-17.29779240719692
 40
-17.05433016171483
 40
-16.81447999607517
 40
-16.56621434235525
 40
-16.24216093903146
 40
-15.05812707602911
 40
-14.48211977252136
 40
-13.90631383006255
 40
-12.6667968358364
 40
-11.38765340373526
 40
-10.71619595131842
 40
-10.03763722837931
 40
-9.33701971540726
 40
-8.622931506501279
 40
-7.111438093592548
 40
-5.573951835782332
 40
-3.98021372722645
 40
-3.195853407963301
 40
-2.474806189780193
 40
-1.200721309039849
 40
0.0
 40
0.0
 40
0.0
 40
0.0
 10
0.1181728700698841
 20
498.0212595015764
 30
714.9442138671875
 10
10.2820467847323
 20
498.019698266337
 30
714.9442138671875
 10
25.84632621949822
 20
499.2641751922326
 30
714.9442138671875
 10
46.63477571205203
 20
503.038034678689
 30
714.9442138671875
 10
60.51282248526513
 20
506.4376654884632
 30
714.9442138671875
 10
70.64063951373509
 20
509.4476444610971
 30
714.9442138671875
 10
77.04934662510414
 20
511.5018631006929
 30
714.9442138671875
 10
83.12749178662853
 20
513.5033268239338
 30
714.9442138671875
 10
90.30999771812275
 20
516.1815668686083
 30
714.9442138671875
 10
97.76628102956875
 20
519.1312686747912
 30
714.9442138671875
 10
104.2338189964903
 20
521.9545019641966
 30
714.9442138671875
 10
109.7856599359038
 20
524.7079256067268
 30
714.9442138671875
 10
115.7987381889752
 20
528.0432928027903
 30
714.9442138671875
 10
128.6014997917013
 20
535.6154537358925
 30
714.9442138671875
 10
142.9702552323283
 20
545.9304049293173
 30
714.9442138671875
 10
157.679869542259
 20
559.1763607908141
 30
714.9442138671875
 10
171.5951861414169
 20
573.9020657599107
 30
714.9442138671875
 10
187.4374561567078
 20
594.8527639051063
 30
714.9442138671875
 10
200.7041685343961
 20
618.4451745988674
 30
714.9442138671875
 10
209.7011480190417
 20
638.8177398368395
 30
714.9442138671875
 10
215.613355655928
 20
655.1563833088107
 30
714.9442138671875
 10
220.5728786076993
 20
672.1734039466712
 30
714.9442138671875
 10
226.0249200058233
 20
696.3656588384842
 30
714.9442138671875
 10
230.2476819140752
 20
727.9778517936433
 30
714.9442138671875
 10
231.3582237472451
 20
767.3437550123272
 30
714.9442138671875
 10
228.3554696651008
 20
800.4063064890319
 30
714.9442138671875
 10
224.0874292862204
 20
826.3072735827186
 30
714.9442138671875
 10
218.8294080697792
 20
849.2508266614052
 30
714.9442138671875
 10
210.1359242860048
 20
874.9633170770565
 30
714.9442138671875
 10
200.0772097302333
 20
893.4427927366245
 30
714.9442138671875
 10
194.405958522891
 20
901.8795336258188
 30
714.9442138671875
  0
SPLINE
  5
9B343
330
1F
100
AcDbEntity
  8
Default
100
AcDbSpline
210
0.0
220
0.0
230
1.0
 70
     8
 71
     3
 72
     8
 73
     4
 74
     0
 42
0.000000001
 43
0.0000000001
 40
-1.0
 40
-1.0
 40
-1.0
 40
-1.0
 40
0.0
 40
0.0
 40
0.0
 40
0.0
 10
194.405958522891
 20
901.8795336258188
 30
714.9442138671875
 10
166.6893195760585
 20
943.1117225316894
 30
714.9442138671875
 10
126.1086259825797
 20
961.2705352025038
 30
714.9442138671875
 10
86.20538045162266
 20
970.0345082825181
 30
714.9442138671875
  0
SPLINE
  5
9B344
330
1F
100
AcDbEntity
  8
Default
100
AcDbSpline
210
0.0
220
0.0
230
1.0
 70
     8
 71
     3
 72
    11
 73
     7
 74
     0
 42
0.000000001
 43
0.0000000001
 40
-3.412367086947839
 40
-3.412367086947839
 40
-3.412367086947839
 40
-3.412367086947839
 40
-1.790162585470303
 40
-0.9142111430713327
 40
-0.467605547583452
 40
0.0
 40
0.0
 40
0.0
 40
0.0
 10
86.20538045162266
 20
970.0345082825181
 30
714.9442138671875
 10
72.78888985769345
 20
972.9811799336305
 30
714.9442138671875
 10
51.84457287916666
 20
976.1696535965993
 30
714.9442138671875
 10
26.96539664049624
 20
977.901250150019
 30
714.9442138671875
 10
11.81778612829202
 20
978.4435372747346
 30
714.9442138671875
 10
4.077025495584621
 20
978.5222480104525
 30
714.9442138671875
 10
0.1181728700698841
 20
978.5261567932989
 30
714.9442138671875
  0
SPLINE
  5
9B345
330
1F
100
AcDbEntity
  8
Make2D visible lines
100
AcDbSpline
210
0.0
220
0.0
230
1.0
 70
     8
 71
     3
 72
    14
 73
    10
 74
     0
 42
0.000000001
 43
0.0000000001
 40
0.0
 40
0.0
 40
0.0
 40
0.0
 40
1.481699860261514
 40
2.955788216511598
 40
4.416700758545094
 40
5.884108663557238
 40
7.358109975686018
 40
8.858415456149499
 40
11.80891716318225
 40
11.80891716318225
 40
11.80891716318225
 40
11.80891716318225
 10
0.1174228384311391
 20
893.8563048911921
 30
714.9442138671875
 10
12.66183692948334
 20
893.8604793992174
 30
714.9442138671875
 10
37.69436115379131
 20
891.4879926167056
 30
714.9442138671875
 10
73.68304116539093
 20
880.6572205340287
 30
714.9442138671875
 10
106.67351044417
 20
862.9043057933746
 30
714.9442138671875
 10
135.4545237124985
 20
838.9312681084083
 30
714.9442138671875
 10
159.228839727958
 20
809.5643336861256
 30
714.9442138671875
 10
182.6817766629688
 20
764.937567994702
 30
714.9442138671875
 10
189.9695528480583
 20
727.2430128107351
 30
714.9442138671875
 10
189.8993122066494
 20
702.262612095446
 30
714.9442138671875
  0
SPLINE
  5
9B346
330
1F
100
AcDbEntity
  8
Make2D visible lines
100
AcDbSpline
210
0.0
220
0.0
230
1.0
 70
     8
 71
     3
 72
    14
 73
    10
 74
     0
 42
0.000000001
 43
0.0000000001
 40
-11.77268051163042
 40
-11.77268051163042
 40
-11.77268051163042
 40
-11.77268051163042
 40
-10.31305521956241
 40
-9.555794665613511
 40
-8.831339706698615
 40
-5.863857530525328
 40
-2.926562433324921
 40
-1.46251707193435
 40
0.0
 40
0.0
 40
0.0
 40
0.0
 10
189.8993122066494
 20
702.262612095446
 30
714.9442138671875
 10
189.871064118262
 20
689.9030581402955
 30
714.9442138671875
 10
187.9910946026325
 20
671.1438624585976
 30
714.9442138671875
 10
181.9681677456829
 20
646.9456414376177
 30
714.9442138671875
 10
169.3517355455269
 20
611.4102182789531
 30
714.9442138671875
 10
137.7578064862582
 20
563.7002242967601
 30
714.9442138671875
 10
85.00466062496299
 20
528.1599297449948
 30
714.9442138671875
 10
37.27137695574766
 20
513.6281636057151
 30
714.9442138671875
 10
12.50227881241517
 20
511.1430604869591
 30
714.9442138671875
 10
0.1177320575779959
 20
511.1424686354608
 30
714.9442138671875
  0
SPLINE
  5
9B347
330
1F
100
AcDbEntity
  8
Make2D visible lines
100
AcDbSpline
210
0.0
220
0.0
230
1.0
 70
     8
 71
     3
 72
    13
 73
     9
 74
     0
 42
0.000000001
 43
0.0000000001
 40
-11.7727400990787
 40
-11.7727400990787
 40
-11.7727400990787
 40
-11.7727400990787
 40
-8.846116153537671
 40
-5.908821855544181
 40
-2.941340482501388
 40
-2.21688566122531
 40
-1.459625214112689
 40
0.0
 40
0.0
 40
0.0
 40
0.0
 10
0.1177320575779959
 20
511.1424686354608
 30
714.9442138671875
 10
-24.65948104978816
 20
511.1432759106071
 30
714.9442138671875
 10
-74.29626020627939
 20
521.1056919260374
 30
714.9442138671875
 10
-137.5267811397434
 20
563.7003157033002
 30
714.9442138671875
 10
-169.115946355309
 20
611.4101621938361
 30
714.9442138671875
 10
-181.7350970430761
 20
646.9456704821966
 30
714.9442138671875
 10
-187.75627956878
 20
671.1438375892171
 30
714.9442138671875
 10
-189.6374402113488
 20
689.903070923287
 30
714.9442138671875
 10
-189.6649566343208
 20
702.262612092747
 30
714.9442138671875
  0
SPLINE
  5
9B348
330
1F
100
AcDbEntity
  8
Make2D visible lines
100
AcDbSpline
210
0.0
220
0.0
230
1.0
 70
     8
 71
     3
 72
    15
 73
    11
 74
     0
 42
0.000000001
 43
0.0000000001
 40
0.0
 40
0.0
 40
0.0
 40
0.0
 40
1.470019918796529
 40
2.970242495676713
 40
4.437641340435603
 40
5.921518609508079
 40
7.379060719792957
 40
8.853121015021443
 40
10.32719972765261
 40
11.80891731241405
 40
11.80891731241405
 40
11.80891731241405
 40
11.80891731241405
 10
-189.6649566343208
 20
702.262612092747
 30
714.9442138671875
 10
-189.7024245791931
 20
714.7098293829255
 30
714.9442138671875
 10
-187.3094375091764
 20
739.8584658738904
 30
714.9442138671875
 10
-176.597536256249
 20
776.0617006446097
 30
714.9442138671875
 10
-158.9630274392084
 20
809.5745826283536
 30
714.9442138671875
 10
-135.3961449534531
 20
838.7524150110655
 30
714.9442138671875
 10
-106.5573252880281
 20
862.827268635501
 30
714.9442138671875
 10
-73.55573989559843
 20
880.625056188097
 30
714.9442138671875
 10
-37.45964524822375
 20
891.4878049139877
 30
714.9442138671875
 10
-12.42716402842916
 20
893.8605926242953
 30
714.9442138671875
 10
0.1174228384311391
 20
893.8563048911921
 30
714.9442138671875
  0
SPLINE
  5
9B349
330
1F
100
AcDbEntity
  8
Make2D visible lines
100
AcDbSpline
210
0.0
220
0.0
230
1.0
 70
    12
 71
     2
 72
     6
 73
     3
 74
     0
 42
0.000000001
 43
0.0000000001
 40
0.0
 40
0.0
 40
0.0
 40
0.0853474550214741
 40
0.0853474550214741
 40
0.0853474550214741
 10
241.6414450063503
 20
1011.404520963706
 30
714.9442138671875
 41
1.0
 10
242.3526608254401
 20
1012.223046459739
 30
714.9442138671875
 41
0.9993970637774639
 10
243.1189667499275
 20
1012.990240802182
 30
714.9442138671875
 41
1.0
  0
SPLINE
  5
9B34A
330
1F
100
AcDbEntity
  8
Make2D visible lines - Tangent
100
AcDbSpline
210
0.0
220
0.0
230
1.0
 70
     8
 71
     3
 72
    12
 73
     8
 74
     0
 42
0.000000001
 43
0.0000000001
 40
0.0
 40
0.0
 40
0.0
 40
0.0
 40
0.1510110321465192
 40
0.3037660471064116
 40
0.5900965017365678
 40
0.8249401141264362
 40
1.014583801502342
 40
1.014583801502342
 40
1.014583801502342
 40
1.014583801502342
 10
255.4994579260715
 20
996.2876046793473
 30
714.9442138671875
 10
256.4879409178666
 20
997.099491927382
 30
714.9442138671875
 10
258.3761229737524
 20
998.8501044162681
 30
714.9442138671875
 10
261.5952921749076
 20
1002.687542131317
 30
714.9442138671875
 10
264.4275022009042
 20
1007.69126201729
 30
714.9442138671875
 10
265.6148166437579
 20
1013.71885648623
 30
714.9442138671875
 10
264.3742353882599
 20
1017.285127453513
 30
714.9442138671875
 10
263.1959499385566
 20
1018.418386628621
 30
714.9442138671875
  0
SPLINE
  5
9B34B
330
1F
100
AcDbEntity
  8
Make2D visible lines - Tangent
100
AcDbSpline
210
0.0
220
0.0
230
1.0
 70
     8
 71
     3
 72
    12
 73
     8
 74
     0
 42
0.000000001
 43
0.0000000001
 40
-1.014583801502342
 40
-1.014583801502342
 40
-1.014583801502342
 40
-1.014583801502342
 40
-0.8249401141264362
 40
-0.5900965017365678
 40
-0.3037660471064116
 40
-0.1510110321465192
 40
0.0
 40
0.0
 40
0.0
 40
0.0
 10
263.1959499385566
 20
1018.418386628621
 30
714.9442138671875
 10
262.0626907634487
 20
1019.596672078324
 30
714.9442138671875
 10
258.4964197961663
 20
1020.837253333823
 30
714.9442138671875
 10
252.4688253272261
 20
1019.649938890968
 30
714.9442138671875
 10
247.4651054412534
 20
1016.817728864972
 30
714.9442138671875
 10
243.627667726204
 20
1013.598559663817
 30
714.9442138671875
 10
241.8770552373171
 20
1011.710377607931
 30
714.9442138671875
 10
241.0651679892826
 20
1010.721894616136
 30
714.9442138671875
  0
SPLINE
  5
9B34C
330
1F
100
AcDbEntity
  8
Make2D visible lines - Tangent
100
AcDbSpline
210
0.0
220
0.0
230
1.0
 70
    12
 71
     2
 72
     6
 73
     3
 74
     0
 42
0.000000001
 43
0.0000000001
 40
0.0
 40
0.0
 40
0.0
 40
0.1369528492222414
 40
0.1369528492222414
 40
0.1369528492222414
 10
248.0713500255897
 20
990.0888307666596
 30
714.9442138671875
 41
1.0
 10
249.2752573437424
 20
991.3440884687574
 30
714.9442138671875
 41
0.9999966913238282
 10
250.5190390223043
 20
992.5608695015773
 30
714.9442138671875
 41
0.9999959461296658
  0
ARC
  5
9B34D
330
1F
100
AcDbEntity
  8
Make2D visible lines - Tangent
100
AcDbCircle
 10
259.6457585527246
 20
983.7295054725599
 30
714.9442138671875
 40
12.7
100
AcDbArc
 50
123.487152173538
 51
135.9422552251315
  0
SPLINE
  5
9B34E
330
1F
100
AcDbEntity
  8
Make2D visible lines - Tangent
100
AcDbSpline
210
0.0
220
0.0
230
1.0
 70
     8
 71
     3
 72
    14
 73
    10
 74
     0
 42
0.000000001
 43
0.0000000001
 40
0.2772630823298201
 40
0.2772630823298201
 40
0.2772630823298201
 40
0.2772630823298201
 40
1.0
 40
2.0
 40
3.0
 40
4.0
 40
5.0
 40
6.0
 40
7.0
 40
7.0
 40
7.0
 40
7.0
 10
252.6385337624311
 20
994.3214269572706
 30
714.9442138671875
 10
253.4979612933526
 20
994.8899925295172
 30
714.9442138671875
 10
255.4860466174014
 20
996.3368831186555
 30
714.9442138671875
 10
258.321938326952
 20
999.0024599917683
 30
714.9442138671875
 10
261.0117391251038
 20
1002.339356265578
 30
714.9442138671875
 10
263.2068088365454
 20
1006.026203279374
 30
714.9442138671875
 10
264.7043412739245
 20
1010.055750331426
 30
714.9442138671875
 10
265.0788966428522
 20
1014.385393975679
 30
714.9442138671875
 10
263.9511696976615
 20
1017.13747695779
 30
714.9442138671875
 10
262.923981001758
 20
1018.146435528769
 30
714.9442138671875
  0
SPLINE
  5
9B34F
330
1F
100
AcDbEntity
  8
Make2D visible lines - Tangent
100
AcDbSpline
210
0.0
220
0.0
230
1.0
 70
     8
 71
     3
 72
    14
 73
    10
 74
     0
 42
0.000000001
 43
0.0000000001
 40
-7.0
 40
-7.0
 40
-7.0
 40
-7.0
 40
-6.0
 40
-5.0
 40
-4.0
 40
-3.0
 40
-2.0
 40
-1.0
 40
-0.2482205602640466
 40
-0.2482205602640466
 40
-0.2482205602640466
 40
-0.2482205602640466
 10
262.923981001758
 20
1018.146435528769
 30
714.9442138671875
 10
261.9150224307791
 20
1019.173624224672
 30
714.9442138671875
 10
259.1629394486681
 20
1020.301351169862
 30
714.9442138671875
 10
254.8332958044157
 20
1019.926795800935
 30
714.9442138671875
 10
250.8037487523643
 20
1018.429263363556
 30
714.9442138671875
 10
247.1169017385682
 20
1016.234193652115
 30
714.9442138671875
 10
243.7800054647578
 20
1013.544392853962
 30
714.9442138671875
 10
241.0859957766143
 20
1010.67825163811
 30
714.9442138671875
 10
239.6188217108001
 20
1008.653329032015
 30
714.9442138671875
 10
239.0306165682987
 20
1007.757260031228
 30
714.9442138671875
  0
ARC
  5
9B350
330
1F
100
AcDbEntity
  8
Make2D visible lines - Tangent
100
AcDbCircle
 10
228.413677006276
 20
1014.726520704811
 30
714.9442138671875
 40
12.7
100
AcDbArc
 50
313.9775798079568
 51
326.7179678781626
  0
SPLINE
  5
9B351
330
1F
100
AcDbEntity
  8
Make2D visible lines - Tangent
100
AcDbSpline
210
0.0
220
0.0
230
1.0
 70
    12
 71
     2
 72
     6
 73
     3
 74
     0
 42
0.000000001
 43
0.0000000001
 40
-0.1297405451143296
 40
-0.1297405451143296
 40
-0.1297405451143296
 40
0.0
 40
0.0
 40
0.0
 10
237.2322628130705
 20
1005.587453773872
 30
714.9442138671875
 41
0.9999960316975588
 10
236.0465549467349
 20
1004.443325315236
 30
714.9442138671875
 41
0.999996865512317
 10
234.8573817197016
 20
1003.302799072548
 30
714.9442138671875
 41
1.0
  0
SPLINE
  5
9B352
330
1F
100
AcDbEntity
  8
Make2D visible lines
100
AcDbSpline
210
0.0
220
0.0
230
1.0
 70
    12
 71
     2
 72
     6
 73
     3
 74
     0
 42
0.000000001
 43
0.0000000001
 40
0.0
 40
0.0
 40
0.0
 40
0.0853474550214741
 40
0.0853474550214741
 40
0.0853474550214741
 10
-256.009956539313
 20
996.8638814901019
 30
714.9442138671875
 41
1.0
 10
-256.8284820353465
 20
997.5750973091917
 30
714.9442138671875
 41
0.9993970637774639
 10
-257.5956763777895
 20
998.3414032336787
 30
714.9442138671875
 41
1.0
  0
SPLINE
  5
9B353
330
1F
100
AcDbEntity
  8
Make2D visible lines - Tangent
100
AcDbSpline
210
0.0
220
0.0
230
1.0
 70
     8
 71
     3
 72
    12
 73
     8
 74
     0
 42
0.000000001
 43
0.0000000001
 40
0.0
 40
0.0
 40
0.0
 40
0.0
 40
0.1510110321465192
 40
0.3037660471064116
 40
0.5900965017365678
 40
0.8249401141264362
 40
1.014583801502342
 40
1.014583801502342
 40
1.014583801502342
 40
1.014583801502342
 10
-240.8930402549545
 20
1010.721894409823
 30
714.9442138671875
 10
-241.704927502989
 20
1011.710377401618
 30
714.9442138671875
 10
-243.4555399918759
 20
1013.598559457504
 30
714.9442138671875
 10
-247.2929777069244
 20
1016.817728658659
 30
714.9442138671875
 10
-252.2966975928976
 20
1019.649938684655
 30
714.9442138671875
 10
-258.3242920618381
 20
1020.837253127509
 30
714.9442138671875
 10
-261.8905630291201
 20
1019.596671872011
 30
714.9442138671875
 10
-263.023822204228
 20
1018.418386422307
 30
714.9442138671875
  0
SPLINE
  5
9B354
330
1F
100
AcDbEntity
  8
Make2D visible lines - Tangent
100
AcDbSpline
210
0.0
220
0.0
230
1.0
 70
     8
 71
     3
 72
    12
 73
     8
 74
     0
 42
0.000000001
 43
0.0000000001
 40
-1.014583801502342
 40
-1.014583801502342
 40
-1.014583801502342
 40
-1.014583801502342
 40
-0.8249401141264362
 40
-0.5900965017365678
 40
-0.3037660471064116
 40
-0.1510110321465192
 40
0.0
 40
0.0
 40
0.0
 40
0.0
 10
-263.023822204228
 20
1018.418386422307
 30
714.9442138671875
 10
-264.2021076539318
 20
1017.2851272472
 30
714.9442138671875
 10
-265.4426889094293
 20
1013.718856279917
 30
714.9442138671875
 10
-264.2553744665761
 20
1007.691261810977
 30
714.9442138671875
 10
-261.4231644405795
 20
1002.687541925004
 30
714.9442138671875
 10
-258.2039952394243
 20
998.8501042099553
 30
714.9442138671875
 10
-256.315813183538
 20
997.0994917210687
 30
714.9442138671875
 10
-255.3273301917429
 20
996.2876044730341
 30
714.9442138671875
  0
SPLINE
  5
9B355
330
1F
100
AcDbEntity
  8
Make2D visible lines - Tangent
100
AcDbSpline
210
0.0
220
0.0
230
1.0
 70
    12
 71
     2
 72
     6
 73
     3
 74
     0
 42
0.000000001
 43
0.0000000001
 40
0.0
 40
0.0
 40
0.0
 40
0.1369528492222414
 40
0.1369528492222414
 40
0.1369528492222414
 10
-234.6942663422674
 20
1003.293786509341
 30
714.9442138671875
 41
1.0
 10
-235.9495240443644
 20
1004.497693827494
 30
714.9442138671875
 41
0.9999966913238282
 10
-237.1663050771845
 20
1005.741475506055
 30
714.9442138671875
 41
0.9999959461296658
  0
ARC
  5
9B356
330
1F
100
AcDbEntity
  8
Make2D visible lines - Tangent
100
AcDbCircle
 10
-228.3349410481664
 20
1014.868195036476
 30
714.9442138671875
 40
12.7
100
AcDbArc
 50
213.4871521735317
 51
225.9422552251303
  0
SPLINE
  5
9B357
330
1F
100
AcDbEntity
  8
Make2D visible lines - Tangent
100
AcDbSpline
210
0.0
220
0.0
230
1.0
 70
     8
 71
     3
 72
    14
 73
    10
 74
     0
 42
0.000000001
 43
0.0000000001
 40
0.2772630823298201
 40
0.2772630823298201
 40
0.2772630823298201
 40
0.2772630823298201
 40
1.0
 40
2.0
 40
3.0
 40
4.0
 40
5.0
 40
6.0
 40
7.0
 40
7.0
 40
7.0
 40
7.0
 10
-238.9268625328778
 20
1007.860970246182
 30
714.9442138671875
 10
-239.4954281051241
 20
1008.720397777104
 30
714.9442138671875
 10
-240.9423186942627
 20
1010.708483101153
 30
714.9442138671875
 10
-243.6078955673756
 20
1013.544374810703
 30
714.9442138671875
 10
-246.9447918411861
 20
1016.234175608855
 30
714.9442138671875
 10
-250.6316388549826
 20
1018.429245320296
 30
714.9442138671875
 10
-254.6611859070331
 20
1019.926777757675
 30
714.9442138671875
 10
-258.9908295512855
 20
1020.301333126604
 30
714.9442138671875
 10
-261.7429125333974
 20
1019.173606181412
 30
714.9442138671875
 10
-262.7518711043763
 20
1018.146417485509
 30
714.9442138671875
  0
SPLINE
  5
9B358
330
1F
100
AcDbEntity
  8
Make2D visible lines - Tangent
100
AcDbSpline
210
0.0
220
0.0
230
1.0
 70
     8
 71
     3
 72
    14
 73
    10
 74
     0
 42
0.000000001
 43
0.0000000001
 40
-7.0
 40
-7.0
 40
-7.0
 40
-7.0
 40
-6.0
 40
-5.0
 40
-4.0
 40
-3.0
 40
-2.0
 40
-1.0
 40
-0.2482205602640466
 40
-0.2482205602640466
 40
-0.2482205602640466
 40
-0.2482205602640466
 10
-262.7518711043763
 20
1018.146417485509
 30
714.9442138671875
 10
-263.7790598002798
 20
1017.13745891453
 30
714.9442138671875
 10
-264.9067867454705
 20
1014.385375932419
 30
714.9442138671875
 10
-264.5322313765423
 20
1010.055732288167
 30
714.9442138671875
 10
-263.0346989391628
 20
1006.026185236116
 30
714.9442138671875
 10
-260.8396292277221
 20
1002.339338222319
 30
714.9442138671875
 10
-258.1498284295694
 20
999.002441948509
 30
714.9442138671875
 10
-255.2836872137168
 20
996.3084322603661
 30
714.9442138671875
 10
-253.2587646076222
 20
994.8412581945513
 30
714.9442138671875
 10
-252.3626956068351
 20
994.25305305205
 30
714.9442138671875
  0
ARC
  5
9B359
330
1F
100
AcDbEntity
  8
Make2D visible lines - Tangent
100
AcDbCircle
 10
-259.3319562804195
 20
983.636113490027
 30
714.9442138671875
 40
12.7
100
AcDbArc
 50
43.97757980795002
 51
56.71796787817248
  0
SPLINE
  5
9B35A
330
1F
100
AcDbEntity
  8
Make2D visible lines - Tangent
100
AcDbSpline
210
0.0
220
0.0
230
1.0
 70
    12
 71
     2
 72
     6
 73
     3
 74
     0
 42
0.000000001
 43
0.0000000001
 40
-0.1297405451143296
 40
-0.1297405451143296
 40
-0.1297405451143296
 40
0.0
 40
0.0
 40
0.0
 10
-250.1928893494792
 20
992.454699296822
 30
714.9442138671875
 41
0.9999960316975588
 10
-249.0487608908429
 20
991.2689914304861
 30
714.9442138671875
 41
0.999996865512317
 10
-247.9082346481555
 20
990.0798182034529
 30
714.9442138671875
 41
1.0
  0
SPLINE
  5
9B35B
330
1F
100
AcDbEntity
  8
Make2D visible lines
100
AcDbSpline
210
0.0
220
0.0
230
1.0
 70
    12
 71
     2
 72
     6
 73
     3
 74
     0
 42
0.000000001
 43
0.0000000001
 40
0.0
 40
0.0
 40
0.0
 40
0.0853474550214741
 40
0.0853474550214741
 40
0.0853474550214741
 10
-241.4693170657088
 20
499.2124799444389
 30
714.9442138671875
 41
1.0
 10
-242.1805328847991
 20
498.3939544484056
 30
714.9442138671875
 41
0.9993970637774639
 10
-242.946838809286
 20
497.6267601059622
 30
714.9442138671875
 41
1.0
  0
SPLINE
  5
9B35C
330
1F
100
AcDbEntity
  8
Make2D visible lines - Tangent
100
AcDbSpline
210
0.0
220
0.0
230
1.0
 70
     8
 71
     3
 72
    12
 73
     8
 74
     0
 42
0.000000001
 43
0.0000000001
 40
0.0
 40
0.0
 40
0.0
 40
0.0
 40
0.1510110321465192
 40
0.3037660471064116
 40
0.5900965017365678
 40
0.8249401141264362
 40
1.014583801502342
 40
1.014583801502342
 40
1.014583801502342
 40
1.014583801502342
 10
-255.32732998543
 20
514.3293962287973
 30
714.9442138671875
 10
-256.3158129772251
 20
513.5175089807626
 30
714.9442138671875
 10
-258.2039950331109
 20
511.7668964918758
 30
714.9442138671875
 10
-261.4231642342661
 20
507.929458776827
 30
714.9442138671875
 10
-264.2553742602627
 20
502.9257388908541
 30
714.9442138671875
 10
-265.4426887031164
 20
496.8981444219137
 30
714.9442138671875
 10
-264.2021074476184
 20
493.3318734546313
 30
714.9442138671875
 10
-263.0238219979156
 20
492.1986142795236
 30
714.9442138671875
  0
SPLINE
  5
9B35D
330
1F
100
AcDbEntity
  8
Make2D visible lines - Tangent
100
AcDbSpline
210
0.0
220
0.0
230
1.0
 70
     8
 71
     3
 72
    12
 73
     8
 74
     0
 42
0.000000001
 43
0.0000000001
 40
-1.014583801502342
 40
-1.014583801502342
 40
-1.014583801502342
 40
-1.014583801502342
 40
-0.8249401141264362
 40
-0.5900965017365678
 40
-0.3037660471064116
 40
-0.1510110321465192
 40
0.0
 40
0.0
 40
0.0
 40
0.0
 10
-263.0238219979156
 20
492.1986142795236
 30
714.9442138671875
 10
-261.8905628228072
 20
491.0203288298198
 30
714.9442138671875
 10
-258.3242918555247
 20
489.7797475743221
 30
714.9442138671875
 10
-252.2966973865846
 20
490.9670620171758
 30
714.9442138671875
 10
-247.2929775006118
 20
493.7992720431723
 30
714.9442138671875
 10
-243.4555397855629
 20
497.0184412443273
 30
714.9442138671875
 10
-241.704927296676
 20
498.9066233002134
 30
714.9442138671875
 10
-240.8930400486415
 20
499.8951062920085
 30
714.9442138671875
  0
SPLINE
  5
9B35E
330
1F
100
AcDbEntity
  8
Make2D visible lines - Tangent
100
AcDbSpline
210
0.0
220
0.0
230
1.0
 70
    12
 71
     2
 72
     6
 73
     3
 74
     0
 42
0.000000001
 43
0.0000000001
 40
0.0
 40
0.0
 40
0.0
 40
0.1369528492222414
 40
0.1369528492222414
 40
0.1369528492222414
 10
-247.8992220849487
 20
520.528170141484
 30
714.9442138671875
 41
1.0
 10
-249.1031294031013
 20
519.272912439387
 30
714.9442138671875
 41
0.9999966913238282
 10
-250.3469110816627
 20
518.0561314065669
 30
714.9442138671875
 41
0.9999959461296658
  0
ARC
  5
9B35F
330
1F
100
AcDbEntity
  8
Make2D visible lines - Tangent
100
AcDbCircle
 10
-259.4736306120835
 20
526.8874954355849
 30
714.9442138671875
 40
12.7
100
AcDbArc
 50
303.4871521735371
 51
315.9422552251315
  0
SPLINE
  5
9B360
330
1F
100
AcDbEntity
  8
Make2D visible lines - Tangent
100
AcDbSpline
210
0.0
220
0.0
230
1.0
 70
     8
 71
     3
 72
    14
 73
    10
 74
     0
 42
0.000000001
 43
0.0000000001
 40
0.2772630823298201
 40
0.2772630823298201
 40
0.2772630823298201
 40
0.2772630823298201
 40
1.0
 40
2.0
 40
3.0
 40
4.0
 40
5.0
 40
6.0
 40
7.0
 40
7.0
 40
7.0
 40
7.0
 10
-252.4664058217895
 20
516.2955739508736
 30
714.9442138671875
 10
-253.3258333527115
 20
515.7270083786275
 30
714.9442138671875
 10
-255.3139186767598
 20
514.2801177894889
 30
714.9442138671875
 10
-258.1498103863105
 20
511.614540916376
 30
714.9442138671875
 10
-260.8396111844627
 20
508.277644642566
 30
714.9442138671875
 10
-263.0346808959034
 20
504.5907976287694
 30
714.9442138671875
 10
-264.5322133332829
 20
500.5612505767183
 30
714.9442138671875
 10
-264.9067687022107
 20
496.2316069324654
 30
714.9442138671875
 10
-263.77904175702
 20
493.4795239503547
 30
714.9442138671875
 10
-262.7518530611169
 20
492.4705653793756
 30
714.9442138671875
  0
SPLINE
  5
9B361
330
1F
100
AcDbEntity
  8
Make2D visible lines - Tangent
100
AcDbSpline
210
0.0
220
0.0
230
1.0
 70
     8
 71
     3
 72
    14
 73
    10
 74
     0
 42
0.000000001
 43
0.0000000001
 40
-7.0
 40
-7.0
 40
-7.0
 40
-7.0
 40
-6.0
 40
-5.0
 40
-4.0
 40
-3.0
 40
-2.0
 40
-1.0
 40
-0.2482205602640466
 40
-0.2482205602640466
 40
-0.2482205602640466
 40
-0.2482205602640466
 10
-262.7518530611169
 20
492.4705653793756
 30
714.9442138671875
 10
-261.7428944901376
 20
491.4433766834718
 30
714.9442138671875
 10
-258.9908115080266
 20
490.3156497382818
 30
714.9442138671875
 10
-254.6611678637741
 20
490.6902051072093
 30
714.9442138671875
 10
-250.6316208117228
 20
492.1877375445886
 30
714.9442138671875
 10
-246.9447737979267
 20
494.3828072560298
 30
714.9442138671875
 10
-243.6078775241163
 20
497.072608054182
 30
714.9442138671875
 10
-240.9138678359732
 20
499.9387492700348
 30
714.9442138671875
 10
-239.4466937701582
 20
501.9636718761299
 30
714.9442138671875
 10
-238.8584886276567
 20
502.8597408769165
 30
714.9442138671875
  0
ARC
  5
9B362
330
1F
100
AcDbEntity
  8
Make2D visible lines - Tangent
100
AcDbCircle
 10
-228.2415490656349
 20
495.8904802033323
 30
714.9442138671875
 40
12.7
100
AcDbArc
 50
133.9775798079568
 51
146.7179678781626
  0
SPLINE
  5
9B363
330
1F
100
AcDbEntity
  8
Make2D visible lines - Tangent
100
AcDbSpline
210
0.0
220
0.0
230
1.0
 70
    12
 71
     2
 72
     6
 73
     3
 74
     0
 42
0.000000001
 43
0.0000000001
 40
-0.1297405451143296
 40
-0.1297405451143296
 40
-0.1297405451143296
 40
0.0
 40
0.0
 40
0.0
 10
-237.060134872429
 20
505.0295471342722
 30
714.9442138671875
 41
0.9999960316975588
 10
-235.8744270060938
 20
506.1736755929088
 30
714.9442138671875
 41
0.999996865512317
 10
-234.6852537790601
 20
507.3142018355961
 30
714.9442138671875
 41
1.0
  0
SPLINE
  5
9B364
330
1F
100
AcDbEntity
  8
Make2D visible lines - Tangent
100
AcDbSpline
210
0.0
220
0.0
230
1.0
 70
    12
 71
     2
 72
     6
 73
     3
 74
     0
 42
0.000000001
 43
0.0000000001
 40
0.0
 40
0.0
 40
0.0
 40
0.1369528492222414
 40
0.1369528492222414
 40
0.1369528492222414
 10
234.8663942829085
 20
507.3232143988028
 30
714.9442138671875
 41
1.0
 10
236.1216519850054
 20
506.1193070806501
 30
714.9442138671875
 41
0.9999966913238282
 10
237.338433017826
 20
504.8755254020889
 30
714.9442138671875
 41
0.9999959461296658
  0
ARC
  5
9B365
330
1F
100
AcDbEntity
  8
Make2D visible lines - Tangent
100
AcDbCircle
 10
228.507068988808
 20
495.7488058716681
 30
714.9442138671875
 40
12.7
100
AcDbArc
 50
33.48715217353169
 51
45.9422552251314
  0
SPLINE
  5
9B366
330
1F
100
AcDbEntity
  8
Make2D visible lines - Tangent
100
AcDbSpline
210
0.0
220
0.0
230
1.0
 70
     8
 71
     3
 72
    14
 73
    10
 74
     0
 42
0.000000001
 43
0.0000000001
 40
0.2772630823298201
 40
0.2772630823298201
 40
0.2772630823298201
 40
0.2772630823298201
 40
1.0
 40
2.0
 40
3.0
 40
4.0
 40
5.0
 40
6.0
 40
7.0
 40
7.0
 40
7.0
 40
7.0
 10
239.0989904735193
 20
502.7560306619617
 30
714.9442138671875
 10
239.6675560457652
 20
501.8966031310404
 30
714.9442138671875
 10
241.1144466349042
 20
499.9085178069916
 30
714.9442138671875
 10
243.7800235080167
 20
497.0726260974414
 30
714.9442138671875
 10
247.1169197818272
 20
494.3828252992889
 30
714.9442138671875
 10
250.8037667956237
 20
492.187755587848
 30
714.9442138671875
 10
254.8333138476746
 20
490.6902231504685
 30
714.9442138671875
 10
259.1629574919271
 20
490.3156677815405
 30
714.9442138671875
 10
261.9150404740385
 20
491.4433947267315
 30
714.9442138671875
 10
262.9239990450173
 20
492.4705834226347
 30
714.9442138671875
  0
SPLINE
  5
9B367
330
1F
100
AcDbEntity
  8
Make2D visible lines - Tangent
100
AcDbSpline
210
0.0
220
0.0
230
1.0
 70
     8
 71
     3
 72
    14
 73
    10
 74
     0
 42
0.000000001
 43
0.0000000001
 40
-7.0
 40
-7.0
 40
-7.0
 40
-7.0
 40
-6.0
 40
-5.0
 40
-4.0
 40
-3.0
 40
-2.0
 40
-1.0
 40
-0.2482205602640466
 40
-0.2482205602640466
 40
-0.2482205602640466
 40
-0.2482205602640466
 10
262.9239990450173
 20
492.4705834226347
 30
714.9442138671875
 10
263.9511877409209
 20
493.4795419936138
 30
714.9442138671875
 10
265.0789146861116
 20
496.231624975725
 30
714.9442138671875
 10
264.7043593171834
 20
500.5612686199775
 30
714.9442138671875
 10
263.2068268798043
 20
504.5908156720286
 30
714.9442138671875
 10
261.0117571683631
 20
508.2776626858249
 30
714.9442138671875
 10
258.321956370211
 20
511.6145589596354
 30
714.9442138671875
 10
255.4558151543579
 20
514.3085686477779
 30
714.9442138671875
 10
253.4308925482628
 20
515.7757427135932
 30
714.9442138671875
 10
252.5348235474766
 20
516.3639478560944
 30
714.9442138671875
  0
ARC
  5
9B368
330
1F
100
AcDbEntity
  8
Make2D visible lines - Tangent
100
AcDbCircle
 10
259.5040842210606
 20
526.9808874181166
 30
714.9442138671875
 40
12.7
100
AcDbArc
 50
223.97757980795
 51
236.7179678781725
  0
SPLINE
  5
9B369
330
1F
100
AcDbEntity
  8
Make2D visible lines - Tangent
100
AcDbSpline
210
0.0
220
0.0
230
1.0
 70
    12
 71
     2
 72
     6
 73
     3
 74
     0
 42
0.000000001
 43
0.0000000001
 40
-0.1297405451143296
 40
-0.1297405451143296
 40
-0.1297405451143296
 40
0.0
 40
0.0
 40
0.0
 10
250.3650172901207
 20
518.1623016113219
 30
714.9442138671875
 41
0.9999960316975588
 10
249.2208888314844
 20
519.3480094776577
 30
714.9442138671875
 41
0.999996865512317
 10
248.080362588797
 20
520.5371827046915
 30
714.9442138671875
 41
1.0
  0
SPLINE
  5
9B36A
330
1F
100
AcDbEntity
  8
Make2D visible lines - Tangent
100
AcDbSpline
210
0.0
220
0.0
230
1.0
 70
     8
 71
     3
 72
    12
 73
     8
 74
     0
 42
0.000000001
 43
0.0000000001
 40
0.0
 40
0.0
 40
0.0
 40
0.0
 40
0.1510110321465192
 40
0.3037660471064116
 40
0.5900965017365678
 40
0.8249401141264362
 40
1.014583801502342
 40
1.014583801502342
 40
1.014583801502342
 40
1.014583801502342
 10
241.0651681955956
 20
499.8951064983216
 30
714.9442138671875
 10
241.8770554436301
 20
498.9066235065264
 30
714.9442138671875
 10
243.6276679325169
 20
497.0184414506403
 30
714.9442138671875
 10
247.4651056475664
 20
493.7992722494853
 30
714.9442138671875
 10
252.4688255335386
 20
490.967062223489
 30
714.9442138671875
 10
258.4964200024788
 20
489.7797477806348
 30
714.9442138671875
 10
262.0626909697616
 20
491.020329036133
 30
714.9442138671875
 10
263.1959501448691
 20
492.1986144858365
 30
714.9442138671875
  0
SPLINE
  5
9B36B
330
1F
100
AcDbEntity
  8
Make2D visible lines - Tangent
100
AcDbSpline
210
0.0
220
0.0
230
1.0
 70
     8
 71
     3
 72
    12
 73
     8
 74
     0
 42
0.000000001
 43
0.0000000001
 40
-1.014583801502342
 40
-1.014583801502342
 40
-1.014583801502342
 40
-1.014583801502342
 40
-0.8249401141264362
 40
-0.5900965017365678
 40
-0.3037660471064116
 40
-0.1510110321465192
 40
0.0
 40
0.0
 40
0.0
 40
0.0
 10
263.1959501448691
 20
492.1986144858365
 30
714.9442138671875
 10
264.3742355945733
 20
493.3318736609445
 30
714.9442138671875
 10
265.6148168500708
 20
496.8981446282267
 30
714.9442138671875
 10
264.4275024072172
 20
502.9257390971668
 30
714.9442138671875
 10
261.595292381221
 20
507.9294589831396
 30
714.9442138671875
 10
258.3761231800659
 20
511.7668966981887
 30
714.9442138671875
 10
256.4879411241796
 20
513.5175091870753
 30
714.9442138671875
 10
255.499458132384
 20
514.3293964351102
 30
714.9442138671875
  0
SPLINE
  5
9B36C
330
1F
100
AcDbEntity
  8
Make2D visible lines
100
AcDbSpline
210
0.0
220
0.0
230
1.0
 70
    12
 71
     2
 72
     6
 73
     3
 74
     0
 42
0.000000001
 43
0.0000000001
 40
0.0
 40
0.0
 40
0.0
 40
0.0853474550214741
 40
0.0853474550214741
 40
0.0853474550214741
 10
256.182084479954
 20
513.7531194180428
 30
714.9442138671875
 41
1.0
 10
257.0006099759876
 20
513.0419035989527
 30
714.9442138671875
 41
0.9993970637774639
 10
257.767804318431
 20
512.2755976744654
 30
714.9442138671875
 41
1.0
  0
SPLINE
  5
9B36D
330
1F
100
AcDbEntity
  8
Make2D visible lines - Tangent
100
AcDbSpline
210
0.0
220
0.0
230
1.0
 70
    12
 71
     2
 72
     6
 73
     3
 74
     0
 42
0.000000001
 43
0.0000000001
 40
-3.799577872997743
 40
-3.799577872997743
 40
-3.799577872997743
 40
0.0
 40
0.0
 40
0.0
 10
164.584458250119
 20
934.584388279587
 30
714.9442138671875
 41
0.9999999984898234
 10
199.0987211924484
 20
968.3401003534479
 30
714.9442138671875
 41
0.9999999988338577
 10
233.620313711891
 20
1002.105838051575
 30
714.9442138671875
 41
1.0
  0
SPLINE
  5
9B36E
330
1F
100
AcDbEntity
  8
Make2D visible lines - Tangent
100
AcDbSpline
210
0.0
220
0.0
230
1.0
 70
     8
 71
     3
 72
    14
 73
    10
 74
     0
 42
0.000000001
 43
0.0000000001
 40
0.0
 40
0.0
 40
0.0
 40
0.0
 40
1.0
 40
2.0
 40
3.0
 40
4.0
 40
5.0
 40
6.0
 40
7.0
 40
7.0
 40
7.0
 40
7.0
 10
233.620313711891
 20
1002.105838051575
 30
714.9442138671875
 10
234.9018950749346
 20
1003.349706336104
 30
714.9442138671875
 10
237.6486502549533
 20
1005.367370090718
 30
714.9442138671875
 10
242.4649776500309
 20
1007.102217548897
 30
714.9442138671875
 10
247.7490682869357
 20
1006.660677679931
 30
714.9442138671875
 10
251.5173660662681
 20
1002.77106331129
 30
714.9442138671875
 10
251.8439789951053
 20
997.4883794557563
 30
714.9442138671875
 10
250.0484909962365
 20
992.6963368009749
 30
714.9442138671875
 10
248.0022626868386
 20
989.9709131315921
 30
714.9442138671875
 10
246.8096206405944
 20
988.7771990896077
 30
714.9442138671875
  0
SPLINE
  5
9B36F
330
1F
100
AcDbEntity
  8
Make2D visible lines - Tangent
100
AcDbSpline
210
0.0
220
0.0
230
1.0
 70
    12
 71
     2
 72
     6
 73
     3
 74
     0
 42
0.000000001
 43
0.0000000001
 40
0.0
 40
0.0
 40
0.0
 40
3.770590876880781
 40
3.770590876880781
 40
3.770590876880781
 10
246.8096206405944
 20
988.7771990896077
 30
714.9442138671875
 41
1.0
 10
213.3241379636079
 20
954.54505442201
 30
714.9442138671875
 41
0.9999999988427543
 10
179.8406034022046
 20
920.3110042390513
 30
714.9442138671875
 41
0.9999999984951207
  0
SPLINE
  5
9B370
330
1F
100
AcDbEntity
  8
Make2D visible lines - Tangent
100
AcDbSpline
210
0.0
220
0.0
230
1.0
 70
    12
 71
     2
 72
     6
 73
     3
 74
     0
 42
0.000000001
 43
0.0000000001
 40
-3.651972160153634
 40
-3.651972160153634
 40
-3.651972160153634
 40
0.0
 40
0.0
 40
0.0
 10
181.9846456086279
 20
588.1284801770923
 30
714.9442138671875
 41
0.9999999985177943
 10
214.4293926866385
 20
554.9547510242361
 30
714.9442138671875
 41
0.99999999887916
 10
246.883401567824
 20
521.7742507125019
 30
714.9442138671875
 41
1.0
  0
SPLINE
  5
9B371
330
1F
100
AcDbEntity
  8
Make2D visible lines - Tangent
100
AcDbSpline
210
0.0
220
0.0
230
1.0
 70
     8
 71
     3
 72
    14
 73
    10
 74
     0
 42
0.000000001
 43
0.0000000001
 40
0.0
 40
0.0
 40
0.0
 40
0.0
 40
1.0
 40
2.0
 40
3.0
 40
4.0
 40
5.0
 40
6.0
 40
7.0
 40
7.0
 40
7.0
 40
7.0
 10
246.883401567824
 20
521.7742507125019
 30
714.9442138671875
 10
248.127269852353
 20
520.4926693494578
 30
714.9442138671875
 10
250.1449336069668
 20
517.7459141694398
 30
714.9442138671875
 10
251.8797810651454
 20
512.929586774362
 30
714.9442138671875
 10
251.4382411961797
 20
507.6454961374572
 30
714.9442138671875
 10
247.5486268275385
 20
503.8771983581246
 30
714.9442138671875
 10
242.2659429720052
 20
503.5505854292877
 30
714.9442138671875
 10
237.4739003172235
 20
505.346073428156
 30
714.9442138671875
 10
234.7484766478406
 20
507.3923017375544
 30
714.9442138671875
 10
233.554762605856
 20
508.5849437837983
 30
714.9442138671875
  0
SPLINE
  5
9B372
330
1F
100
AcDbEntity
  8
Make2D visible lines - Tangent
100
AcDbSpline
210
0.0
220
0.0
230
1.0
 70
    12
 71
     2
 72
     6
 73
     3
 74
     0
 42
0.000000001
 43
0.0000000001
 40
0.0
 40
0.0
 40
0.0
 40
3.549969886497025
 40
3.549969886497025
 40
3.549969886497025
 10
233.554762605856
 20
508.5849437837983
 30
714.9442138671875
 41
1.0
 10
201.3255744812395
 20
540.111157847205
 30
714.9442138671875
 41
0.999999998910466
 10
169.0946973019536
 20
571.6356451007252
 30
714.9442138671875
 41
0.9999999985385732
  0
SPLINE
  5
9B373
330
1F
100
AcDbEntity
  8
Make2D visible lines - Tangent
100
AcDbSpline
210
0.0
220
0.0
230
1.0
 70
    12
 71
     2
 72
     6
 73
     3
 74
     0
 42
0.000000001
 43
0.0000000001
 40
-3.553602127449321
 40
-3.553602127449321
 40
-3.553602127449321
 40
0.0
 40
0.0
 40
0.0
 10
-168.8811056334302
 20
571.6620396080872
 30
714.9442138671875
 41
0.999999998537813
 10
-201.1614400559997
 20
540.0909860160384
 30
714.9442138671875
 41
0.9999999989093511
 10
-233.4481857712494
 20
508.511162856569
 30
714.9442138671875
 41
1.0
  0
SPLINE
  5
9B374
330
1F
100
AcDbEntity
  8
Make2D visible lines - Tangent
100
AcDbSpline
210
0.0
220
0.0
230
1.0
 70
     8
 71
     3
 72
    14
 73
    10
 74
     0
 42
0.000000001
 43
0.0000000001
 40
0.0
 40
0.0
 40
0.0
 40
0.0
 40
1.0
 40
2.0
 40
3.0
 40
4.0
 40
5.0
 40
6.0
 40
7.0
 40
7.0
 40
7.0
 40
7.0
 10
-233.4481857712494
 20
508.511162856569
 30
714.9442138671875
 10
-234.7297671342935
 20
507.2672945720399
 30
714.9442138671875
 10
-237.4765223143118
 20
505.2496308174261
 30
714.9442138671875
 10
-242.2928497093894
 20
503.5147833592476
 30
714.9442138671875
 10
-247.5769403462941
 20
503.9563232282133
 30
714.9442138671875
 10
-251.345238125627
 20
507.8459375968548
 30
714.9442138671875
 10
-251.6718510544638
 20
513.1286214523877
 30
714.9442138671875
 10
-249.8763630555954
 20
517.9206641071695
 30
714.9442138671875
 10
-247.830134746197
 20
520.6460877765521
 30
714.9442138671875
 10
-246.6374926999533
 20
521.8398018185364
 30
714.9442138671875
  0
SPLINE
  5
9B375
330
1F
100
AcDbEntity
  8
Make2D visible lines - Tangent
100
AcDbSpline
210
0.0
220
0.0
230
1.0
 70
    12
 71
     2
 72
     6
 73
     3
 74
     0
 42
0.000000001
 43
0.0000000001
 40
0.0
 40
0.0
 40
0.0
 40
3.652304510727871
 40
3.652304510727871
 40
3.652304510727871
 10
-246.6374926999533
 20
521.8398018185364
 30
714.9442138671875
 41
1.0
 10
-214.2024756392348
 20
554.9980575029207
 30
714.9442138671875
 41
0.999999998879058
 10
-181.7692863818943
 20
588.1581010245676
 30
714.9442138671875
 41
0.9999999985177286
  0
SPLINE
  5
9B376
330
1F
100
AcDbEntity
  8
Make2D visible lines - Tangent
100
AcDbSpline
210
0.0
220
0.0
230
1.0
 70
    12
 71
     2
 72
     6
 73
     3
 74
     0
 42
0.000000001
 43
0.0000000001
 40
-3.774101532423085
 40
-3.774101532423085
 40
-3.774101532423085
 40
0.0
 40
0.0
 40
0.0
 10
-179.6424914422082
 20
920.2697344350786
 30
714.9442138671875
 41
0.9999999984944741
 10
-213.1719367196438
 20
954.5526265073752
 30
714.9442138671875
 41
0.9999999988416767
 10
-246.7112736271829
 20
988.8427501956426
 30
714.9442138671875
 41
1.0
  0
SPLINE
  5
9B377
330
1F
100
AcDbEntity
  8
Make2D visible lines - Tangent
100
AcDbSpline
210
0.0
220
0.0
230
1.0
 70
     8
 71
     3
 72
    14
 73
    10
 74
     0
 42
0.000000001
 43
0.0000000001
 40
0.0
 40
0.0
 40
0.0
 40
0.0
 40
1.0
 40
2.0
 40
3.0
 40
4.0
 40
5.0
 40
6.0
 40
7.0
 40
7.0
 40
7.0
 40
7.0
 10
-246.7112736271829
 20
988.8427501956426
 30
714.9442138671875
 10
-247.9551419117119
 20
990.1243315586857
 30
714.9442138671875
 10
-249.9728056663257
 20
992.8710867387046
 30
714.9442138671875
 10
-251.7076531245043
 20
997.6874141337818
 30
714.9442138671875
 10
-251.2661132555381
 20
1002.971504770687
 30
714.9442138671875
 10
-247.3764988868975
 20
1006.739802550019
 30
714.9442138671875
 10
-242.0938150313637
 20
1007.066415478856
 30
714.9442138671875
 10
-237.301772376582
 20
1005.270927479988
 30
714.9442138671875
 10
-234.5763487071995
 20
1003.224699170589
 30
714.9442138671875
 10
-233.3826346652149
 20
1002.032057124346
 30
714.9442138671875
  0
SPLINE
  5
9B378
330
1F
100
AcDbEntity
  8
Make2D visible lines - Tangent
100
AcDbSpline
210
0.0
220
0.0
230
1.0
 70
    12
 71
     2
 72
     6
 73
     3
 74
     0
 42
0.000000001
 43
0.0000000001
 40
0.0
 40
0.0
 40
0.0
 40
3.799511942617316
 40
3.799511942617316
 40
3.799511942617316
 10
-233.3826346652149
 20
1002.032057124346
 30
714.9442138671875
 41
1.0
 10
-198.8879236944262
 20
968.289735167132
 30
714.9442138671875
 41
0.999999998833878
 10
-164.3912778653575
 20
934.549391325282
 30
714.9442138671875
 41
0.9999999984898355
  0
SPLINE
  5
9B379
330
1F
100
AcDbEntity
  8
Default
100
AcDbSpline
210
0.0
220
0.0
230
1.0
 70
    12
 71
     2
 72
     6
 73
     3
 74
     0
 42
0.000000001
 43
0.0000000001
 40
0.0
 40
0.0
 40
0.0
 40
2.356194490192339
 40
2.356194490192339
 40
2.356194490192339
 10
-381.0
 20
342.9000000000003
 30
0.0
 41
1.0
 10
-380.9999999999927
 20
381.0000000000002
 30
0.0
 41
0.7071067811865471
 10
-342.9000000000014
 20
381.0000000000002
 30
0.0
 41
1.0
  0
SPLINE
  5
9B37A
330
1F
100
AcDbEntity
  8
Default
100
AcDbSpline
210
0.0
220
0.0
230
1.0
 70
    24
 71
     2
 72
     6
 73
     3
 74
     0
 42
0.000000001
 43
0.0000000001
 40
0.0
 40
0.0
 40
0.0
 40
27.0
 40
27.0
 40
27.0
 10
-342.9000000000014
 20
381.0000000000002
 30
0.0
 10
0.0
 20
381.0000000000002
 30
0.0
 10
342.9000000000014
 20
381.0000000000002
 30
0.0
  0
SPLINE
  5
9B37B
330
1F
100
AcDbEntity
  8
Default
100
AcDbSpline
210
0.0
220
0.0
230
1.0
 70
    12
 71
     2
 72
     6
 73
     3
 74
     0
 42
0.000000001
 43
0.0000000001
 40
0.0
 40
0.0
 40
0.0
 40
2.35619449019235
 40
2.35619449019235
 40
2.35619449019235
 10
342.9000000000014
 20
381.0000000000002
 30
0.0
 41
1.0
 10
380.9999999999927
 20
381.0000000000002
 30
0.0
 41
0.707106781186544
 10
381.0
 20
342.9000000000003
 30
0.0
 41
1.0
  0
SPLINE
  5
9B37C
330
1F
100
AcDbEntity
  8
Default
100
AcDbSpline
210
0.0
220
0.0
230
1.0
 70
    24
 71
     2
 72
     6
 73
     3
 74
     0
 42
0.000000001
 43
0.0000000001
 40
0.0
 40
0.0
 40
0.0
 40
27.0
 40
27.0
 40
27.0
 10
381.0
 20
342.9000000000003
 30
0.0
 10
381.0
 20
-0.0000000000002274
 30
0.0
 10
381.0
 20
-342.9000000000003
 30
0.0
  0
SPLINE
  5
9B37D
330
1F
100
AcDbEntity
  8
Default
100
AcDbSpline
210
0.0
220
0.0
230
1.0
 70
    12
 71
     2
 72
     6
 73
     3
 74
     0
 42
0.000000001
 43
0.0000000001
 40
0.0
 40
0.0
 40
0.0
 40
2.35619449019235
 40
2.35619449019235
 40
2.35619449019235
 10
381.0
 20
-342.9000000000003
 30
0.0
 41
1.0
 10
381.0
 20
-380.9999999999998
 30
0.0
 41
0.707106781186546
 10
342.9000000000014
 20
-381.0000000000002
 30
0.0
 41
1.0
  0
SPLINE
  5
9B37E
330
1F
100
AcDbEntity
  8
Default
100
AcDbSpline
210
0.0
220
0.0
230
1.0
 70
    24
 71
     2
 72
     6
 73
     3
 74
     0
 42
0.000000001
 43
0.0000000001
 40
0.0
 40
0.0
 40
0.0
 40
27.0
 40
27.0
 40
27.0
 10
342.9000000000014
 20
-381.0000000000002
 30
0.0
 10
0.0
 20
-381.0000000000002
 30
0.0
 10
-342.9000000000014
 20
-381.0000000000002
 30
0.0
  0
SPLINE
  5
9B37F
330
1F
100
AcDbEntity
  8
Default
100
AcDbSpline
210
0.0
220
0.0
230
1.0
 70
    12
 71
     2
 72
     6
 73
     3
 74
     0
 42
0.000000001
 43
0.0000000001
 40
0.0
 40
0.0
 40
0.0
 40
2.356194490192339
 40
2.356194490192339
 40
2.356194490192339
 10
-342.9000000000014
 20
-381.0000000000002
 30
0.0
 41
1.0
 10
-381.0
 20
-381.0000000000004
 30
0.0
 41
0.707106781186548
 10
-381.0
 20
-342.9000000000003
 30
0.0
 41
1.0
  0
SPLINE
  5
9B380
330
1F
100
AcDbEntity
  8
Default
100
AcDbSpline
210
0.0
220
0.0
230
1.0
 70
    24
 71
     2
 72
     6
 73
     3
 74
     0
 42
0.000000001
 43
0.0000000001
 40
0.0
 40
0.0
 40
0.0
 40
27.0
 40
27.0
 40
27.0
 10
-381.0
 20
-342.9000000000003
 30
0.0
 10
-381.0
 20
-0.0000000000002274
 30
0.0
 10
-381.0
 20
342.9000000000003
 30
0.0
  0
SPLINE
  5
9B381
330
1F
100
AcDbEntity
  8
Make2D visible lines
100
AcDbSpline
210
0.0
220
0.0
230
1.0
 70
     8
 71
     3
 72
    16
 73
    12
 74
     0
 42
0.000000001
 43
0.0000000001
 40
8.859681867019631
 40
8.859681867019631
 40
8.859681867019631
 40
8.859681867019631
 40
9.014211833764461
 40
9.264211833764461
 40
9.514211833764461
 40
9.514211833764461
 40
9.514211833764461
 40
9.764211833764461
 40
10.01421183376446
 40
10.26421183376446
 40
10.51421183376446
 40
10.51421183376446
 40
10.51421183376446
 40
10.51421183376446
 10
-209.2185598476517
 20
-708.0209267662584
 30
714.9442138671875
 10
-208.6877553034942
 20
-702.8126825660589
 30
714.9442138671875
 10
-206.9117008713538
 20
-688.8740492406983
 30
714.9442138671875
 10
-201.7542326733214
 20
-663.5734203080213
 30
714.9442138671875
 10
-195.6771182298926
 20
-645.7397555035896
 30
714.9442138671875
 10
-191.8345817386785
 20
-636.689786799818
 30
714.9442138671875
 10
-188.7352430334408
 20
-629.3026485440058
 30
714.9442138671875
 10
-181.4632575660657
 20
-614.4109311387943
 30
714.9442138671875
 10
-168.0288619443026
 20
-593.8326849019079
 30
714.9442138671875
 10
-153.4336796302264
 20
-576.3104547476083
 30
714.9442138671875
 10
-134.1249034044654
 20
-557.9392826533204
 30
714.9442138671875
 10
-101.6040752596031
 20
-541.0245960662187
 30
714.9442138671875
  0
SPLINE
  5
9B382
330
1F
100
AcDbEntity
  8
Make2D visible lines
100
AcDbSpline
210
0.0
220
0.0
230
1.0
 70
     8
 71
     3
 72
    16
 73
    12
 74
     0
 42
0.000000001
 43
0.0000000001
 40
8.859681867019631
 40
8.859681867019631
 40
8.859681867019631
 40
8.859681867019631
 40
9.014211833764461
 40
9.264211833764461
 40
9.514211833764461
 40
9.514211833764461
 40
9.514211833764461
 40
9.764211833764461
 40
10.01421183376446
 40
10.26421183376446
 40
10.51421183376446
 40
10.51421183376446
 40
10.51421183376446
 40
10.51421183376446
 10
209.4549055877915
 20
-708.0209267662584
 30
714.9442138671875
 10
208.924101043634
 20
-702.8126825660589
 30
714.9442138671875
 10
207.1480466114936
 20
-688.8740492406983
 30
714.9442138671875
 10
201.9905784134612
 20
-663.5734203080213
 30
714.9442138671875
 10
195.9134639700323
 20
-645.7397555035896
 30
714.9442138671875
 10
192.0709274788182
 20
-636.689786799818
 30
714.9442138671875
 10
188.9715887735806
 20
-629.3026485440058
 30
714.9442138671875
 10
181.6996033062055
 20
-614.4109311387943
 30
714.9442138671875
 10
168.2652076844424
 20
-593.8326849019079
 30
714.9442138671875
 10
153.6700253703661
 20
-576.3104547476083
 30
714.9442138671875
 10
134.3612491446051
 20
-557.9392826533204
 30
714.9442138671875
 10
101.8404209997429
 20
-541.0245960662187
 30
714.9442138671875
  0
LINE
  5
9B383
330
1F
100
AcDbEntity
  8
Make2D visible lines - Tangent
100
AcDbLine
 10
130.8295371373765
 20
-537.4986750489166
 30
714.9442138671875
 11
148.1595396560169
 21
-552.7647761448998
 31
714.9442138671875
  0
SPLINE
  5
9B384
330
1F
100
AcDbEntity
  8
Make2D visible lines - Tangent
100
AcDbSpline
210
0.0
220
0.0
230
1.0
 70
     8
 71
     3
 72
    24
 73
    20
 74
     0
 42
0.000000001
 43
0.0000000001
 40
-17.0
 40
-17.0
 40
-17.0
 40
-17.0
 40
-15.99999896874797
 40
-14.99999793749595
 40
-13.99999690624392
 40
-12.9999958749919
 40
-11.99999484373987
 40
-10.99999381248784
 40
-9.999992781235816
 40
-8.999991749983788
 40
-7.999990718731763
 40
-6.999989687479736
 40
-5.999988656227711
 40
-4.999987624975684
 40
-3.999986593723658
 40
-2.999985562471633
 40
-1.999984531219606
 40
-0.9999834999675806
 40
0.0
 40
0.0
 40
0.0
 40
0.0
 10
148.1595396560169
 20
-552.7647761448998
 30
714.9442138671875
 10
156.6665763778469
 20
-560.2586748031962
 30
714.9442138671875
 10
172.1865607844383
 20
-576.8972555497558
 30
714.9442138671875
 10
191.0271561509007
 20
-605.3236158527087
 30
714.9442138671875
 10
205.5855345719865
 20
-636.1377375788512
 30
714.9442138671875
 10
215.9568397488656
 20
-668.5900815908625
 30
714.9442138671875
 10
222.3458525735345
 20
-702.0417109981439
 30
714.9442138671875
 10
225.2336548591652
 20
-735.9550461523107
 30
714.9442138671875
 10
224.6811926086425
 20
-770.0256494461647
 30
714.9442138671875
 10
219.4976442979664
 20
-803.669279747787
 30
714.9442138671875
 10
213.1190061608322
 20
-837.0767945355076
 30
714.9442138671875
 10
201.9375674772896
 20
-869.3808446842194
 30
714.9442138671875
 10
184.1189782532828
 20
-898.4803240516436
 30
714.9442138671875
 10
162.1068351927033
 20
-924.6833492413959
 30
714.9442138671875
 10
133.1218498864314
 20
-943.1464565762681
 30
714.9442138671875
 10
101.209599497884
 20
-955.1243115247471
 30
714.9442138671875
 10
67.94968373167558
 20
-962.5284902465308
 30
714.9442138671875
 10
34.11961802309907
 20
-966.2540528019322
 30
714.9442138671875
 10
11.45170338828165
 20
-967.006045828525
 30
714.9442138671875
 10
0.1181728700698841
 20
-967.0027725513742
 30
714.9442138671875
  0
SPLINE
  5
9B385
330
1F
100
AcDbEntity
  8
Make2D visible lines - Tangent
100
AcDbSpline
210
0.0
220
0.0
230
1.0
 70
     8
 71
     3
 72
    24
 73
    20
 74
     0
 42
0.000000001
 43
0.0000000001
 40
0.0
 40
0.0
 40
0.0
 40
0.0
 40
0.9999834999675806
 40
1.999984531219606
 40
2.999985562471633
 40
3.999986593723658
 40
4.999987624975684
 40
5.999988656227711
 40
6.999989687479736
 40
7.999990718731763
 40
8.999991749983788
 40
9.999992781235816
 40
10.99999381248784
 40
11.99999484373987
 40
12.9999958749919
 40
13.99999690624392
 40
14.99999793749595
 40
15.99999896874797
 40
17.0
 40
17.0
 40
17.0
 40
17.0
 10
0.1181728700698841
 20
-967.0027725513742
 30
714.9442138671875
 10
-11.21535764814189
 20
-967.006045828525
 30
714.9442138671875
 10
-33.8832722829593
 20
-966.2540528019322
 30
714.9442138671875
 10
-67.7133379915358
 20
-962.5284902465308
 30
714.9442138671875
 10
-100.9732537577438
 20
-955.1243115247471
 30
714.9442138671875
 10
-132.8855041462916
 20
-943.1464565762681
 30
714.9442138671875
 10
-161.8704894525635
 20
-924.6833492413959
 30
714.9442138671875
 10
-183.8826325131431
 20
-898.4803240516436
 30
714.9442138671875
 10
-201.7012217371498
 20
-869.3808446842194
 30
714.9442138671875
 10
-212.8826604206925
 20
-837.0767945355076
 30
714.9442138671875
 10
-219.2612985578267
 20
-803.669279747787
 30
714.9442138671875
 10
-224.4448468685027
 20
-770.0256494461647
 30
714.9442138671875
 10
-224.9973091190254
 20
-735.9550461523107
 30
714.9442138671875
 10
-222.1095068333948
 20
-702.0417109981439
 30
714.9442138671875
 10
-215.7204940087258
 20
-668.5900815908625
 30
714.9442138671875
 10
-205.3491888318467
 20
-636.1377375788512
 30
714.9442138671875
 10
-190.790810410761
 20
-605.3236158527087
 30
714.9442138671875
 10
-171.9502150442986
 20
-576.8972555497558
 30
714.9442138671875
 10
-156.4302306377071
 20
-560.2586748031962
 30
714.9442138671875
 10
-147.9231939158767
 20
-552.7647761448998
 30
714.9442138671875
  0
LINE
  5
9B386
330
1F
100
AcDbEntity
  8
Make2D visible lines - Tangent
100
AcDbLine
 10
-147.9231939158767
 20
-552.7647761448998
 30
714.9442138671875
 11
-130.5931913972363
 21
-537.4986750489157
 31
714.9442138671875
  0
SPLINE
  5
9B387
330
1F
100
AcDbEntity
  8
Default
100
AcDbSpline
210
0.0
220
0.0
230
1.0
 70
     8
 71
     3
 72
    11
 73
     7
 74
     0
 42
0.000000001
 43
0.0000000001
 40
0.0
 40
0.0
 40
0.0
 40
0.0
 40
0.467605547583452
 40
0.9142111430713327
 40
1.790162585470303
 40
3.412367086947839
 40
3.412367086947839
 40
3.412367086947839
 40
3.412367086947839
 10
0.1181728700698841
 20
-978.5261567932987
 30
714.9442138671875
 10
-3.840679755444853
 20
-978.5222480104524
 30
714.9442138671875
 10
-11.5814403881518
 20
-978.4435372747344
 30
714.9442138671875
 10
-26.72905090035647
 20
-977.9012501500188
 30
714.9442138671875
 10
-51.60822713902689
 20
-976.1696535965992
 30
714.9442138671875
 10
-72.55254411755323
 20
-972.9811799336303
 30
714.9442138671875
 10
-85.96903471148289
 20
-970.034508282518
 30
714.9442138671875
  0
SPLINE
  5
9B388
330
1F
100
AcDbEntity
  8
Default
100
AcDbSpline
210
0.0
220
0.0
230
1.0
 70
     8
 71
     3
 72
     8
 73
     4
 74
     0
 42
0.000000001
 43
0.0000000001
 40
0.0
 40
0.0
 40
0.0
 40
0.0
 40
1.0
 40
1.0
 40
1.0
 40
1.0
 10
-85.96903471148289
 20
-970.034508282518
 30
714.9442138671875
 10
-125.8722802424395
 20
-961.2705352025038
 30
714.9442138671875
 10
-166.4529738359188
 20
-943.1117225316892
 30
714.9442138671875
 10
-194.1696127827513
 20
-901.8795336258186
 30
714.9442138671875
  0
SPLINE
  5
9B389
330
1F
100
AcDbEntity
  8
Default
100
AcDbSpline
210
0.0
220
0.0
230
1.0
 70
     8
 71
     3
 72
    35
 73
    31
 74
     0
 42
0.000000001
 43
0.0000000001
 40
0.0
 40
0.0
 40
0.0
 40
0.0
 40
1.200721309039849
 40
2.474806189780193
 40
3.195853407963301
 40
3.98021372722645
 40
5.573951835782332
 40
7.111438093592548
 40
8.622931506501279
 40
9.33701971540726
 40
10.03763722837931
 40
10.71619595131842
 40
11.38765340373526
 40
12.6667968358364
 40
13.90631383006255
 40
14.48211977252136
 40
15.05812707602911
 40
16.24216093903146
 40
16.56621434235525
 40
16.81447999607517
 40
17.05433016171483
 40
17.29779240719692
 40
17.64791820344995
 40
18.00118544930303
 40
18.20323209221873
 40
18.40348689596203
 40
18.79616858581712
 40
19.4508953258949
 40
20.09030225747283
 40
21.29052340907742
 40
21.29052340907742
 40
21.29052340907742
 40
21.29052340907742
 10
-194.1696127827513
 20
-901.8795336258186
 30
714.9442138671875
 10
-199.8408639900936
 20
-893.4427927366245
 30
714.9442138671875
 10
-209.8995785458651
 20
-874.9633170770563
 30
714.9442138671875
 10
-218.5930623296394
 20
-849.250826661405
 30
714.9442138671875
 10
-223.8510835460806
 20
-826.3072735827185
 30
714.9442138671875
 10
-228.119123924961
 20
-800.4063064890319
 30
714.9442138671875
 10
-231.1218780071054
 20
-767.343755012327
 30
714.9442138671875
 10
-230.0113361739354
 20
-727.9778517936432
 30
714.9442138671875
 10
-225.7885742656835
 20
-696.3656588384841
 30
714.9442138671875
 10
-220.3365328675595
 20
-672.1734039466711
 30
714.9442138671875
 10
-215.3770099157882
 20
-655.1563833088106
 30
714.9442138671875
 10
-209.464802278902
 20
-638.8177398368394
 30
714.9442138671875
 10
-200.4678227942563
 20
-618.4451745988673
 30
714.9442138671875
 10
-187.2011104165681
 20
-594.8527639051061
 30
714.9442138671875
 10
-171.3588404012771
 20
-573.9020657599106
 30
714.9442138671875
 10
-157.4435238021192
 20
-559.176360790814
 30
714.9442138671875
 10
-142.7339094921881
 20
-545.9304049293172
 30
714.9442138671875
 10
-128.3651540515616
 20
-535.6154537358924
 30
714.9442138671875
 10
-115.5623924488354
 20
-528.0432928027902
 30
714.9442138671875
 10
-109.549314195764
 20
-524.7079256067267
 30
714.9442138671875
 10
-103.99747325635
 20
-521.9545019641965
 30
714.9442138671875
 10
-97.52993528942898
 20
-519.1312686747911
 30
714.9442138671875
 10
-90.07365197798298
 20
-516.1815668686082
 30
714.9442138671875
 10
-82.89114604648876
 20
-513.5033268239336
 30
714.9442138671875
 10
-76.81300088496437
 20
-511.5018631006927
 30
714.9442138671875
 10
-70.40429377359533
 20
-509.447644461097
 30
714.9442138671875
 10
-60.27647674512536
 20
-506.4376654884631
 30
714.9442138671875
 10
-46.39842997191226
 20
-503.0380346786889
 30
714.9442138671875
 10
-25.60998047935846
 20
-499.2641751922326
 30
714.9442138671875
 10
-10.04570104459208
 20
-498.0196982663368
 30
714.9442138671875
 10
0.1181728700698841
 20
-498.0212595015763
 30
714.9442138671875
  0
SPLINE
  5
9B38A
330
1F
100
AcDbEntity
  8
Default
100
AcDbSpline
210
0.0
220
0.0
230
1.0
 70
     8
 71
     3
 72
    35
 73
    31
 74
     0
 42
0.000000001
 43
0.0000000001
 40
-21.29052340907742
 40
-21.29052340907742
 40
-21.29052340907742
 40
-21.29052340907742
 40
-20.09030225747283
 40
-19.4508953258949
 40
-18.79616858581712
 40
-18.40348689596203
 40
-18.20323209221873
 40
-18.00118544930303
 40
-17.64791820344995
 40
-17.29779240719692
 40
-17.05433016171483
 40
-16.81447999607517
 40
-16.56621434235525
 40
-16.24216093903146
 40
-15.05812707602911
 40
-14.48211977252136
 40
-13.90631383006255
 40
-12.6667968358364
 40
-11.38765340373526
 40
-10.71619595131842
 40
-10.03763722837931
 40
-9.33701971540726
 40
-8.622931506501279
 40
-7.111438093592548
 40
-5.573951835782332
 40
-3.98021372722645
 40
-3.195853407963301
 40
-2.474806189780193
 40
-1.200721309039849
 40
0.0
 40
0.0
 40
0.0
 40
0.0
 10
0.1181728700698841
 20
-498.0212595015763
 30
714.9442138671875
 10
10.2820467847323
 20
-498.0196982663368
 30
714.9442138671875
 10
25.84632621949822
 20
-499.2641751922326
 30
714.9442138671875
 10
46.63477571205203
 20
-503.0380346786889
 30
714.9442138671875
 10
60.51282248526513
 20
-506.4376654884631
 30
714.9442138671875
 10
70.64063951373509
 20
-509.447644461097
 30
714.9442138671875
 10
77.04934662510414
 20
-511.5018631006927
 30
714.9442138671875
 10
83.12749178662853
 20
-513.5033268239336
 30
714.9442138671875
 10
90.30999771812275
 20
-516.1815668686082
 30
714.9442138671875
 10
97.76628102956875
 20
-519.1312686747911
 30
714.9442138671875
 10
104.2338189964903
 20
-521.9545019641965
 30
714.9442138671875
 10
109.7856599359038
 20
-524.7079256067267
 30
714.9442138671875
 10
115.7987381889752
 20
-528.0432928027902
 30
714.9442138671875
 10
128.6014997917013
 20
-535.6154537358924
 30
714.9442138671875
 10
142.9702552323283
 20
-545.9304049293172
 30
714.9442138671875
 10
157.679869542259
 20
-559.176360790814
 30
714.9442138671875
 10
171.5951861414169
 20
-573.9020657599106
 30
714.9442138671875
 10
187.4374561567078
 20
-594.8527639051061
 30
714.9442138671875
 10
200.7041685343961
 20
-618.4451745988673
 30
714.9442138671875
 10
209.7011480190417
 20
-638.8177398368394
 30
714.9442138671875
 10
215.613355655928
 20
-655.1563833088106
 30
714.9442138671875
 10
220.5728786076993
 20
-672.1734039466711
 30
714.9442138671875
 10
226.0249200058233
 20
-696.3656588384841
 30
714.9442138671875
 10
230.2476819140752
 20
-727.9778517936432
 30
714.9442138671875
 10
231.3582237472451
 20
-767.343755012327
 30
714.9442138671875
 10
228.3554696651008
 20
-800.4063064890319
 30
714.9442138671875
 10
224.0874292862204
 20
-826.3072735827185
 30
714.9442138671875
 10
218.8294080697792
 20
-849.250826661405
 30
714.9442138671875
 10
210.1359242860048
 20
-874.9633170770563
 30
714.9442138671875
 10
200.0772097302333
 20
-893.4427927366245
 30
714.9442138671875
 10
194.405958522891
 20
-901.8795336258186
 30
714.9442138671875
  0
SPLINE
  5
9B38B
330
1F
100
AcDbEntity
  8
Default
100
AcDbSpline
210
0.0
220
0.0
230
1.0
 70
     8
 71
     3
 72
     8
 73
     4
 74
     0
 42
0.000000001
 43
0.0000000001
 40
-1.0
 40
-1.0
 40
-1.0
 40
-1.0
 40
0.0
 40
0.0
 40
0.0
 40
0.0
 10
194.405958522891
 20
-901.8795336258186
 30
714.9442138671875
 10
166.6893195760585
 20
-943.1117225316892
 30
714.9442138671875
 10
126.1086259825797
 20
-961.2705352025038
 30
714.9442138671875
 10
86.20538045162266
 20
-970.034508282518
 30
714.9442138671875
  0
SPLINE
  5
9B38C
330
1F
100
AcDbEntity
  8
Default
100
AcDbSpline
210
0.0
220
0.0
230
1.0
 70
     8
 71
     3
 72
    11
 73
     7
 74
     0
 42
0.000000001
 43
0.0000000001
 40
-3.412367086947839
 40
-3.412367086947839
 40
-3.412367086947839
 40
-3.412367086947839
 40
-1.790162585470303
 40
-0.9142111430713327
 40
-0.467605547583452
 40
0.0
 40
0.0
 40
0.0
 40
0.0
 10
86.20538045162266
 20
-970.034508282518
 30
714.9442138671875
 10
72.78888985769345
 20
-972.9811799336303
 30
714.9442138671875
 10
51.84457287916666
 20
-976.1696535965992
 30
714.9442138671875
 10
26.96539664049624
 20
-977.9012501500188
 30
714.9442138671875
 10
11.81778612829202
 20
-978.4435372747344
 30
714.9442138671875
 10
4.077025495584621
 20
-978.5222480104524
 30
714.9442138671875
 10
0.1181728700698841
 20
-978.5261567932987
 30
714.9442138671875
  0
SPLINE
  5
9B38D
330
1F
100
AcDbEntity
  8
Make2D visible lines
100
AcDbSpline
210
0.0
220
0.0
230
1.0
 70
     8
 71
     3
 72
    14
 73
    10
 74
     0
 42
0.000000001
 43
0.0000000001
 40
0.0
 40
0.0
 40
0.0
 40
0.0
 40
1.481699860261514
 40
2.955788216511598
 40
4.416700758545094
 40
5.884108663557238
 40
7.358109975686018
 40
8.858415456149499
 40
11.80891716318225
 40
11.80891716318225
 40
11.80891716318225
 40
11.80891716318225
 10
0.1174228384311391
 20
-893.856304891192
 30
714.9442138671875
 10
12.66183692948334
 20
-893.8604793992173
 30
714.9442138671875
 10
37.69436115379131
 20
-891.4879926167056
 30
714.9442138671875
 10
73.68304116539093
 20
-880.6572205340286
 30
714.9442138671875
 10
106.67351044417
 20
-862.9043057933744
 30
714.9442138671875
 10
135.4545237124985
 20
-838.9312681084083
 30
714.9442138671875
 10
159.228839727958
 20
-809.5643336861254
 30
714.9442138671875
 10
182.6817766629688
 20
-764.9375679947019
 30
714.9442138671875
 10
189.9695528480583
 20
-727.2430128107349
 30
714.9442138671875
 10
189.8993122066494
 20
-702.2626120954458
 30
714.9442138671875
  0
SPLINE
  5
9B38E
330
1F
100
AcDbEntity
  8
Make2D visible lines
100
AcDbSpline
210
0.0
220
0.0
230
1.0
 70
     8
 71
     3
 72
    14
 73
    10
 74
     0
 42
0.000000001
 43
0.0000000001
 40
-11.77268051163042
 40
-11.77268051163042
 40
-11.77268051163042
 40
-11.77268051163042
 40
-10.31305521956241
 40
-9.555794665613511
 40
-8.831339706698615
 40
-5.863857530525328
 40
-2.926562433324921
 40
-1.46251707193435
 40
0.0
 40
0.0
 40
0.0
 40
0.0
 10
189.8993122066494
 20
-702.2626120954458
 30
714.9442138671875
 10
189.871064118262
 20
-689.9030581402954
 30
714.9442138671875
 10
187.9910946026325
 20
-671.1438624585975
 30
714.9442138671875
 10
181.9681677456829
 20
-646.9456414376176
 30
714.9442138671875
 10
169.3517355455269
 20
-611.410218278953
 30
714.9442138671875
 10
137.7578064862582
 20
-563.7002242967599
 30
714.9442138671875
 10
85.00466062496299
 20
-528.1599297449946
 30
714.9442138671875
 10
37.27137695574766
 20
-513.628163605715
 30
714.9442138671875
 10
12.50227881241517
 20
-511.1430604869589
 30
714.9442138671875
 10
0.1177320575779959
 20
-511.1424686354607
 30
714.9442138671875
  0
SPLINE
  5
9B38F
330
1F
100
AcDbEntity
  8
Make2D visible lines
100
AcDbSpline
210
0.0
220
0.0
230
1.0
 70
     8
 71
     3
 72
    13
 73
     9
 74
     0
 42
0.000000001
 43
0.0000000001
 40
-11.7727400990787
 40
-11.7727400990787
 40
-11.7727400990787
 40
-11.7727400990787
 40
-8.846116153537671
 40
-5.908821855544181
 40
-2.941340482501388
 40
-2.21688566122531
 40
-1.459625214112689
 40
0.0
 40
0.0
 40
0.0
 40
0.0
 10
0.1177320575779959
 20
-511.1424686354607
 30
714.9442138671875
 10
-24.65948104978816
 20
-511.1432759106071
 30
714.9442138671875
 10
-74.29626020627939
 20
-521.1056919260373
 30
714.9442138671875
 10
-137.5267811397434
 20
-563.7003157033001
 30
714.9442138671875
 10
-169.115946355309
 20
-611.4101621938361
 30
714.9442138671875
 10
-181.7350970430761
 20
-646.9456704821965
 30
714.9442138671875
 10
-187.75627956878
 20
-671.143837589217
 30
714.9442138671875
 10
-189.6374402113488
 20
-689.9030709232869
 30
714.9442138671875
 10
-189.6649566343208
 20
-702.2626120927469
 30
714.9442138671875
  0
SPLINE
  5
9B390
330
1F
100
AcDbEntity
  8
Make2D visible lines
100
AcDbSpline
210
0.0
220
0.0
230
1.0
 70
     8
 71
     3
 72
    15
 73
    11
 74
     0
 42
0.000000001
 43
0.0000000001
 40
0.0
 40
0.0
 40
0.0
 40
0.0
 40
1.470019918796529
 40
2.970242495676713
 40
4.437641340435603
 40
5.921518609508079
 40
7.379060719792957
 40
8.853121015021443
 40
10.32719972765261
 40
11.80891731241405
 40
11.80891731241405
 40
11.80891731241405
 40
11.80891731241405
 10
-189.6649566343208
 20
-702.2626120927469
 30
714.9442138671875
 10
-189.7024245791931
 20
-714.7098293829254
 30
714.9442138671875
 10
-187.3094375091764
 20
-739.8584658738903
 30
714.9442138671875
 10
-176.597536256249
 20
-776.0617006446096
 30
714.9442138671875
 10
-158.9630274392084
 20
-809.5745826283536
 30
714.9442138671875
 10
-135.3961449534531
 20
-838.7524150110653
 30
714.9442138671875
 10
-106.5573252880281
 20
-862.8272686355009
 30
714.9442138671875
 10
-73.55573989559843
 20
-880.6250561880968
 30
714.9442138671875
 10
-37.45964524822375
 20
-891.4878049139876
 30
714.9442138671875
 10
-12.42716402842916
 20
-893.8605926242953
 30
714.9442138671875
 10
0.1174228384311391
 20
-893.856304891192
 30
714.9442138671875
  0
SPLINE
  5
9B391
330
1F
100
AcDbEntity
  8
Make2D visible lines
100
AcDbSpline
210
0.0
220
0.0
230
1.0
 70
    12
 71
     2
 72
     6
 73
     3
 74
     0
 42
0.000000001
 43
0.0000000001
 40
0.0
 40
0.0
 40
0.0
 40
0.0853474550214741
 40
0.0853474550214741
 40
0.0853474550214741
 10
241.6414450063503
 20
-1011.404520963705
 30
714.9442138671875
 41
1.0
 10
242.3526608254401
 20
-1012.223046459739
 30
714.9442138671875
 41
0.9993970637774639
 10
243.1189667499275
 20
-1012.990240802182
 30
714.9442138671875
 41
1.0
  0
SPLINE
  5
9B392
330
1F
100
AcDbEntity
  8
Make2D visible lines - Tangent
100
AcDbSpline
210
0.0
220
0.0
230
1.0
 70
     8
 71
     3
 72
    12
 73
     8
 74
     0
 42
0.000000001
 43
0.0000000001
 40
0.0
 40
0.0
 40
0.0
 40
0.0
 40
0.1510110321465192
 40
0.3037660471064116
 40
0.5900965017365678
 40
0.8249401141264362
 40
1.014583801502342
 40
1.014583801502342
 40
1.014583801502342
 40
1.014583801502342
 10
255.4994579260715
 20
-996.2876046793473
 30
714.9442138671875
 10
256.4879409178666
 20
-997.099491927382
 30
714.9442138671875
 10
258.3761229737524
 20
-998.850104416268
 30
714.9442138671875
 10
261.5952921749076
 20
-1002.687542131317
 30
714.9442138671875
 10
264.4275022009042
 20
-1007.69126201729
 30
714.9442138671875
 10
265.6148166437579
 20
-1013.71885648623
 30
714.9442138671875
 10
264.3742353882599
 20
-1017.285127453513
 30
714.9442138671875
 10
263.1959499385566
 20
-1018.418386628621
 30
714.9442138671875
  0
SPLINE
  5
9B393
330
1F
100
AcDbEntity
  8
Make2D visible lines - Tangent
100
AcDbSpline
210
0.0
220
0.0
230
1.0
 70
     8
 71
     3
 72
    12
 73
     8
 74
     0
 42
0.000000001
 43
0.0000000001
 40
-1.014583801502342
 40
-1.014583801502342
 40
-1.014583801502342
 40
-1.014583801502342
 40
-0.8249401141264362
 40
-0.5900965017365678
 40
-0.3037660471064116
 40
-0.1510110321465192
 40
0.0
 40
0.0
 40
0.0
 40
0.0
 10
263.1959499385566
 20
-1018.418386628621
 30
714.9442138671875
 10
262.0626907634487
 20
-1019.596672078324
 30
714.9442138671875
 10
258.4964197961663
 20
-1020.837253333822
 30
714.9442138671875
 10
252.4688253272261
 20
-1019.649938890968
 30
714.9442138671875
 10
247.4651054412534
 20
-1016.817728864972
 30
714.9442138671875
 10
243.627667726204
 20
-1013.598559663817
 30
714.9442138671875
 10
241.8770552373171
 20
-1011.710377607931
 30
714.9442138671875
 10
241.0651679892826
 20
-1010.721894616136
 30
714.9442138671875
  0
SPLINE
  5
9B394
330
1F
100
AcDbEntity
  8
Make2D visible lines - Tangent
100
AcDbSpline
210
0.0
220
0.0
230
1.0
 70
    12
 71
     2
 72
     6
 73
     3
 74
     0
 42
0.000000001
 43
0.0000000001
 40
0.0
 40
0.0
 40
0.0
 40
0.1369528492222414
 40
0.1369528492222414
 40
0.1369528492222414
 10
248.0713500255897
 20
-990.0888307666594
 30
714.9442138671875
 41
1.0
 10
249.2752573437424
 20
-991.3440884687574
 30
714.9442138671875
 41
0.9999966913238282
 10
250.5190390223043
 20
-992.5608695015773
 30
714.9442138671875
 41
0.9999959461296658
  0
ARC
  5
9B395
330
1F
100
AcDbEntity
  8
Make2D visible lines - Tangent
100
AcDbCircle
 10
259.6457585527246
 20
-983.7295054725597
 30
714.9442138671875
 40
12.7
100
AcDbArc
 50
224.0577447748685
 51
236.512847826462
  0
SPLINE
  5
9B396
330
1F
100
AcDbEntity
  8
Make2D visible lines - Tangent
100
AcDbSpline
210
0.0
220
0.0
230
1.0
 70
     8
 71
     3
 72
    14
 73
    10
 74
     0
 42
0.000000001
 43
0.0000000001
 40
0.2772630823298201
 40
0.2772630823298201
 40
0.2772630823298201
 40
0.2772630823298201
 40
1.0
 40
2.0
 40
3.0
 40
4.0
 40
5.0
 40
6.0
 40
7.0
 40
7.0
 40
7.0
 40
7.0
 10
252.6385337624311
 20
-994.3214269572704
 30
714.9442138671875
 10
253.4979612933526
 20
-994.8899925295171
 30
714.9442138671875
 10
255.4860466174014
 20
-996.3368831186555
 30
714.9442138671875
 10
258.321938326952
 20
-999.0024599917681
 30
714.9442138671875
 10
261.0117391251038
 20
-1002.339356265578
 30
714.9442138671875
 10
263.2068088365454
 20
-1006.026203279374
 30
714.9442138671875
 10
264.7043412739245
 20
-1010.055750331426
 30
714.9442138671875
 10
265.0788966428522
 20
-1014.385393975679
 30
714.9442138671875
 10
263.9511696976615
 20
-1017.13747695779
 30
714.9442138671875
 10
262.923981001758
 20
-1018.146435528769
 30
714.9442138671875
  0
SPLINE
  5
9B397
330
1F
100
AcDbEntity
  8
Make2D visible lines - Tangent
100
AcDbSpline
210
0.0
220
0.0
230
1.0
 70
     8
 71
     3
 72
    14
 73
    10
 74
     0
 42
0.000000001
 43
0.0000000001
 40
-7.0
 40
-7.0
 40
-7.0
 40
-7.0
 40
-6.0
 40
-5.0
 40
-4.0
 40
-3.0
 40
-2.0
 40
-1.0
 40
-0.2482205602640466
 40
-0.2482205602640466
 40
-0.2482205602640466
 40
-0.2482205602640466
 10
262.923981001758
 20
-1018.146435528769
 30
714.9442138671875
 10
261.9150224307791
 20
-1019.173624224672
 30
714.9442138671875
 10
259.1629394486681
 20
-1020.301351169862
 30
714.9442138671875
 10
254.8332958044157
 20
-1019.926795800935
 30
714.9442138671875
 10
250.8037487523643
 20
-1018.429263363555
 30
714.9442138671875
 10
247.1169017385682
 20
-1016.234193652114
 30
714.9442138671875
 10
243.7800054647578
 20
-1013.544392853962
 30
714.9442138671875
 10
241.0859957766143
 20
-1010.67825163811
 30
714.9442138671875
 10
239.6188217108001
 20
-1008.653329032014
 30
714.9442138671875
 10
239.0306165682987
 20
-1007.757260031228
 30
714.9442138671875
  0
ARC
  5
9B398
330
1F
100
AcDbEntity
  8
Make2D visible lines - Tangent
100
AcDbCircle
 10
228.413677006276
 20
-1014.726520704811
 30
714.9442138671875
 40
12.7
100
AcDbArc
 50
33.28203212183745
 51
46.02242019204315
  0
SPLINE
  5
9B399
330
1F
100
AcDbEntity
  8
Make2D visible lines - Tangent
100
AcDbSpline
210
0.0
220
0.0
230
1.0
 70
    12
 71
     2
 72
     6
 73
     3
 74
     0
 42
0.000000001
 43
0.0000000001
 40
-0.1297405451143296
 40
-0.1297405451143296
 40
-0.1297405451143296
 40
0.0
 40
0.0
 40
0.0
 10
237.2322628130705
 20
-1005.587453773872
 30
714.9442138671875
 41
0.9999960316975588
 10
236.0465549467349
 20
-1004.443325315236
 30
714.9442138671875
 41
0.999996865512317
 10
234.8573817197016
 20
-1003.302799072548
 30
714.9442138671875
 41
1.0
  0
SPLINE
  5
9B39A
330
1F
100
AcDbEntity
  8
Make2D visible lines
100
AcDbSpline
210
0.0
220
0.0
230
1.0
 70
    12
 71
     2
 72
     6
 73
     3
 74
     0
 42
0.000000001
 43
0.0000000001
 40
0.0
 40
0.0
 40
0.0
 40
0.0853474550214741
 40
0.0853474550214741
 40
0.0853474550214741
 10
-256.009956539313
 20
-996.8638814901018
 30
714.9442138671875
 41
1.0
 10
-256.8284820353465
 20
-997.5750973091916
 30
714.9442138671875
 41
0.9993970637774639
 10
-257.5956763777895
 20
-998.3414032336785
 30
714.9442138671875
 41
1.0
  0
SPLINE
  5
9B39B
330
1F
100
AcDbEntity
  8
Make2D visible lines - Tangent
100
AcDbSpline
210
0.0
220
0.0
230
1.0
 70
     8
 71
     3
 72
    12
 73
     8
 74
     0
 42
0.000000001
 43
0.0000000001
 40
0.0
 40
0.0
 40
0.0
 40
0.0
 40
0.1510110321465192
 40
0.3037660471064116
 40
0.5900965017365678
 40
0.8249401141264362
 40
1.014583801502342
 40
1.014583801502342
 40
1.014583801502342
 40
1.014583801502342
 10
-240.8930402549545
 20
-1010.721894409823
 30
714.9442138671875
 10
-241.704927502989
 20
-1011.710377401617
 30
714.9442138671875
 10
-243.4555399918759
 20
-1013.598559457504
 30
714.9442138671875
 10
-247.2929777069244
 20
-1016.817728658659
 30
714.9442138671875
 10
-252.2966975928976
 20
-1019.649938684655
 30
714.9442138671875
 10
-258.3242920618381
 20
-1020.837253127509
 30
714.9442138671875
 10
-261.8905630291201
 20
-1019.596671872011
 30
714.9442138671875
 10
-263.023822204228
 20
-1018.418386422307
 30
714.9442138671875
  0
SPLINE
  5
9B39C
330
1F
100
AcDbEntity
  8
Make2D visible lines - Tangent
100
AcDbSpline
210
0.0
220
0.0
230
1.0
 70
     8
 71
     3
 72
    12
 73
     8
 74
     0
 42
0.000000001
 43
0.0000000001
 40
-1.014583801502342
 40
-1.014583801502342
 40
-1.014583801502342
 40
-1.014583801502342
 40
-0.8249401141264362
 40
-0.5900965017365678
 40
-0.3037660471064116
 40
-0.1510110321465192
 40
0.0
 40
0.0
 40
0.0
 40
0.0
 10
-263.023822204228
 20
-1018.418386422307
 30
714.9442138671875
 10
-264.2021076539318
 20
-1017.2851272472
 30
714.9442138671875
 10
-265.4426889094293
 20
-1013.718856279917
 30
714.9442138671875
 10
-264.2553744665761
 20
-1007.691261810977
 30
714.9442138671875
 10
-261.4231644405795
 20
-1002.687541925004
 30
714.9442138671875
 10
-258.2039952394243
 20
-998.8501042099553
 30
714.9442138671875
 10
-256.315813183538
 20
-997.0994917210687
 30
714.9442138671875
 10
-255.3273301917429
 20
-996.2876044730341
 30
714.9442138671875
  0
SPLINE
  5
9B39D
330
1F
100
AcDbEntity
  8
Make2D visible lines - Tangent
100
AcDbSpline
210
0.0
220
0.0
230
1.0
 70
    12
 71
     2
 72
     6
 73
     3
 74
     0
 42
0.000000001
 43
0.0000000001
 40
0.0
 40
0.0
 40
0.0
 40
0.1369528492222414
 40
0.1369528492222414
 40
0.1369528492222414
 10
-234.6942663422674
 20
-1003.29378650934
 30
714.9442138671875
 41
1.0
 10
-235.9495240443644
 20
-1004.497693827494
 30
714.9442138671875
 41
0.9999966913238282
 10
-237.1663050771845
 20
-1005.741475506055
 30
714.9442138671875
 41
0.9999959461296658
  0
ARC
  5
9B39E
330
1F
100
AcDbEntity
  8
Make2D visible lines - Tangent
100
AcDbCircle
 10
-228.3349410481664
 20
-1014.868195036476
 30
714.9442138671875
 40
12.7
100
AcDbArc
 50
134.0577447748697
 51
146.5128478264683
  0
SPLINE
  5
9B39F
330
1F
100
AcDbEntity
  8
Make2D visible lines - Tangent
100
AcDbSpline
210
0.0
220
0.0
230
1.0
 70
     8
 71
     3
 72
    14
 73
    10
 74
     0
 42
0.000000001
 43
0.0000000001
 40
0.2772630823298201
 40
0.2772630823298201
 40
0.2772630823298201
 40
0.2772630823298201
 40
1.0
 40
2.0
 40
3.0
 40
4.0
 40
5.0
 40
6.0
 40
7.0
 40
7.0
 40
7.0
 40
7.0
 10
-238.9268625328778
 20
-1007.860970246182
 30
714.9442138671875
 10
-239.4954281051241
 20
-1008.720397777104
 30
714.9442138671875
 10
-240.9423186942627
 20
-1010.708483101153
 30
714.9442138671875
 10
-243.6078955673756
 20
-1013.544374810703
 30
714.9442138671875
 10
-246.9447918411861
 20
-1016.234175608855
 30
714.9442138671875
 10
-250.6316388549826
 20
-1018.429245320296
 30
714.9442138671875
 10
-254.6611859070331
 20
-1019.926777757675
 30
714.9442138671875
 10
-258.9908295512855
 20
-1020.301333126604
 30
714.9442138671875
 10
-261.7429125333974
 20
-1019.173606181412
 30
714.9442138671875
 10
-262.7518711043763
 20
-1018.146417485509
 30
714.9442138671875
  0
SPLINE
  5
9B3A0
330
1F
100
AcDbEntity
  8
Make2D visible lines - Tangent
100
AcDbSpline
210
0.0
220
0.0
230
1.0
 70
     8
 71
     3
 72
    14
 73
    10
 74
     0
 42
0.000000001
 43
0.0000000001
 40
-7.0
 40
-7.0
 40
-7.0
 40
-7.0
 40
-6.0
 40
-5.0
 40
-4.0
 40
-3.0
 40
-2.0
 40
-1.0
 40
-0.2482205602640466
 40
-0.2482205602640466
 40
-0.2482205602640466
 40
-0.2482205602640466
 10
-262.7518711043763
 20
-1018.146417485509
 30
714.9442138671875
 10
-263.7790598002798
 20
-1017.13745891453
 30
714.9442138671875
 10
-264.9067867454705
 20
-1014.385375932419
 30
714.9442138671875
 10
-264.5322313765423
 20
-1010.055732288167
 30
714.9442138671875
 10
-263.0346989391628
 20
-1006.026185236116
 30
714.9442138671875
 10
-260.8396292277221
 20
-1002.339338222319
 30
714.9442138671875
 10
-258.1498284295694
 20
-999.0024419485088
 30
714.9442138671875
 10
-255.2836872137168
 20
-996.3084322603659
 30
714.9442138671875
 10
-253.2587646076222
 20
-994.8412581945511
 30
714.9442138671875
 10
-252.3626956068351
 20
-994.25305305205
 30
714.9442138671875
  0
ARC
  5
9B3A1
330
1F
100
AcDbEntity
  8
Make2D visible lines - Tangent
100
AcDbCircle
 10
-259.3319562804195
 20
-983.636113490027
 30
714.9442138671875
 40
12.7
100
AcDbArc
 50
303.2820321218275
 51
316.02242019205
  0
SPLINE
  5
9B3A2
330
1F
100
AcDbEntity
  8
Make2D visible lines - Tangent
100
AcDbSpline
210
0.0
220
0.0
230
1.0
 70
    12
 71
     2
 72
     6
 73
     3
 74
     0
 42
0.000000001
 43
0.0000000001
 40
-0.1297405451143296
 40
-0.1297405451143296
 40
-0.1297405451143296
 40
0.0
 40
0.0
 40
0.0
 10
-250.1928893494792
 20
-992.454699296822
 30
714.9442138671875
 41
0.9999960316975588
 10
-249.0487608908429
 20
-991.2689914304859
 30
714.9442138671875
 41
0.999996865512317
 10
-247.9082346481555
 20
-990.0798182034529
 30
714.9442138671875
 41
1.0
  0
SPLINE
  5
9B3A3
330
1F
100
AcDbEntity
  8
Make2D visible lines
100
AcDbSpline
210
0.0
220
0.0
230
1.0
 70
    12
 71
     2
 72
     6
 73
     3
 74
     0
 42
0.000000001
 43
0.0000000001
 40
0.0
 40
0.0
 40
0.0
 40
0.0853474550214741
 40
0.0853474550214741
 40
0.0853474550214741
 10
-241.4693170657088
 20
-499.2124799444388
 30
714.9442138671875
 41
1.0
 10
-242.1805328847991
 20
-498.3939544484055
 30
714.9442138671875
 41
0.9993970637774639
 10
-242.946838809286
 20
-497.626760105962
 30
714.9442138671875
 41
1.0
  0
SPLINE
  5
9B3A4
330
1F
100
AcDbEntity
  8
Make2D visible lines - Tangent
100
AcDbSpline
210
0.0
220
0.0
230
1.0
 70
     8
 71
     3
 72
    12
 73
     8
 74
     0
 42
0.000000001
 43
0.0000000001
 40
0.0
 40
0.0
 40
0.0
 40
0.0
 40
0.1510110321465192
 40
0.3037660471064116
 40
0.5900965017365678
 40
0.8249401141264362
 40
1.014583801502342
 40
1.014583801502342
 40
1.014583801502342
 40
1.014583801502342
 10
-255.32732998543
 20
-514.3293962287972
 30
714.9442138671875
 10
-256.3158129772251
 20
-513.5175089807624
 30
714.9442138671875
 10
-258.2039950331109
 20
-511.7668964918756
 30
714.9442138671875
 10
-261.4231642342661
 20
-507.9294587768269
 30
714.9442138671875
 10
-264.2553742602627
 20
-502.925738890854
 30
714.9442138671875
 10
-265.4426887031164
 20
-496.8981444219136
 30
714.9442138671875
 10
-264.2021074476184
 20
-493.3318734546311
 30
714.9442138671875
 10
-263.0238219979156
 20
-492.1986142795234
 30
714.9442138671875
  0
SPLINE
  5
9B3A5
330
1F
100
AcDbEntity
  8
Make2D visible lines - Tangent
100
AcDbSpline
210
0.0
220
0.0
230
1.0
 70
     8
 71
     3
 72
    12
 73
     8
 74
     0
 42
0.000000001
 43
0.0000000001
 40
-1.014583801502342
 40
-1.014583801502342
 40
-1.014583801502342
 40
-1.014583801502342
 40
-0.8249401141264362
 40
-0.5900965017365678
 40
-0.3037660471064116
 40
-0.1510110321465192
 40
0.0
 40
0.0
 40
0.0
 40
0.0
 10
-263.0238219979156
 20
-492.1986142795234
 30
714.9442138671875
 10
-261.8905628228072
 20
-491.0203288298197
 30
714.9442138671875
 10
-258.3242918555247
 20
-489.779747574322
 30
714.9442138671875
 10
-252.2966973865846
 20
-490.9670620171756
 30
714.9442138671875
 10
-247.2929775006118
 20
-493.7992720431722
 30
714.9442138671875
 10
-243.4555397855629
 20
-497.0184412443272
 30
714.9442138671875
 10
-241.704927296676
 20
-498.9066233002133
 30
714.9442138671875
 10
-240.8930400486415
 20
-499.8951062920084
 30
714.9442138671875
  0
SPLINE
  5
9B3A6
330
1F
100
AcDbEntity
  8
Make2D visible lines - Tangent
100
AcDbSpline
210
0.0
220
0.0
230
1.0
 70
    12
 71
     2
 72
     6
 73
     3
 74
     0
 42
0.000000001
 43
0.0000000001
 40
0.0
 40
0.0
 40
0.0
 40
0.1369528492222414
 40
0.1369528492222414
 40
0.1369528492222414
 10
-247.8992220849487
 20
-520.5281701414839
 30
714.9442138671875
 41
1.0
 10
-249.1031294031013
 20
-519.2729124393869
 30
714.9442138671875
 41
0.9999966913238282
 10
-250.3469110816627
 20
-518.0561314065668
 30
714.9442138671875
 41
0.9999959461296658
  0
ARC
  5
9B3A7
330
1F
100
AcDbEntity
  8
Make2D visible lines - Tangent
100
AcDbCircle
 10
-259.4736306120835
 20
-526.8874954355847
 30
714.9442138671875
 40
12.7
100
AcDbArc
 50
44.05774477486851
 51
56.51284782646291
  0
SPLINE
  5
9B3A8
330
1F
100
AcDbEntity
  8
Make2D visible lines - Tangent
100
AcDbSpline
210
0.0
220
0.0
230
1.0
 70
     8
 71
     3
 72
    14
 73
    10
 74
     0
 42
0.000000001
 43
0.0000000001
 40
0.2772630823298201
 40
0.2772630823298201
 40
0.2772630823298201
 40
0.2772630823298201
 40
1.0
 40
2.0
 40
3.0
 40
4.0
 40
5.0
 40
6.0
 40
7.0
 40
7.0
 40
7.0
 40
7.0
 10
-252.4664058217895
 20
-516.2955739508735
 30
714.9442138671875
 10
-253.3258333527115
 20
-515.7270083786273
 30
714.9442138671875
 10
-255.3139186767598
 20
-514.2801177894888
 30
714.9442138671875
 10
-258.1498103863105
 20
-511.6145409163759
 30
714.9442138671875
 10
-260.8396111844627
 20
-508.2776446425659
 30
714.9442138671875
 10
-263.0346808959034
 20
-504.5907976287693
 30
714.9442138671875
 10
-264.5322133332829
 20
-500.5612505767182
 30
714.9442138671875
 10
-264.9067687022107
 20
-496.2316069324653
 30
714.9442138671875
 10
-263.77904175702
 20
-493.4795239503546
 30
714.9442138671875
 10
-262.7518530611169
 20
-492.4705653793755
 30
714.9442138671875
  0
SPLINE
  5
9B3A9
330
1F
100
AcDbEntity
  8
Make2D visible lines - Tangent
100
AcDbSpline
210
0.0
220
0.0
230
1.0
 70
     8
 71
     3
 72
    14
 73
    10
 74
     0
 42
0.000000001
 43
0.0000000001
 40
-7.0
 40
-7.0
 40
-7.0
 40
-7.0
 40
-6.0
 40
-5.0
 40
-4.0
 40
-3.0
 40
-2.0
 40
-1.0
 40
-0.2482205602640466
 40
-0.2482205602640466
 40
-0.2482205602640466
 40
-0.2482205602640466
 10
-262.7518530611169
 20
-492.4705653793755
 30
714.9442138671875
 10
-261.7428944901376
 20
-491.4433766834717
 30
714.9442138671875
 10
-258.9908115080266
 20
-490.3156497382816
 30
714.9442138671875
 10
-254.6611678637741
 20
-490.6902051072092
 30
714.9442138671875
 10
-250.6316208117228
 20
-492.1877375445885
 30
714.9442138671875
 10
-246.9447737979267
 20
-494.3828072560297
 30
714.9442138671875
 10
-243.6078775241163
 20
-497.0726080541819
 30
714.9442138671875
 10
-240.9138678359732
 20
-499.9387492700347
 30
714.9442138671875
 10
-239.4466937701582
 20
-501.9636718761297
 30
714.9442138671875
 10
-238.8584886276567
 20
-502.8597408769164
 30
714.9442138671875
  0
ARC
  5
9B3AA
330
1F
100
AcDbEntity
  8
Make2D visible lines - Tangent
100
AcDbCircle
 10
-228.2415490656349
 20
-495.8904802033322
 30
714.9442138671875
 40
12.7
100
AcDbArc
 50
213.2820321218374
 51
226.0224201920431
  0
SPLINE
  5
9B3AB
330
1F
100
AcDbEntity
  8
Make2D visible lines - Tangent
100
AcDbSpline
210
0.0
220
0.0
230
1.0
 70
    12
 71
     2
 72
     6
 73
     3
 74
     0
 42
0.000000001
 43
0.0000000001
 40
-0.1297405451143296
 40
-0.1297405451143296
 40
-0.1297405451143296
 40
0.0
 40
0.0
 40
0.0
 10
-237.060134872429
 20
-505.0295471342721
 30
714.9442138671875
 41
0.9999960316975588
 10
-235.8744270060938
 20
-506.1736755929086
 30
714.9442138671875
 41
0.999996865512317
 10
-234.6852537790601
 20
-507.3142018355961
 30
714.9442138671875
 41
1.0
  0
SPLINE
  5
9B3AC
330
1F
100
AcDbEntity
  8
Make2D visible lines - Tangent
100
AcDbSpline
210
0.0
220
0.0
230
1.0
 70
    12
 71
     2
 72
     6
 73
     3
 74
     0
 42
0.000000001
 43
0.0000000001
 40
0.0
 40
0.0
 40
0.0
 40
0.1369528492222414
 40
0.1369528492222414
 40
0.1369528492222414
 10
234.8663942829085
 20
-507.3232143988026
 30
714.9442138671875
 41
1.0
 10
236.1216519850054
 20
-506.11930708065
 30
714.9442138671875
 41
0.9999966913238282
 10
237.338433017826
 20
-504.8755254020888
 30
714.9442138671875
 41
0.9999959461296658
  0
ARC
  5
9B3AD
330
1F
100
AcDbEntity
  8
Make2D visible lines - Tangent
100
AcDbCircle
 10
228.507068988808
 20
-495.748805871668
 30
714.9442138671875
 40
12.7
100
AcDbArc
 50
314.0577447748686
 51
326.5128478264683
  0
SPLINE
  5
9B3AE
330
1F
100
AcDbEntity
  8
Make2D visible lines - Tangent
100
AcDbSpline
210
0.0
220
0.0
230
1.0
 70
     8
 71
     3
 72
    14
 73
    10
 74
     0
 42
0.000000001
 43
0.0000000001
 40
0.2772630823298201
 40
0.2772630823298201
 40
0.2772630823298201
 40
0.2772630823298201
 40
1.0
 40
2.0
 40
3.0
 40
4.0
 40
5.0
 40
6.0
 40
7.0
 40
7.0
 40
7.0
 40
7.0
 10
239.0989904735193
 20
-502.7560306619616
 30
714.9442138671875
 10
239.6675560457652
 20
-501.8966031310402
 30
714.9442138671875
 10
241.1144466349042
 20
-499.9085178069915
 30
714.9442138671875
 10
243.7800235080167
 20
-497.0726260974412
 30
714.9442138671875
 10
247.1169197818272
 20
-494.3828252992888
 30
714.9442138671875
 10
250.8037667956237
 20
-492.1877555878479
 30
714.9442138671875
 10
254.8333138476746
 20
-490.6902231504684
 30
714.9442138671875
 10
259.1629574919271
 20
-490.3156677815403
 30
714.9442138671875
 10
261.9150404740385
 20
-491.4433947267313
 30
714.9442138671875
 10
262.9239990450173
 20
-492.4705834226347
 30
714.9442138671875
  0
SPLINE
  5
9B3AF
330
1F
100
AcDbEntity
  8
Make2D visible lines - Tangent
100
AcDbSpline
210
0.0
220
0.0
230
1.0
 70
     8
 71
     3
 72
    14
 73
    10
 74
     0
 42
0.000000001
 43
0.0000000001
 40
-7.0
 40
-7.0
 40
-7.0
 40
-7.0
 40
-6.0
 40
-5.0
 40
-4.0
 40
-3.0
 40
-2.0
 40
-1.0
 40
-0.2482205602640466
 40
-0.2482205602640466
 40
-0.2482205602640466
 40
-0.2482205602640466
 10
262.9239990450173
 20
-492.4705834226347
 30
714.9442138671875
 10
263.9511877409209
 20
-493.4795419936137
 30
714.9442138671875
 10
265.0789146861116
 20
-496.2316249757249
 30
714.9442138671875
 10
264.7043593171834
 20
-500.5612686199774
 30
714.9442138671875
 10
263.2068268798043
 20
-504.5908156720285
 30
714.9442138671875
 10
261.0117571683631
 20
-508.2776626858248
 30
714.9442138671875
 10
258.321956370211
 20
-511.6145589596353
 30
714.9442138671875
 10
255.4558151543579
 20
-514.3085686477778
 30
714.9442138671875
 10
253.4308925482628
 20
-515.7757427135931
 30
714.9442138671875
 10
252.5348235474766
 20
-516.3639478560943
 30
714.9442138671875
  0
ARC
  5
9B3B0
330
1F
100
AcDbEntity
  8
Make2D visible lines - Tangent
100
AcDbCircle
 10
259.5040842210606
 20
-526.9808874181165
 30
714.9442138671875
 40
12.7
100
AcDbArc
 50
123.2820321218275
 51
136.02242019205
  0
SPLINE
  5
9B3B1
330
1F
100
AcDbEntity
  8
Make2D visible lines - Tangent
100
AcDbSpline
210
0.0
220
0.0
230
1.0
 70
    12
 71
     2
 72
     6
 73
     3
 74
     0
 42
0.000000001
 43
0.0000000001
 40
-0.1297405451143296
 40
-0.1297405451143296
 40
-0.1297405451143296
 40
0.0
 40
0.0
 40
0.0
 10
250.3650172901207
 20
-518.1623016113218
 30
714.9442138671875
 41
0.9999960316975588
 10
249.2208888314844
 20
-519.3480094776576
 30
714.9442138671875
 41
0.999996865512317
 10
248.080362588797
 20
-520.5371827046914
 30
714.9442138671875
 41
1.0
  0
SPLINE
  5
9B3B2
330
1F
100
AcDbEntity
  8
Make2D visible lines - Tangent
100
AcDbSpline
210
0.0
220
0.0
230
1.0
 70
     8
 71
     3
 72
    12
 73
     8
 74
     0
 42
0.000000001
 43
0.0000000001
 40
0.0
 40
0.0
 40
0.0
 40
0.0
 40
0.1510110321465192
 40
0.3037660471064116
 40
0.5900965017365678
 40
0.8249401141264362
 40
1.014583801502342
 40
1.014583801502342
 40
1.014583801502342
 40
1.014583801502342
 10
241.0651681955956
 20
-499.8951064983216
 30
714.9442138671875
 10
241.8770554436301
 20
-498.9066235065262
 30
714.9442138671875
 10
243.6276679325169
 20
-497.0184414506402
 30
714.9442138671875
 10
247.4651056475664
 20
-493.7992722494852
 30
714.9442138671875
 10
252.4688255335386
 20
-490.9670622234888
 30
714.9442138671875
 10
258.4964200024788
 20
-489.7797477806347
 30
714.9442138671875
 10
262.0626909697616
 20
-491.0203290361329
 30
714.9442138671875
 10
263.1959501448691
 20
-492.1986144858364
 30
714.9442138671875
  0
SPLINE
  5
9B3B3
330
1F
100
AcDbEntity
  8
Make2D visible lines - Tangent
100
AcDbSpline
210
0.0
220
0.0
230
1.0
 70
     8
 71
     3
 72
    12
 73
     8
 74
     0
 42
0.000000001
 43
0.0000000001
 40
-1.014583801502342
 40
-1.014583801502342
 40
-1.014583801502342
 40
-1.014583801502342
 40
-0.8249401141264362
 40
-0.5900965017365678
 40
-0.3037660471064116
 40
-0.1510110321465192
 40
0.0
 40
0.0
 40
0.0
 40
0.0
 10
263.1959501448691
 20
-492.1986144858364
 30
714.9442138671875
 10
264.3742355945733
 20
-493.3318736609443
 30
714.9442138671875
 10
265.6148168500708
 20
-496.8981446282265
 30
714.9442138671875
 10
264.4275024072172
 20
-502.9257390971667
 30
714.9442138671875
 10
261.595292381221
 20
-507.9294589831394
 30
714.9442138671875
 10
258.3761231800659
 20
-511.7668966981886
 30
714.9442138671875
 10
256.4879411241796
 20
-513.5175091870752
 30
714.9442138671875
 10
255.499458132384
 20
-514.3293964351101
 30
714.9442138671875
  0
SPLINE
  5
9B3B4
330
1F
100
AcDbEntity
  8
Make2D visible lines
100
AcDbSpline
210
0.0
220
0.0
230
1.0
 70
    12
 71
     2
 72
     6
 73
     3
 74
     0
 42
0.000000001
 43
0.0000000001
 40
0.0
 40
0.0
 40
0.0
 40
0.0853474550214741
 40
0.0853474550214741
 40
0.0853474550214741
 10
256.182084479954
 20
-513.7531194180427
 30
714.9442138671875
 41
1.0
 10
257.0006099759876
 20
-513.0419035989526
 30
714.9442138671875
 41
0.9993970637774639
 10
257.767804318431
 20
-512.2755976744652
 30
714.9442138671875
 41
1.0
  0
SPLINE
  5
9B3B5
330
1F
100
AcDbEntity
  8
Make2D visible lines - Tangent
100
AcDbSpline
210
0.0
220
0.0
230
1.0
 70
    12
 71
     2
 72
     6
 73
     3
 74
     0
 42
0.000000001
 43
0.0000000001
 40
-3.799577872997743
 40
-3.799577872997743
 40
-3.799577872997743
 40
0.0
 40
0.0
 40
0.0
 10
164.584458250119
 20
-934.584388279587
 30
714.9442138671875
 41
0.9999999984898234
 10
199.0987211924484
 20
-968.3401003534479
 30
714.9442138671875
 41
0.9999999988338577
 10
233.620313711891
 20
-1002.105838051575
 30
714.9442138671875
 41
1.0
  0
SPLINE
  5
9B3B6
330
1F
100
AcDbEntity
  8
Make2D visible lines - Tangent
100
AcDbSpline
210
0.0
220
0.0
230
1.0
 70
     8
 71
     3
 72
    14
 73
    10
 74
     0
 42
0.000000001
 43
0.0000000001
 40
0.0
 40
0.0
 40
0.0
 40
0.0
 40
1.0
 40
2.0
 40
3.0
 40
4.0
 40
5.0
 40
6.0
 40
7.0
 40
7.0
 40
7.0
 40
7.0
 10
233.620313711891
 20
-1002.105838051575
 30
714.9442138671875
 10
234.9018950749346
 20
-1003.349706336104
 30
714.9442138671875
 10
237.6486502549533
 20
-1005.367370090718
 30
714.9442138671875
 10
242.4649776500309
 20
-1007.102217548897
 30
714.9442138671875
 10
247.7490682869357
 20
-1006.660677679931
 30
714.9442138671875
 10
251.5173660662681
 20
-1002.771063311289
 30
714.9442138671875
 10
251.8439789951053
 20
-997.4883794557563
 30
714.9442138671875
 10
250.0484909962365
 20
-992.6963368009747
 30
714.9442138671875
 10
248.0022626868386
 20
-989.9709131315921
 30
714.9442138671875
 10
246.8096206405944
 20
-988.7771990896075
 30
714.9442138671875
  0
SPLINE
  5
9B3B7
330
1F
100
AcDbEntity
  8
Make2D visible lines - Tangent
100
AcDbSpline
210
0.0
220
0.0
230
1.0
 70
    12
 71
     2
 72
     6
 73
     3
 74
     0
 42
0.000000001
 43
0.0000000001
 40
0.0
 40
0.0
 40
0.0
 40
3.770590876880781
 40
3.770590876880781
 40
3.770590876880781
 10
246.8096206405944
 20
-988.7771990896075
 30
714.9442138671875
 41
1.0
 10
213.3241379636079
 20
-954.5450544220098
 30
714.9442138671875
 41
0.9999999988427543
 10
179.8406034022046
 20
-920.3110042390511
 30
714.9442138671875
 41
0.9999999984951207
  0
SPLINE
  5
9B3B8
330
1F
100
AcDbEntity
  8
Make2D visible lines - Tangent
100
AcDbSpline
210
0.0
220
0.0
230
1.0
 70
    12
 71
     2
 72
     6
 73
     3
 74
     0
 42
0.000000001
 43
0.0000000001
 40
-3.651972160153634
 40
-3.651972160153634
 40
-3.651972160153634
 40
0.0
 40
0.0
 40
0.0
 10
181.9846456086279
 20
-588.1284801770922
 30
714.9442138671875
 41
0.9999999985177943
 10
214.4293926866385
 20
-554.954751024236
 30
714.9442138671875
 41
0.99999999887916
 10
246.883401567824
 20
-521.7742507125018
 30
714.9442138671875
 41
1.0
  0
SPLINE
  5
9B3B9
330
1F
100
AcDbEntity
  8
Make2D visible lines - Tangent
100
AcDbSpline
210
0.0
220
0.0
230
1.0
 70
     8
 71
     3
 72
    14
 73
    10
 74
     0
 42
0.000000001
 43
0.0000000001
 40
0.0
 40
0.0
 40
0.0
 40
0.0
 40
1.0
 40
2.0
 40
3.0
 40
4.0
 40
5.0
 40
6.0
 40
7.0
 40
7.0
 40
7.0
 40
7.0
 10
246.883401567824
 20
-521.7742507125018
 30
714.9442138671875
 10
248.127269852353
 20
-520.4926693494577
 30
714.9442138671875
 10
250.1449336069668
 20
-517.7459141694397
 30
714.9442138671875
 10
251.8797810651454
 20
-512.9295867743618
 30
714.9442138671875
 10
251.4382411961797
 20
-507.6454961374571
 30
714.9442138671875
 10
247.5486268275385
 20
-503.8771983581245
 30
714.9442138671875
 10
242.2659429720052
 20
-503.5505854292875
 30
714.9442138671875
 10
237.4739003172235
 20
-505.3460734281558
 30
714.9442138671875
 10
234.7484766478406
 20
-507.3923017375543
 30
714.9442138671875
 10
233.554762605856
 20
-508.5849437837982
 30
714.9442138671875
  0
SPLINE
  5
9B3BA
330
1F
100
AcDbEntity
  8
Make2D visible lines - Tangent
100
AcDbSpline
210
0.0
220
0.0
230
1.0
 70
    12
 71
     2
 72
     6
 73
     3
 74
     0
 42
0.000000001
 43
0.0000000001
 40
0.0
 40
0.0
 40
0.0
 40
3.549969886497025
 40
3.549969886497025
 40
3.549969886497025
 10
233.554762605856
 20
-508.5849437837982
 30
714.9442138671875
 41
1.0
 10
201.3255744812395
 20
-540.1111578472049
 30
714.9442138671875
 41
0.999999998910466
 10
169.0946973019536
 20
-571.6356451007251
 30
714.9442138671875
 41
0.9999999985385732
  0
SPLINE
  5
9B3BB
330
1F
100
AcDbEntity
  8
Make2D visible lines - Tangent
100
AcDbSpline
210
0.0
220
0.0
230
1.0
 70
    12
 71
     2
 72
     6
 73
     3
 74
     0
 42
0.000000001
 43
0.0000000001
 40
-3.553602127449321
 40
-3.553602127449321
 40
-3.553602127449321
 40
0.0
 40
0.0
 40
0.0
 10
-168.8811056334302
 20
-571.6620396080871
 30
714.9442138671875
 41
0.999999998537813
 10
-201.1614400559997
 20
-540.0909860160383
 30
714.9442138671875
 41
0.9999999989093511
 10
-233.4481857712494
 20
-508.5111628565688
 30
714.9442138671875
 41
1.0
  0
SPLINE
  5
9B3BC
330
1F
100
AcDbEntity
  8
Make2D visible lines - Tangent
100
AcDbSpline
210
0.0
220
0.0
230
1.0
 70
     8
 71
     3
 72
    14
 73
    10
 74
     0
 42
0.000000001
 43
0.0000000001
 40
0.0
 40
0.0
 40
0.0
 40
0.0
 40
1.0
 40
2.0
 40
3.0
 40
4.0
 40
5.0
 40
6.0
 40
7.0
 40
7.0
 40
7.0
 40
7.0
 10
-233.4481857712494
 20
-508.5111628565688
 30
714.9442138671875
 10
-234.7297671342935
 20
-507.2672945720397
 30
714.9442138671875
 10
-237.4765223143118
 20
-505.249630817426
 30
714.9442138671875
 10
-242.2928497093894
 20
-503.5147833592474
 30
714.9442138671875
 10
-247.5769403462941
 20
-503.9563232282132
 30
714.9442138671875
 10
-251.345238125627
 20
-507.8459375968547
 30
714.9442138671875
 10
-251.6718510544638
 20
-513.1286214523876
 30
714.9442138671875
 10
-249.8763630555954
 20
-517.9206641071695
 30
714.9442138671875
 10
-247.830134746197
 20
-520.646087776552
 30
714.9442138671875
 10
-246.6374926999533
 20
-521.8398018185363
 30
714.9442138671875
  0
SPLINE
  5
9B3BD
330
1F
100
AcDbEntity
  8
Make2D visible lines - Tangent
100
AcDbSpline
210
0.0
220
0.0
230
1.0
 70
    12
 71
     2
 72
     6
 73
     3
 74
     0
 42
0.000000001
 43
0.0000000001
 40
0.0
 40
0.0
 40
0.0
 40
3.652304510727871
 40
3.652304510727871
 40
3.652304510727871
 10
-246.6374926999533
 20
-521.8398018185363
 30
714.9442138671875
 41
1.0
 10
-214.2024756392348
 20
-554.9980575029207
 30
714.9442138671875
 41
0.999999998879058
 10
-181.7692863818943
 20
-588.1581010245676
 30
714.9442138671875
 41
0.9999999985177286
  0
SPLINE
  5
9B3BE
330
1F
100
AcDbEntity
  8
Make2D visible lines - Tangent
100
AcDbSpline
210
0.0
220
0.0
230
1.0
 70
    12
 71
     2
 72
     6
 73
     3
 74
     0
 42
0.000000001
 43
0.0000000001
 40
-3.774101532423085
 40
-3.774101532423085
 40
-3.774101532423085
 40
0.0
 40
0.0
 40
0.0
 10
-179.6424914422082
 20
-920.2697344350784
 30
714.9442138671875
 41
0.9999999984944741
 10
-213.1719367196438
 20
-954.552626507375
 30
714.9442138671875
 41
0.9999999988416767
 10
-246.7112736271829
 20
-988.8427501956424
 30
714.9442138671875
 41
1.0
  0
SPLINE
  5
9B3BF
330
1F
100
AcDbEntity
  8
Make2D visible lines - Tangent
100
AcDbSpline
210
0.0
220
0.0
230
1.0
 70
     8
 71
     3
 72
    14
 73
    10
 74
     0
 42
0.000000001
 43
0.0000000001
 40
0.0
 40
0.0
 40
0.0
 40
0.0
 40
1.0
 40
2.0
 40
3.0
 40
4.0
 40
5.0
 40
6.0
 40
7.0
 40
7.0
 40
7.0
 40
7.0
 10
-246.7112736271829
 20
-988.8427501956424
 30
714.9442138671875
 10
-247.9551419117119
 20
-990.1243315586857
 30
714.9442138671875
 10
-249.9728056663257
 20
-992.8710867387046
 30
714.9442138671875
 10
-251.7076531245043
 20
-997.6874141337818
 30
714.9442138671875
 10
-251.2661132555381
 20
-1002.971504770687
 30
714.9442138671875
 10
-247.3764988868975
 20
-1006.739802550019
 30
714.9442138671875
 10
-242.0938150313637
 20
-1007.066415478856
 30
714.9442138671875
 10
-237.301772376582
 20
-1005.270927479988
 30
714.9442138671875
 10
-234.5763487071995
 20
-1003.224699170589
 30
714.9442138671875
 10
-233.3826346652149
 20
-1002.032057124346
 30
714.9442138671875
  0
SPLINE
  5
9B3C0
330
1F
100
AcDbEntity
  8
Make2D visible lines - Tangent
100
AcDbSpline
210
0.0
220
0.0
230
1.0
 70
    12
 71
     2
 72
     6
 73
     3
 74
     0
 42
0.000000001
 43
0.0000000001
 40
0.0
 40
0.0
 40
0.0
 40
3.799511942617316
 40
3.799511942617316
 40
3.799511942617316
 10
-233.3826346652149
 20
-1002.032057124346
 30
714.9442138671875
 41
1.0
 10
-198.8879236944262
 20
-968.2897351671318
 30
714.9442138671875
 41
0.999999998833878
 10
-164.3912778653575
 20
-934.5493913252818
 30
714.9442138671875
 41
0.9999999984898355
  0
SPLINE
  5
9B3C1
330
1F
100
AcDbEntity
  8
Make2D visible lines
100
AcDbSpline
210
0.0
220
0.0
230
1.0
 70
     8
 71
     3
 72
    16
 73
    12
 74
     0
 42
0.000000001
 43
0.0000000001
 40
8.859681867019631
 40
8.859681867019631
 40
8.859681867019631
 40
8.859681867019631
 40
9.014211833764461
 40
9.264211833764461
 40
9.514211833764461
 40
9.514211833764461
 40
9.514211833764461
 40
9.764211833764461
 40
10.01421183376446
 40
10.26421183376446
 40
10.51421183376446
 40
10.51421183376446
 40
10.51421183376446
 40
10.51421183376446
 10
708.0210387070628
 20
-209.2186717884559
 30
714.9442138671875
 10
702.8127945068632
 20
-208.6878672442984
 30
714.9442138671875
 10
688.8741611815027
 20
-206.911812812158
 30
714.9442138671875
 10
663.5735322488256
 20
-201.7543446141257
 30
714.9442138671875
 10
645.739867444394
 20
-195.6772301706968
 30
714.9442138671875
 10
636.6898987406224
 20
-191.8346936794827
 30
714.9442138671875
 10
629.3027604848101
 20
-188.735354974245
 30
714.9442138671875
 10
614.4110430795986
 20
-181.46336950687
 30
714.9442138671875
 10
593.8327968427123
 20
-168.0289738851069
 30
714.9442138671875
 10
576.3105666884126
 20
-153.4337915710306
 30
714.9442138671875
 10
557.9393945941247
 20
-134.1250153452696
 30
714.9442138671875
 10
541.0247080070231
 20
-101.6041872004074
 30
714.9442138671875
  0
SPLINE
  5
9B3C2
330
1F
100
AcDbEntity
  8
Make2D visible lines
100
AcDbSpline
210
0.0
220
0.0
230
1.0
 70
     8
 71
     3
 72
    16
 73
    12
 74
     0
 42
0.000000001
 43
0.0000000001
 40
8.859681867019631
 40
8.859681867019631
 40
8.859681867019631
 40
8.859681867019631
 40
9.014211833764461
 40
9.264211833764461
 40
9.514211833764461
 40
9.514211833764461
 40
9.514211833764461
 40
9.764211833764461
 40
10.01421183376446
 40
10.26421183376446
 40
10.51421183376446
 40
10.51421183376446
 40
10.51421183376446
 40
10.51421183376446
 10
708.0210387070628
 20
209.4547936469872
 30
714.9442138671875
 10
702.8127945068632
 20
208.9239891028297
 30
714.9442138671875
 10
688.8741611815027
 20
207.1479346706893
 30
714.9442138671875
 10
663.5735322488256
 20
201.990466472657
 30
714.9442138671875
 10
645.739867444394
 20
195.9133520292281
 30
714.9442138671875
 10
636.6898987406224
 20
192.070815538014
 30
714.9442138671875
 10
629.3027604848101
 20
188.9714768327763
 30
714.9442138671875
 10
614.4110430795986
 20
181.6994913654013
 30
714.9442138671875
 10
593.8327968427123
 20
168.2650957436382
 30
714.9442138671875
 10
576.3105666884126
 20
153.6699134295619
 30
714.9442138671875
 10
557.9393945941247
 20
134.3611372038009
 30
714.9442138671875
 10
541.0247080070231
 20
101.8403090589387
 30
714.9442138671875
  0
LINE
  5
9B3C3
330
1F
100
AcDbEntity
  8
Make2D visible lines - Tangent
100
AcDbLine
 10
537.498786989721
 20
130.8294251965723
 30
714.9442138671875
 11
552.7648880857042
 21
148.1594277152127
 31
714.9442138671875
  0
SPLINE
  5
9B3C4
330
1F
100
AcDbEntity
  8
Make2D visible lines - Tangent
100
AcDbSpline
210
0.0
220
0.0
230
1.0
 70
     8
 71
     3
 72
    24
 73
    20
 74
     0
 42
0.000000001
 43
0.0000000001
 40
-17.0
 40
-17.0
 40
-17.0
 40
-17.0
 40
-15.99999896874797
 40
-14.99999793749595
 40
-13.99999690624392
 40
-12.9999958749919
 40
-11.99999484373987
 40
-10.99999381248784
 40
-9.999992781235816
 40
-8.999991749983788
 40
-7.999990718731763
 40
-6.999989687479736
 40
-5.999988656227711
 40
-4.999987624975684
 40
-3.999986593723658
 40
-2.999985562471633
 40
-1.999984531219606
 40
-0.9999834999675806
 40
0.0
 40
0.0
 40
0.0
 40
0.0
 10
552.7648880857042
 20
148.1594277152127
 30
714.9442138671875
 10
560.2587867440005
 20
156.6664644370427
 30
714.9442138671875
 10
576.8973674905602
 20
172.1864488436341
 30
714.9442138671875
 10
605.3237277935131
 20
191.0270442100965
 30
714.9442138671875
 10
636.1378495196555
 20
205.5854226311823
 30
714.9442138671875
 10
668.5901935316668
 20
215.9567278080614
 30
714.9442138671875
 10
702.0418229389482
 20
222.3457406327303
 30
714.9442138671875
 10
735.955158093115
 20
225.2335429183609
 30
714.9442138671875
 10
770.025761386969
 20
224.6810806678383
 30
714.9442138671875
 10
803.6693916885914
 20
219.4975323571622
 30
714.9442138671875
 10
837.076906476312
 20
213.118894220028
 30
714.9442138671875
 10
869.3809566250237
 20
201.9374555364854
 30
714.9442138671875
 10
898.480435992448
 20
184.1188663124786
 30
714.9442138671875
 10
924.6834611822002
 20
162.1067232518991
 30
714.9442138671875
 10
943.1465685170724
 20
133.1217379456271
 30
714.9442138671875
 10
955.1244234655515
 20
101.2094875570798
 30
714.9442138671875
 10
962.5286021873352
 20
67.94957179087134
 30
714.9442138671875
 10
966.2541647427365
 20
34.11950608229484
 30
714.9442138671875
 10
967.0061577693294
 20
11.45159144747742
 30
714.9442138671875
 10
967.0028844921786
 20
0.1180609292656527
 30
714.9442138671875
  0
SPLINE
  5
9B3C5
330
1F
100
AcDbEntity
  8
Make2D visible lines - Tangent
100
AcDbSpline
210
0.0
220
0.0
230
1.0
 70
     8
 71
     3
 72
    24
 73
    20
 74
     0
 42
0.000000001
 43
0.0000000001
 40
0.0
 40
0.0
 40
0.0
 40
0.0
 40
0.9999834999675806
 40
1.999984531219606
 40
2.999985562471633
 40
3.999986593723658
 40
4.999987624975684
 40
5.999988656227711
 40
6.999989687479736
 40
7.999990718731763
 40
8.999991749983788
 40
9.999992781235816
 40
10.99999381248784
 40
11.99999484373987
 40
12.9999958749919
 40
13.99999690624392
 40
14.99999793749595
 40
15.99999896874797
 40
17.0
 40
17.0
 40
17.0
 40
17.0
 10
967.0028844921786
 20
0.1180609292656527
 30
714.9442138671875
 10
967.0061577693294
 20
-11.21546958894612
 30
714.9442138671875
 10
966.2541647427365
 20
-33.88338422376353
 30
714.9442138671875
 10
962.5286021873352
 20
-67.71344993234004
 30
714.9442138671875
 10
955.1244234655515
 20
-100.973365698548
 30
714.9442138671875
 10
943.1465685170724
 20
-132.8856160870958
 30
714.9442138671875
 10
924.6834611822002
 20
-161.8706013933678
 30
714.9442138671875
 10
898.480435992448
 20
-183.8827444539473
 30
714.9442138671875
 10
869.3809566250237
 20
-201.7013336779541
 30
714.9442138671875
 10
837.076906476312
 20
-212.8827723614967
 30
714.9442138671875
 10
803.6693916885914
 20
-219.2614104986309
 30
714.9442138671875
 10
770.025761386969
 20
-224.444958809307
 30
714.9442138671875
 10
735.955158093115
 20
-224.9974210598296
 30
714.9442138671875
 10
702.0418229389482
 20
-222.109618774199
 30
714.9442138671875
 10
668.5901935316668
 20
-215.7206059495301
 30
714.9442138671875
 10
636.1378495196555
 20
-205.349300772651
 30
714.9442138671875
 10
605.3237277935131
 20
-190.7909223515652
 30
714.9442138671875
 10
576.8973674905602
 20
-171.9503269851028
 30
714.9442138671875
 10
560.2587867440005
 20
-156.4303425785114
 30
714.9442138671875
 10
552.7648880857042
 20
-147.9233058566809
 30
714.9442138671875
  0
LINE
  5
9B3C6
330
1F
100
AcDbEntity
  8
Make2D visible lines - Tangent
100
AcDbLine
 10
552.7648880857042
 20
-147.9233058566809
 30
714.9442138671875
 11
537.4987869897201
 21
-130.5933033380405
 31
714.9442138671875
  0
SPLINE
  5
9B3C7
330
1F
100
AcDbEntity
  8
Default
100
AcDbSpline
210
0.0
220
0.0
230
1.0
 70
     8
 71
     3
 72
    11
 73
     7
 74
     0
 42
0.000000001
 43
0.0000000001
 40
0.0
 40
0.0
 40
0.0
 40
0.0
 40
0.467605547583452
 40
0.9142111430713327
 40
1.790162585470303
 40
3.412367086947839
 40
3.412367086947839
 40
3.412367086947839
 40
3.412367086947839
 10
978.5262687341031
 20
0.1180609292656527
 30
714.9442138671875
 10
978.5223599512567
 20
-3.840791696249084
 30
714.9442138671875
 10
978.4436492155387
 20
-11.58155232895603
 30
714.9442138671875
 10
977.9013620908232
 20
-26.7291628411607
 30
714.9442138671875
 10
976.1697655374035
 20
-51.60833907983112
 30
714.9442138671875
 10
972.9812918744347
 20
-72.55265605835745
 30
714.9442138671875
 10
970.0346202233223
 20
-85.96914665228712
 30
714.9442138671875
  0
SPLINE
  5
9B3C8
330
1F
100
AcDbEntity
  8
Default
100
AcDbSpline
210
0.0
220
0.0
230
1.0
 70
     8
 71
     3
 72
     8
 73
     4
 74
     0
 42
0.000000001
 43
0.0000000001
 40
0.0
 40
0.0
 40
0.0
 40
0.0
 40
1.0
 40
1.0
 40
1.0
 40
1.0
 10
970.0346202233223
 20
-85.96914665228712
 30
714.9442138671875
 10
961.2706471433082
 20
-125.8723921832437
 30
714.9442138671875
 10
943.1118344724936
 20
-166.453085776723
 30
714.9442138671875
 10
901.879645566623
 20
-194.1697247235555
 30
714.9442138671875
  0
SPLINE
  5
9B3C9
330
1F
100
AcDbEntity
  8
Default
100
AcDbSpline
210
0.0
220
0.0
230
1.0
 70
     8
 71
     3
 72
    35
 73
    31
 74
     0
 42
0.000000001
 43
0.0000000001
 40
0.0
 40
0.0
 40
0.0
 40
0.0
 40
1.200721309039849
 40
2.474806189780193
 40
3.195853407963301
 40
3.98021372722645
 40
5.573951835782332
 40
7.111438093592548
 40
8.622931506501279
 40
9.33701971540726
 40
10.03763722837931
 40
10.71619595131842
 40
11.38765340373526
 40
12.6667968358364
 40
13.90631383006255
 40
14.48211977252136
 40
15.05812707602911
 40
16.24216093903146
 40
16.56621434235525
 40
16.81447999607517
 40
17.05433016171483
 40
17.29779240719692
 40
17.64791820344995
 40
18.00118544930303
 40
18.20323209221873
 40
18.40348689596203
 40
18.79616858581712
 40
19.4508953258949
 40
20.09030225747283
 40
21.29052340907742
 40
21.29052340907742
 40
21.29052340907742
 40
21.29052340907742
 10
901.879645566623
 20
-194.1697247235555
 30
714.9442138671875
 10
893.4429046774289
 20
-199.8409759308978
 30
714.9442138671875
 10
874.9634290178606
 20
-209.8996904866693
 30
714.9442138671875
 10
849.2509386022094
 20
-218.5931742704437
 30
714.9442138671875
 10
826.3073855235228
 20
-223.8511954868849
 30
714.9442138671875
 10
800.4064184298362
 20
-228.1192358657653
 30
714.9442138671875
 10
767.3438669531313
 20
-231.1219899479096
 30
714.9442138671875
 10
727.9779637344476
 20
-230.0114481147397
 30
714.9442138671875
 10
696.3657707792885
 20
-225.7886862064878
 30
714.9442138671875
 10
672.1735158874754
 20
-220.3366448083638
 30
714.9442138671875
 10
655.156495249615
 20
-215.3771218565925
 30
714.9442138671875
 10
638.8178517776438
 20
-209.4649142197062
 30
714.9442138671875
 10
618.4452865396716
 20
-200.4679347350605
 30
714.9442138671875
 10
594.8528758459104
 20
-187.2012223573723
 30
714.9442138671875
 10
573.902177700715
 20
-171.3589523420813
 30
714.9442138671875
 10
559.1764727316184
 20
-157.4436357429234
 30
714.9442138671875
 10
545.9305168701215
 20
-142.7340214329923
 30
714.9442138671875
 10
535.6155656766967
 20
-128.3652659923658
 30
714.9442138671875
 10
528.0434047435945
 20
-115.5625043896397
 30
714.9442138671875
 10
524.708037547531
 20
-109.5494261365683
 30
714.9442138671875
 10
521.9546139050009
 20
-103.9975851971543
 30
714.9442138671875
 10
519.1313806155955
 20
-97.53004723023321
 30
714.9442138671875
 10
516.1816788094125
 20
-90.07376391878722
 30
714.9442138671875
 10
513.503438764738
 20
-82.89125798729299
 30
714.9442138671875
 10
511.5019750414971
 20
-76.8131128257686
 30
714.9442138671875
 10
509.4477564019014
 20
-70.40440571439956
 30
714.9442138671875
 10
506.4377774292674
 20
-60.27658868592959
 30
714.9442138671875
 10
503.0381466194932
 20
-46.39854191271649
 30
714.9442138671875
 10
499.2642871330369
 20
-25.61009242016269
 30
714.9442138671875
 10
498.0198102071412
 20
-10.04581298539631
 30
714.9442138671875
 10
498.0213714423807
 20
0.1180609292656527
 30
714.9442138671875
  0
SPLINE
  5
9B3CA
330
1F
100
AcDbEntity
  8
Default
100
AcDbSpline
210
0.0
220
0.0
230
1.0
 70
     8
 71
     3
 72
    35
 73
    31
 74
     0
 42
0.000000001
 43
0.0000000001
 40
-21.29052340907742
 40
-21.29052340907742
 40
-21.29052340907742
 40
-21.29052340907742
 40
-20.09030225747283
 40
-19.4508953258949
 40
-18.79616858581712
 40
-18.40348689596203
 40
-18.20323209221873
 40
-18.00118544930303
 40
-17.64791820344995
 40
-17.29779240719692
 40
-17.05433016171483
 40
-16.81447999607517
 40
-16.56621434235525
 40
-16.24216093903146
 40
-15.05812707602911
 40
-14.48211977252136
 40
-13.90631383006255
 40
-12.6667968358364
 40
-11.38765340373526
 40
-10.71619595131842
 40
-10.03763722837931
 40
-9.33701971540726
 40
-8.622931506501279
 40
-7.111438093592548
 40
-5.573951835782332
 40
-3.98021372722645
 40
-3.195853407963301
 40
-2.474806189780193
 40
-1.200721309039849
 40
0.0
 40
0.0
 40
0.0
 40
0.0
 10
498.0213714423807
 20
0.1180609292656527
 30
714.9442138671875
 10
498.0198102071412
 20
10.28193484392807
 30
714.9442138671875
 10
499.2642871330369
 20
25.84621427869399
 30
714.9442138671875
 10
503.0381466194932
 20
46.63466377124779
 30
714.9442138671875
 10
506.4377774292674
 20
60.5127105444609
 30
714.9442138671875
 10
509.4477564019014
 20
70.64052757293087
 30
714.9442138671875
 10
511.5019750414971
 20
77.0492346842999
 30
714.9442138671875
 10
513.503438764738
 20
83.1273798458243
 30
714.9442138671875
 10
516.1816788094125
 20
90.30988577731852
 30
714.9442138671875
 10
519.1313806155955
 20
97.76616908876452
 30
714.9442138671875
 10
521.9546139050009
 20
104.233707055686
 30
714.9442138671875
 10
524.708037547531
 20
109.7855479950996
 30
714.9442138671875
 10
528.0434047435945
 20
115.798626248171
 30
714.9442138671875
 10
535.6155656766967
 20
128.6013878508971
 30
714.9442138671875
 10
545.9305168701215
 20
142.9701432915241
 30
714.9442138671875
 10
559.1764727316184
 20
157.6797576014547
 30
714.9442138671875
 10
573.902177700715
 20
171.5950742006126
 30
714.9442138671875
 10
594.8528758459104
 20
187.4373442159036
 30
714.9442138671875
 10
618.4452865396716
 20
200.7040565935919
 30
714.9442138671875
 10
638.8178517776438
 20
209.7010360782375
 30
714.9442138671875
 10
655.156495249615
 20
215.6132437151238
 30
714.9442138671875
 10
672.1735158874754
 20
220.5727666668951
 30
714.9442138671875
 10
696.3657707792885
 20
226.0248080650191
 30
714.9442138671875
 10
727.9779637344476
 20
230.247569973271
 30
714.9442138671875
 10
767.3438669531313
 20
231.3581118064409
 30
714.9442138671875
 10
800.4064184298362
 20
228.3553577242966
 30
714.9442138671875
 10
826.3073855235228
 20
224.0873173454162
 30
714.9442138671875
 10
849.2509386022094
 20
218.829296128975
 30
714.9442138671875
 10
874.9634290178606
 20
210.1358123452006
 30
714.9442138671875
 10
893.4429046774289
 20
200.0770977894291
 30
714.9442138671875
 10
901.879645566623
 20
194.4058465820868
 30
714.9442138671875
  0
SPLINE
  5
9B3CB
330
1F
100
AcDbEntity
  8
Default
100
AcDbSpline
210
0.0
220
0.0
230
1.0
 70
     8
 71
     3
 72
     8
 73
     4
 74
     0
 42
0.000000001
 43
0.0000000001
 40
-1.0
 40
-1.0
 40
-1.0
 40
-1.0
 40
0.0
 40
0.0
 40
0.0
 40
0.0
 10
901.879645566623
 20
194.4058465820868
 30
714.9442138671875
 10
943.1118344724936
 20
166.6892076352543
 30
714.9442138671875
 10
961.2706471433082
 20
126.1085140417755
 30
714.9442138671875
 10
970.0346202233223
 20
86.20526851081843
 30
714.9442138671875
  0
SPLINE
  5
9B3CC
330
1F
100
AcDbEntity
  8
Default
100
AcDbSpline
210
0.0
220
0.0
230
1.0
 70
     8
 71
     3
 72
    11
 73
     7
 74
     0
 42
0.000000001
 43
0.0000000001
 40
-3.412367086947839
 40
-3.412367086947839
 40
-3.412367086947839
 40
-3.412367086947839
 40
-1.790162585470303
 40
-0.9142111430713327
 40
-0.467605547583452
 40
0.0
 40
0.0
 40
0.0
 40
0.0
 10
970.0346202233223
 20
86.20526851081843
 30
714.9442138671875
 10
972.9812918744347
 20
72.78877791688922
 30
714.9442138671875
 10
976.1697655374035
 20
51.84446093836243
 30
714.9442138671875
 10
977.9013620908232
 20
26.96528469969201
 30
714.9442138671875
 10
978.4436492155387
 20
11.81767418748779
 30
714.9442138671875
 10
978.5223599512567
 20
4.076913554780389
 30
714.9442138671875
 10
978.5262687341031
 20
0.1180609292656527
 30
714.9442138671875
  0
SPLINE
  5
9B3CD
330
1F
100
AcDbEntity
  8
Make2D visible lines
100
AcDbSpline
210
0.0
220
0.0
230
1.0
 70
     8
 71
     3
 72
    14
 73
    10
 74
     0
 42
0.000000001
 43
0.0000000001
 40
0.0
 40
0.0
 40
0.0
 40
0.0
 40
1.481699860261514
 40
2.955788216511598
 40
4.416700758545094
 40
5.884108663557238
 40
7.358109975686018
 40
8.858415456149499
 40
11.80891716318225
 40
11.80891716318225
 40
11.80891716318225
 40
11.80891716318225
 10
893.8564168319963
 20
0.1173108976269077
 30
714.9442138671875
 10
893.8605913400216
 20
12.66172498867911
 30
714.9442138671875
 10
891.4881045575098
 20
37.69424921298707
 30
714.9442138671875
 10
880.6573324748329
 20
73.6829292245867
 30
714.9442138671875
 10
862.9044177341787
 20
106.6733985033657
 30
714.9442138671875
 10
838.9313800492127
 20
135.4544117716942
 30
714.9442138671875
 10
809.5644456269297
 20
159.2287277871538
 30
714.9442138671875
 10
764.9376799355062
 20
182.6816647221645
 30
714.9442138671875
 10
727.2431247515393
 20
189.9694409072541
 30
714.9442138671875
 10
702.2627240362502
 20
189.8992002658452
 30
714.9442138671875
  0
SPLINE
  5
9B3CE
330
1F
100
AcDbEntity
  8
Make2D visible lines
100
AcDbSpline
210
0.0
220
0.0
230
1.0
 70
     8
 71
     3
 72
    14
 73
    10
 74
     0
 42
0.000000001
 43
0.0000000001
 40
-11.77268051163042
 40
-11.77268051163042
 40
-11.77268051163042
 40
-11.77268051163042
 40
-10.31305521956241
 40
-9.555794665613511
 40
-8.831339706698615
 40
-5.863857530525328
 40
-2.926562433324921
 40
-1.46251707193435
 40
0.0
 40
0.0
 40
0.0
 40
0.0
 10
702.2627240362502
 20
189.8992002658452
 30
714.9442138671875
 10
689.9031700810998
 20
189.8709521774577
 30
714.9442138671875
 10
671.1439743994018
 20
187.9909826618283
 30
714.9442138671875
 10
646.9457533784219
 20
181.9680558048786
 30
714.9442138671875
 10
611.4103302197573
 20
169.3516236047227
 30
714.9442138671875
 10
563.7003362375643
 20
137.757694545454
 30
714.9442138671875
 10
528.1600416857989
 20
85.00454868415875
 30
714.9442138671875
 10
513.6282755465193
 20
37.27126501494343
 30
714.9442138671875
 10
511.1431724277633
 20
12.50216687161094
 30
714.9442138671875
 10
511.142580576265
 20
0.1176201167737645
 30
714.9442138671875
  0
SPLINE
  5
9B3CF
330
1F
100
AcDbEntity
  8
Make2D visible lines
100
AcDbSpline
210
0.0
220
0.0
230
1.0
 70
     8
 71
     3
 72
    13
 73
     9
 74
     0
 42
0.000000001
 43
0.0000000001
 40
-11.7727400990787
 40
-11.7727400990787
 40
-11.7727400990787
 40
-11.7727400990787
 40
-8.846116153537671
 40
-5.908821855544181
 40
-2.941340482501388
 40
-2.21688566122531
 40
-1.459625214112689
 40
0.0
 40
0.0
 40
0.0
 40
0.0
 10
511.142580576265
 20
0.1176201167737645
 30
714.9442138671875
 10
511.1433878514114
 20
-24.65959299059239
 30
714.9442138671875
 10
521.1058038668417
 20
-74.29637214708361
 30
714.9442138671875
 10
563.7004276441045
 20
-137.5268930805476
 30
714.9442138671875
 10
611.4102741346404
 20
-169.1160582961132
 30
714.9442138671875
 10
646.9457824230008
 20
-181.7352089838804
 30
714.9442138671875
 10
671.1439495300213
 20
-187.7563915095842
 30
714.9442138671875
 10
689.9031828640913
 20
-189.637552152153
 30
714.9442138671875
 10
702.2627240335513
 20
-189.665068575125
 30
714.9442138671875
  0
SPLINE
  5
9B3D0
330
1F
100
AcDbEntity
  8
Make2D visible lines
100
AcDbSpline
210
0.0
220
0.0
230
1.0
 70
     8
 71
     3
 72
    15
 73
    11
 74
     0
 42
0.000000001
 43
0.0000000001
 40
0.0
 40
0.0
 40
0.0
 40
0.0
 40
1.470019918796529
 40
2.970242495676713
 40
4.437641340435603
 40
5.921518609508079
 40
7.379060719792957
 40
8.853121015021443
 40
10.32719972765261
 40
11.80891731241405
 40
11.80891731241405
 40
11.80891731241405
 40
11.80891731241405
 10
702.2627240335513
 20
-189.665068575125
 30
714.9442138671875
 10
714.7099413237298
 20
-189.7025365199973
 30
714.9442138671875
 10
739.8585778146947
 20
-187.3095494499806
 30
714.9442138671875
 10
776.061812585414
 20
-176.5976481970532
 30
714.9442138671875
 10
809.574694569158
 20
-158.9631393800126
 30
714.9442138671875
 10
838.7525269518697
 20
-135.3962568942573
 30
714.9442138671875
 10
862.8273805763052
 20
-106.5574372288323
 30
714.9442138671875
 10
880.6251681289012
 20
-73.55585183640267
 30
714.9442138671875
 10
891.4879168547919
 20
-37.45975718902798
 30
714.9442138671875
 10
893.8607045650995
 20
-12.42727596923339
 30
714.9442138671875
 10
893.8564168319963
 20
0.1173108976269077
 30
714.9442138671875
  0
SPLINE
  5
9B3D1
330
1F
100
AcDbEntity
  8
Make2D visible lines
100
AcDbSpline
210
0.0
220
0.0
230
1.0
 70
    12
 71
     2
 72
     6
 73
     3
 74
     0
 42
0.000000001
 43
0.0000000001
 40
0.0
 40
0.0
 40
0.0
 40
0.0853474550214741
 40
0.0853474550214741
 40
0.0853474550214741
 10
1011.40463290451
 20
241.6413330655461
 30
714.9442138671875
 41
1.0
 10
1012.223158400543
 20
242.3525488846359
 30
714.9442138671875
 41
0.9993970637774639
 10
1012.990352742986
 20
243.1188548091232
 30
714.9442138671875
 41
1.0
  0
SPLINE
  5
9B3D2
330
1F
100
AcDbEntity
  8
Make2D visible lines - Tangent
100
AcDbSpline
210
0.0
220
0.0
230
1.0
 70
     8
 71
     3
 72
    12
 73
     8
 74
     0
 42
0.000000001
 43
0.0000000001
 40
0.0
 40
0.0
 40
0.0
 40
0.0
 40
0.1510110321465192
 40
0.3037660471064116
 40
0.5900965017365678
 40
0.8249401141264362
 40
1.014583801502342
 40
1.014583801502342
 40
1.014583801502342
 40
1.014583801502342
 10
996.2877166201517
 20
255.4993459852673
 30
714.9442138671875
 10
997.0996038681864
 20
256.4878289770624
 30
714.9442138671875
 10
998.8502163570723
 20
258.3760110329482
 30
714.9442138671875
 10
1002.687654072122
 20
261.5951802341034
 30
714.9442138671875
 10
1007.691373958095
 20
264.4273902601
 30
714.9442138671875
 10
1013.718968427034
 20
265.6147047029536
 30
714.9442138671875
 10
1017.285239394317
 20
264.3741234474557
 30
714.9442138671875
 10
1018.418498569425
 20
263.1958379977524
 30
714.9442138671875
  0
SPLINE
  5
9B3D3
330
1F
100
AcDbEntity
  8
Make2D visible lines - Tangent
100
AcDbSpline
210
0.0
220
0.0
230
1.0
 70
     8
 71
     3
 72
    12
 73
     8
 74
     0
 42
0.000000001
 43
0.0000000001
 40
-1.014583801502342
 40
-1.014583801502342
 40
-1.014583801502342
 40
-1.014583801502342
 40
-0.8249401141264362
 40
-0.5900965017365678
 40
-0.3037660471064116
 40
-0.1510110321465192
 40
0.0
 40
0.0
 40
0.0
 40
0.0
 10
1018.418498569425
 20
263.1958379977524
 30
714.9442138671875
 10
1019.596784019128
 20
262.0625788226444
 30
714.9442138671875
 10
1020.837365274627
 20
258.496307855362
 30
714.9442138671875
 10
1019.650050831772
 20
252.4687133864219
 30
714.9442138671875
 10
1016.817840805776
 20
247.4649935004492
 30
714.9442138671875
 10
1013.598671604621
 20
243.6275557853997
 30
714.9442138671875
 10
1011.710489548735
 20
241.8769432965129
 30
714.9442138671875
 10
1010.72200655694
 20
241.0650560484784
 30
714.9442138671875
  0
SPLINE
  5
9B3D4
330
1F
100
AcDbEntity
  8
Make2D visible lines - Tangent
100
AcDbSpline
210
0.0
220
0.0
230
1.0
 70
    12
 71
     2
 72
     6
 73
     3
 74
     0
 42
0.000000001
 43
0.0000000001
 40
0.0
 40
0.0
 40
0.0
 40
0.1369528492222414
 40
0.1369528492222414
 40
0.1369528492222414
 10
990.0889427074638
 20
248.0712380847855
 30
714.9442138671875
 41
1.0
 10
991.3442004095617
 20
249.2751454029382
 30
714.9442138671875
 41
0.9999966913238282
 10
992.5609814423816
 20
250.5189270815
 30
714.9442138671875
 41
0.9999959461296658
  0
ARC
  5
9B3D5
330
1F
100
AcDbEntity
  8
Make2D visible lines - Tangent
100
AcDbCircle
 10
983.7296174133641
 20
259.6456466119203
 30
714.9442138671875
 40
12.7
100
AcDbArc
 50
314.0577447748685
 51
326.512847826462
  0
SPLINE
  5
9B3D6
330
1F
100
AcDbEntity
  8
Make2D visible lines - Tangent
100
AcDbSpline
210
0.0
220
0.0
230
1.0
 70
     8
 71
     3
 72
    14
 73
    10
 74
     0
 42
0.000000001
 43
0.0000000001
 40
0.2772630823298201
 40
0.2772630823298201
 40
0.2772630823298201
 40
0.2772630823298201
 40
1.0
 40
2.0
 40
3.0
 40
4.0
 40
5.0
 40
6.0
 40
7.0
 40
7.0
 40
7.0
 40
7.0
 10
994.3215388980748
 20
252.6384218216268
 30
714.9442138671875
 10
994.8901044703214
 20
253.4978493525483
 30
714.9442138671875
 10
996.3369950594598
 20
255.4859346765971
 30
714.9442138671875
 10
999.0025719325725
 20
258.3218263861478
 30
714.9442138671875
 10
1002.339468206383
 20
261.0116271842995
 30
714.9442138671875
 10
1006.026315220179
 20
263.2066968957412
 30
714.9442138671875
 10
1010.05586227223
 20
264.7042293331202
 30
714.9442138671875
 10
1014.385505916483
 20
265.078784702048
 30
714.9442138671875
 10
1017.137588898594
 20
263.9510577568572
 30
714.9442138671875
 10
1018.146547469573
 20
262.9238690609537
 30
714.9442138671875
  0
SPLINE
  5
9B3D7
330
1F
100
AcDbEntity
  8
Make2D visible lines - Tangent
100
AcDbSpline
210
0.0
220
0.0
230
1.0
 70
     8
 71
     3
 72
    14
 73
    10
 74
     0
 42
0.000000001
 43
0.0000000001
 40
-7.0
 40
-7.0
 40
-7.0
 40
-7.0
 40
-6.0
 40
-5.0
 40
-4.0
 40
-3.0
 40
-2.0
 40
-1.0
 40
-0.2482205602640466
 40
-0.2482205602640466
 40
-0.2482205602640466
 40
-0.2482205602640466
 10
1018.146547469573
 20
262.9238690609537
 30
714.9442138671875
 10
1019.173736165476
 20
261.9149104899749
 30
714.9442138671875
 10
1020.301463110667
 20
259.1628275078639
 30
714.9442138671875
 10
1019.926907741739
 20
254.8331838636114
 30
714.9442138671875
 10
1018.42937530436
 20
250.8036368115601
 30
714.9442138671875
 10
1016.234305592919
 20
247.116789797764
 30
714.9442138671875
 10
1013.544504794766
 20
243.7798935239535
 30
714.9442138671875
 10
1010.678363578914
 20
241.08588383581
 30
714.9442138671875
 10
1008.653440972819
 20
239.6187097699959
 30
714.9442138671875
 10
1007.757371972032
 20
239.0305046274944
 30
714.9442138671875
  0
ARC
  5
9B3D8
330
1F
100
AcDbEntity
  8
Make2D visible lines - Tangent
100
AcDbCircle
 10
1014.726632645616
 20
228.4135650654718
 30
714.9442138671875
 40
12.7
100
AcDbArc
 50
123.2820321218375
 51
136.0224201920432
  0
SPLINE
  5
9B3D9
330
1F
100
AcDbEntity
  8
Make2D visible lines - Tangent
100
AcDbSpline
210
0.0
220
0.0
230
1.0
 70
    12
 71
     2
 72
     6
 73
     3
 74
     0
 42
0.000000001
 43
0.0000000001
 40
-0.1297405451143296
 40
-0.1297405451143296
 40
-0.1297405451143296
 40
0.0
 40
0.0
 40
0.0
 10
1005.587565714676
 20
237.2321508722663
 30
714.9442138671875
 41
0.9999960316975588
 10
1004.44343725604
 20
236.0464430059307
 30
714.9442138671875
 41
0.999996865512317
 10
1003.302911013352
 20
234.8572697788974
 30
714.9442138671875
 41
1.0
  0
SPLINE
  5
9B3DA
330
1F
100
AcDbEntity
  8
Make2D visible lines
100
AcDbSpline
210
0.0
220
0.0
230
1.0
 70
    12
 71
     2
 72
     6
 73
     3
 74
     0
 42
0.000000001
 43
0.0000000001
 40
0.0
 40
0.0
 40
0.0
 40
0.0853474550214741
 40
0.0853474550214741
 40
0.0853474550214741
 10
996.8639934309061
 20
-256.0100684801172
 30
714.9442138671875
 41
1.0
 10
997.5752092499959
 20
-256.8285939761507
 30
714.9442138671875
 41
0.9993970637774639
 10
998.3415151744829
 20
-257.5957883185937
 30
714.9442138671875
 41
1.0
  0
SPLINE
  5
9B3DB
330
1F
100
AcDbEntity
  8
Make2D visible lines - Tangent
100
AcDbSpline
210
0.0
220
0.0
230
1.0
 70
     8
 71
     3
 72
    12
 73
     8
 74
     0
 42
0.000000001
 43
0.0000000001
 40
0.0
 40
0.0
 40
0.0
 40
0.0
 40
0.1510110321465192
 40
0.3037660471064116
 40
0.5900965017365678
 40
0.8249401141264362
 40
1.014583801502342
 40
1.014583801502342
 40
1.014583801502342
 40
1.014583801502342
 10
1010.722006350627
 20
-240.8931521957587
 30
714.9442138671875
 10
1011.710489342422
 20
-241.7050394437932
 30
714.9442138671875
 10
1013.598671398308
 20
-243.4556519326801
 30
714.9442138671875
 10
1016.817840599463
 20
-247.2930896477286
 30
714.9442138671875
 10
1019.650050625459
 20
-252.2968095337018
 30
714.9442138671875
 10
1020.837365068313
 20
-258.3244040026424
 30
714.9442138671875
 10
1019.596783812815
 20
-261.8906749699243
 30
714.9442138671875
 10
1018.418498363111
 20
-263.0239341450323
 30
714.9442138671875
  0
SPLINE
  5
9B3DC
330
1F
100
AcDbEntity
  8
Make2D visible lines - Tangent
100
AcDbSpline
210
0.0
220
0.0
230
1.0
 70
     8
 71
     3
 72
    12
 73
     8
 74
     0
 42
0.000000001
 43
0.0000000001
 40
-1.014583801502342
 40
-1.014583801502342
 40
-1.014583801502342
 40
-1.014583801502342
 40
-0.8249401141264362
 40
-0.5900965017365678
 40
-0.3037660471064116
 40
-0.1510110321465192
 40
0.0
 40
0.0
 40
0.0
 40
0.0
 10
1018.418498363111
 20
-263.0239341450323
 30
714.9442138671875
 10
1017.285239188004
 20
-264.202219594736
 30
714.9442138671875
 10
1013.718968220721
 20
-265.4428008502335
 30
714.9442138671875
 10
1007.691373751781
 20
-264.2554864073803
 30
714.9442138671875
 10
1002.687653865808
 20
-261.4232763813837
 30
714.9442138671875
 10
998.8502161507595
 20
-258.2041071802286
 30
714.9442138671875
 10
997.0996036618728
 20
-256.3159251243423
 30
714.9442138671875
 10
996.2877164138385
 20
-255.3274421325472
 30
714.9442138671875
  0
SPLINE
  5
9B3DD
330
1F
100
AcDbEntity
  8
Make2D visible lines - Tangent
100
AcDbSpline
210
0.0
220
0.0
230
1.0
 70
    12
 71
     2
 72
     6
 73
     3
 74
     0
 42
0.000000001
 43
0.0000000001
 40
0.0
 40
0.0
 40
0.0
 40
0.1369528492222414
 40
0.1369528492222414
 40
0.1369528492222414
 10
1003.293898450145
 20
-234.6943782830716
 30
714.9442138671875
 41
1.0
 10
1004.497805768298
 20
-235.9496359851686
 30
714.9442138671875
 41
0.9999966913238282
 10
1005.74158744686
 20
-237.1664170179887
 30
714.9442138671875
 41
0.9999959461296658
  0
ARC
  5
9B3DE
330
1F
100
AcDbEntity
  8
Make2D visible lines - Tangent
100
AcDbCircle
 10
1014.86830697728
 20
-228.3350529889707
 30
714.9442138671875
 40
12.7
100
AcDbArc
 50
224.0577447748697
 51
236.5128478264683
  0
SPLINE
  5
9B3DF
330
1F
100
AcDbEntity
  8
Make2D visible lines - Tangent
100
AcDbSpline
210
0.0
220
0.0
230
1.0
 70
     8
 71
     3
 72
    14
 73
    10
 74
     0
 42
0.000000001
 43
0.0000000001
 40
0.2772630823298201
 40
0.2772630823298201
 40
0.2772630823298201
 40
0.2772630823298201
 40
1.0
 40
2.0
 40
3.0
 40
4.0
 40
5.0
 40
6.0
 40
7.0
 40
7.0
 40
7.0
 40
7.0
 10
1007.861082186986
 20
-238.926974473682
 30
714.9442138671875
 10
1008.720509717909
 20
-239.4955400459283
 30
714.9442138671875
 10
1010.708595041957
 20
-240.9424306350669
 30
714.9442138671875
 10
1013.544486751507
 20
-243.6080075081799
 30
714.9442138671875
 10
1016.234287549659
 20
-246.9449037819903
 30
714.9442138671875
 10
1018.4293572611
 20
-250.6317507957868
 30
714.9442138671875
 10
1019.92688969848
 20
-254.6612978478373
 30
714.9442138671875
 10
1020.301445067408
 20
-258.9909414920898
 30
714.9442138671875
 10
1019.173718122217
 20
-261.7430244742017
 30
714.9442138671875
 10
1018.146529426313
 20
-262.7519830451805
 30
714.9442138671875
  0
SPLINE
  5
9B3E0
330
1F
100
AcDbEntity
  8
Make2D visible lines - Tangent
100
AcDbSpline
210
0.0
220
0.0
230
1.0
 70
     8
 71
     3
 72
    14
 73
    10
 74
     0
 42
0.000000001
 43
0.0000000001
 40
-7.0
 40
-7.0
 40
-7.0
 40
-7.0
 40
-6.0
 40
-5.0
 40
-4.0
 40
-3.0
 40
-2.0
 40
-1.0
 40
-0.2482205602640466
 40
-0.2482205602640466
 40
-0.2482205602640466
 40
-0.2482205602640466
 10
1018.146529426313
 20
-262.7519830451805
 30
714.9442138671875
 10
1017.137570855334
 20
-263.779171741084
 30
714.9442138671875
 10
1014.385487873223
 20
-264.9068986862748
 30
714.9442138671875
 10
1010.055844228971
 20
-264.5323433173465
 30
714.9442138671875
 10
1006.02629717692
 20
-263.034810879967
 30
714.9442138671875
 10
1002.339450163124
 20
-260.8397411685263
 30
714.9442138671875
 10
999.0025538893132
 20
-258.1499403703737
 30
714.9442138671875
 10
996.3085442011703
 20
-255.283799154521
 30
714.9442138671875
 10
994.8413701353555
 20
-253.2588765484264
 30
714.9442138671875
 10
994.2531649928543
 20
-252.3628075476394
 30
714.9442138671875
  0
ARC
  5
9B3E1
330
1F
100
AcDbEntity
  8
Make2D visible lines - Tangent
100
AcDbCircle
 10
983.6362254308314
 20
-259.3320682212237
 30
714.9442138671875
 40
12.7
100
AcDbArc
 50
33.28203212182753
 51
46.02242019204998
  0
SPLINE
  5
9B3E2
330
1F
100
AcDbEntity
  8
Make2D visible lines - Tangent
100
AcDbSpline
210
0.0
220
0.0
230
1.0
 70
    12
 71
     2
 72
     6
 73
     3
 74
     0
 42
0.000000001
 43
0.0000000001
 40
-0.1297405451143296
 40
-0.1297405451143296
 40
-0.1297405451143296
 40
0.0
 40
0.0
 40
0.0
 10
992.4548112376264
 20
-250.1930012902834
 30
714.9442138671875
 41
0.9999960316975588
 10
991.2691033712903
 20
-249.0488728316472
 30
714.9442138671875
 41
0.999996865512317
 10
990.0799301442573
 20
-247.9083465889597
 30
714.9442138671875
 41
1.0
  0
SPLINE
  5
9B3E3
330
1F
100
AcDbEntity
  8
Make2D visible lines
100
AcDbSpline
210
0.0
220
0.0
230
1.0
 70
    12
 71
     2
 72
     6
 73
     3
 74
     0
 42
0.000000001
 43
0.0000000001
 40
0.0
 40
0.0
 40
0.0
 40
0.0853474550214741
 40
0.0853474550214741
 40
0.0853474550214741
 10
499.2125918852432
 20
-241.469429006513
 30
714.9442138671875
 41
1.0
 10
498.3940663892098
 20
-242.1806448256033
 30
714.9442138671875
 41
0.9993970637774639
 10
497.6268720467664
 20
-242.9469507500902
 30
714.9442138671875
 41
1.0
  0
SPLINE
  5
9B3E4
330
1F
100
AcDbEntity
  8
Make2D visible lines - Tangent
100
AcDbSpline
210
0.0
220
0.0
230
1.0
 70
     8
 71
     3
 72
    12
 73
     8
 74
     0
 42
0.000000001
 43
0.0000000001
 40
0.0
 40
0.0
 40
0.0
 40
0.0
 40
0.1510110321465192
 40
0.3037660471064116
 40
0.5900965017365678
 40
0.8249401141264362
 40
1.014583801502342
 40
1.014583801502342
 40
1.014583801502342
 40
1.014583801502342
 10
514.3295081696016
 20
-255.3274419262342
 30
714.9442138671875
 10
513.5176209215668
 20
-256.3159249180293
 30
714.9442138671875
 10
511.76700843268
 20
-258.2041069739152
 30
714.9442138671875
 10
507.9295707176313
 20
-261.4232761750703
 30
714.9442138671875
 10
502.9258508316583
 20
-264.2554862010669
 30
714.9442138671875
 10
496.898256362718
 20
-265.4428006439206
 30
714.9442138671875
 10
493.3319853954355
 20
-264.2022193884226
 30
714.9442138671875
 10
492.1987262203278
 20
-263.0239339387198
 30
714.9442138671875
  0
SPLINE
  5
9B3E5
330
1F
100
AcDbEntity
  8
Make2D visible lines - Tangent
100
AcDbSpline
210
0.0
220
0.0
230
1.0
 70
     8
 71
     3
 72
    12
 73
     8
 74
     0
 42
0.000000001
 43
0.0000000001
 40
-1.014583801502342
 40
-1.014583801502342
 40
-1.014583801502342
 40
-1.014583801502342
 40
-0.8249401141264362
 40
-0.5900965017365678
 40
-0.3037660471064116
 40
-0.1510110321465192
 40
0.0
 40
0.0
 40
0.0
 40
0.0
 10
492.1987262203278
 20
-263.0239339387198
 30
714.9442138671875
 10
491.0204407706241
 20
-261.8906747636114
 30
714.9442138671875
 10
489.7798595151264
 20
-258.3244037963289
 30
714.9442138671875
 10
490.96717395798
 20
-252.2968093273888
 30
714.9442138671875
 10
493.7993839839766
 20
-247.2930894414161
 30
714.9442138671875
 10
497.0185531851315
 20
-243.4556517263672
 30
714.9442138671875
 10
498.9067352410176
 20
-241.7050392374803
 30
714.9442138671875
 10
499.8952182328127
 20
-240.8931519894458
 30
714.9442138671875
  0
SPLINE
  5
9B3E6
330
1F
100
AcDbEntity
  8
Make2D visible lines - Tangent
100
AcDbSpline
210
0.0
220
0.0
230
1.0
 70
    12
 71
     2
 72
     6
 73
     3
 74
     0
 42
0.000000001
 43
0.0000000001
 40
0.0
 40
0.0
 40
0.0
 40
0.1369528492222414
 40
0.1369528492222414
 40
0.1369528492222414
 10
520.5282820822882
 20
-247.8993340257529
 30
714.9442138671875
 41
1.0
 10
519.2730243801912
 20
-249.1032413439056
 30
714.9442138671875
 41
0.9999966913238282
 10
518.0562433473711
 20
-250.347023022467
 30
714.9442138671875
 41
0.9999959461296658
  0
ARC
  5
9B3E7
330
1F
100
AcDbEntity
  8
Make2D visible lines - Tangent
100
AcDbCircle
 10
526.8876073763891
 20
-259.4737425528878
 30
714.9442138671875
 40
12.7
100
AcDbArc
 50
134.0577447748685
 51
146.5128478264629
  0
SPLINE
  5
9B3E8
330
1F
100
AcDbEntity
  8
Make2D visible lines - Tangent
100
AcDbSpline
210
0.0
220
0.0
230
1.0
 70
     8
 71
     3
 72
    14
 73
    10
 74
     0
 42
0.000000001
 43
0.0000000001
 40
0.2772630823298201
 40
0.2772630823298201
 40
0.2772630823298201
 40
0.2772630823298201
 40
1.0
 40
2.0
 40
3.0
 40
4.0
 40
5.0
 40
6.0
 40
7.0
 40
7.0
 40
7.0
 40
7.0
 10
516.2956858916778
 20
-252.4665177625938
 30
714.9442138671875
 10
515.7271203194317
 20
-253.3259452935157
 30
714.9442138671875
 10
514.2802297302932
 20
-255.3140306175641
 30
714.9442138671875
 10
511.6146528571802
 20
-258.1499223271147
 30
714.9442138671875
 10
508.2777565833702
 20
-260.8397231252669
 30
714.9442138671875
 10
504.5909095695737
 20
-263.0347928367076
 30
714.9442138671875
 10
500.5613625175225
 20
-264.5323252740872
 30
714.9442138671875
 10
496.2317188732696
 20
-264.9068806430149
 30
714.9442138671875
 10
493.4796358911589
 20
-263.7791536978242
 30
714.9442138671875
 10
492.4706773201798
 20
-262.7519650019211
 30
714.9442138671875
  0
SPLINE
  5
9B3E9
330
1F
100
AcDbEntity
  8
Make2D visible lines - Tangent
100
AcDbSpline
210
0.0
220
0.0
230
1.0
 70
     8
 71
     3
 72
    14
 73
    10
 74
     0
 42
0.000000001
 43
0.0000000001
 40
-7.0
 40
-7.0
 40
-7.0
 40
-7.0
 40
-6.0
 40
-5.0
 40
-4.0
 40
-3.0
 40
-2.0
 40
-1.0
 40
-0.2482205602640466
 40
-0.2482205602640466
 40
-0.2482205602640466
 40
-0.2482205602640466
 10
492.4706773201798
 20
-262.7519650019211
 30
714.9442138671875
 10
491.443488624276
 20
-261.7430064309418
 30
714.9442138671875
 10
490.315761679086
 20
-258.9909234488308
 30
714.9442138671875
 10
490.6903170480135
 20
-254.6612798045784
 30
714.9442138671875
 10
492.1878494853928
 20
-250.631732752527
 30
714.9442138671875
 10
494.382919196834
 20
-246.9448857387309
 30
714.9442138671875
 10
497.0727199949862
 20
-243.6079894649205
 30
714.9442138671875
 10
499.9388612108391
 20
-240.9139797767774
 30
714.9442138671875
 10
501.9637838169341
 20
-239.4468057109624
 30
714.9442138671875
 10
502.8598528177207
 20
-238.8586005684609
 30
714.9442138671875
  0
ARC
  5
9B3EA
330
1F
100
AcDbEntity
  8
Make2D visible lines - Tangent
100
AcDbCircle
 10
495.8905921441366
 20
-228.2416610064391
 30
714.9442138671875
 40
12.7
100
AcDbArc
 50
303.2820321218375
 51
316.0224201920432
  0
SPLINE
  5
9B3EB
330
1F
100
AcDbEntity
  8
Make2D visible lines - Tangent
100
AcDbSpline
210
0.0
220
0.0
230
1.0
 70
    12
 71
     2
 72
     6
 73
     3
 74
     0
 42
0.000000001
 43
0.0000000001
 40
-0.1297405451143296
 40
-0.1297405451143296
 40
-0.1297405451143296
 40
0.0
 40
0.0
 40
0.0
 10
505.0296590750765
 20
-237.0602468132332
 30
714.9442138671875
 41
0.9999960316975588
 10
506.1737875337129
 20
-235.874538946898
 30
714.9442138671875
 41
0.999996865512317
 10
507.3143137764004
 20
-234.6853657198643
 30
714.9442138671875
 41
1.0
  0
SPLINE
  5
9B3EC
330
1F
100
AcDbEntity
  8
Make2D visible lines - Tangent
100
AcDbSpline
210
0.0
220
0.0
230
1.0
 70
    12
 71
     2
 72
     6
 73
     3
 74
     0
 42
0.000000001
 43
0.0000000001
 40
0.0
 40
0.0
 40
0.0
 40
0.1369528492222414
 40
0.1369528492222414
 40
0.1369528492222414
 10
507.323326339607
 20
234.8662823421042
 30
714.9442138671875
 41
1.0
 10
506.1194190214543
 20
236.1215400442012
 30
714.9442138671875
 41
0.9999966913238282
 10
504.8756373428932
 20
237.3383210770218
 30
714.9442138671875
 41
0.9999959461296658
  0
ARC
  5
9B3ED
330
1F
100
AcDbEntity
  8
Make2D visible lines - Tangent
100
AcDbCircle
 10
495.7489178124723
 20
228.5069570480037
 30
714.9442138671875
 40
12.7
100
AcDbArc
 50
44.05774477486859
 51
56.51284782646832
  0
SPLINE
  5
9B3EE
330
1F
100
AcDbEntity
  8
Make2D visible lines - Tangent
100
AcDbSpline
210
0.0
220
0.0
230
1.0
 70
     8
 71
     3
 72
    14
 73
    10
 74
     0
 42
0.000000001
 43
0.0000000001
 40
0.2772630823298201
 40
0.2772630823298201
 40
0.2772630823298201
 40
0.2772630823298201
 40
1.0
 40
2.0
 40
3.0
 40
4.0
 40
5.0
 40
6.0
 40
7.0
 40
7.0
 40
7.0
 40
7.0
 10
502.7561426027658
 20
239.098878532715
 30
714.9442138671875
 10
501.8967150718446
 20
239.667444104961
 30
714.9442138671875
 10
499.9086297477957
 20
241.1143346940999
 30
714.9442138671875
 10
497.0727380382456
 20
243.7799115672125
 30
714.9442138671875
 10
494.3829372400932
 20
247.1168078410229
 30
714.9442138671875
 10
492.1878675286522
 20
250.8036548548195
 30
714.9442138671875
 10
490.6903350912727
 20
254.8332019068704
 30
714.9442138671875
 10
490.3157797223447
 20
259.1628455511228
 30
714.9442138671875
 10
491.4435066675356
 20
261.9149285332343
 30
714.9442138671875
 10
492.470695363439
 20
262.9238871042131
 30
714.9442138671875
  0
SPLINE
  5
9B3EF
330
1F
100
AcDbEntity
  8
Make2D visible lines - Tangent
100
AcDbSpline
210
0.0
220
0.0
230
1.0
 70
     8
 71
     3
 72
    14
 73
    10
 74
     0
 42
0.000000001
 43
0.0000000001
 40
-7.0
 40
-7.0
 40
-7.0
 40
-7.0
 40
-6.0
 40
-5.0
 40
-4.0
 40
-3.0
 40
-2.0
 40
-1.0
 40
-0.2482205602640466
 40
-0.2482205602640466
 40
-0.2482205602640466
 40
-0.2482205602640466
 10
492.470695363439
 20
262.9238871042131
 30
714.9442138671875
 10
493.4796539344181
 20
263.9510758001167
 30
714.9442138671875
 10
496.2317369165293
 20
265.0788027453074
 30
714.9442138671875
 10
500.5613805607817
 20
264.7042473763792
 30
714.9442138671875
 10
504.5909276128329
 20
263.2067149390001
 30
714.9442138671875
 10
508.2777746266292
 20
261.0116452275589
 30
714.9442138671875
 10
511.6146709004396
 20
258.3218444294067
 30
714.9442138671875
 10
514.3086805885822
 20
255.4557032135536
 30
714.9442138671875
 10
515.7758546543974
 20
253.4307806074586
 30
714.9442138671875
 10
516.3640597968987
 20
252.5347116066724
 30
714.9442138671875
  0
ARC
  5
9B3F0
330
1F
100
AcDbEntity
  8
Make2D visible lines - Tangent
100
AcDbCircle
 10
526.9809993589209
 20
259.5039722802563
 30
714.9442138671875
 40
12.7
100
AcDbArc
 50
213.2820321218275
 51
226.0224201920499
  0
SPLINE
  5
9B3F1
330
1F
100
AcDbEntity
  8
Make2D visible lines - Tangent
100
AcDbSpline
210
0.0
220
0.0
230
1.0
 70
    12
 71
     2
 72
     6
 73
     3
 74
     0
 42
0.000000001
 43
0.0000000001
 40
-0.1297405451143296
 40
-0.1297405451143296
 40
-0.1297405451143296
 40
0.0
 40
0.0
 40
0.0
 10
518.1624135521261
 20
250.3649053493165
 30
714.9442138671875
 41
0.9999960316975588
 10
519.348121418462
 20
249.2207768906802
 30
714.9442138671875
 41
0.999996865512317
 10
520.5372946454957
 20
248.0802506479928
 30
714.9442138671875
 41
1.0
  0
SPLINE
  5
9B3F2
330
1F
100
AcDbEntity
  8
Make2D visible lines - Tangent
100
AcDbSpline
210
0.0
220
0.0
230
1.0
 70
     8
 71
     3
 72
    12
 73
     8
 74
     0
 42
0.000000001
 43
0.0000000001
 40
0.0
 40
0.0
 40
0.0
 40
0.0
 40
0.1510110321465192
 40
0.3037660471064116
 40
0.5900965017365678
 40
0.8249401141264362
 40
1.014583801502342
 40
1.014583801502342
 40
1.014583801502342
 40
1.014583801502342
 10
499.8952184391259
 20
241.0650562547913
 30
714.9442138671875
 10
498.9067354473306
 20
241.8769435028258
 30
714.9442138671875
 10
497.0185533914444
 20
243.6275559917127
 30
714.9442138671875
 10
493.7993841902895
 20
247.4649937067621
 30
714.9442138671875
 10
490.9671741642932
 20
252.4687135927344
 30
714.9442138671875
 10
489.779859721439
 20
258.4963080616745
 30
714.9442138671875
 10
491.0204409769373
 20
262.0625790289574
 30
714.9442138671875
 10
492.1987264266408
 20
263.1958382040649
 30
714.9442138671875
  0
SPLINE
  5
9B3F3
330
1F
100
AcDbEntity
  8
Make2D visible lines - Tangent
100
AcDbSpline
210
0.0
220
0.0
230
1.0
 70
     8
 71
     3
 72
    12
 73
     8
 74
     0
 42
0.000000001
 43
0.0000000001
 40
-1.014583801502342
 40
-1.014583801502342
 40
-1.014583801502342
 40
-1.014583801502342
 40
-0.8249401141264362
 40
-0.5900965017365678
 40
-0.3037660471064116
 40
-0.1510110321465192
 40
0.0
 40
0.0
 40
0.0
 40
0.0
 10
492.1987264266408
 20
263.1958382040649
 30
714.9442138671875
 10
493.3319856017487
 20
264.3741236537691
 30
714.9442138671875
 10
496.8982565690309
 20
265.6147049092666
 30
714.9442138671875
 10
502.9258510379711
 20
264.4273904664129
 30
714.9442138671875
 10
507.9295709239437
 20
261.5951804404168
 30
714.9442138671875
 10
511.767008638993
 20
258.3760112392616
 30
714.9442138671875
 10
513.5176211278795
 20
256.4878291833753
 30
714.9442138671875
 10
514.3295083759145
 20
255.4993461915798
 30
714.9442138671875
  0
SPLINE
  5
9B3F4
330
1F
100
AcDbEntity
  8
Make2D visible lines
100
AcDbSpline
210
0.0
220
0.0
230
1.0
 70
    12
 71
     2
 72
     6
 73
     3
 74
     0
 42
0.000000001
 43
0.0000000001
 40
0.0
 40
0.0
 40
0.0
 40
0.0853474550214741
 40
0.0853474550214741
 40
0.0853474550214741
 10
513.753231358847
 20
256.1819725391498
 30
714.9442138671875
 41
1.0
 10
513.042015539757
 20
257.0004980351833
 30
714.9442138671875
 41
0.9993970637774639
 10
512.2757096152696
 20
257.7676923776268
 30
714.9442138671875
 41
1.0
  0
SPLINE
  5
9B3F5
330
1F
100
AcDbEntity
  8
Make2D visible lines - Tangent
100
AcDbSpline
210
0.0
220
0.0
230
1.0
 70
    12
 71
     2
 72
     6
 73
     3
 74
     0
 42
0.000000001
 43
0.0000000001
 40
-3.799577872997743
 40
-3.799577872997743
 40
-3.799577872997743
 40
0.0
 40
0.0
 40
0.0
 10
934.5845002203914
 20
164.5843463093148
 30
714.9442138671875
 41
0.9999999984898234
 10
968.3402122942522
 20
199.0986092516442
 30
714.9442138671875
 41
0.9999999988338577
 10
1002.10594999238
 20
233.6202017710867
 30
714.9442138671875
 41
1.0
  0
SPLINE
  5
9B3F6
330
1F
100
AcDbEntity
  8
Make2D visible lines - Tangent
100
AcDbSpline
210
0.0
220
0.0
230
1.0
 70
     8
 71
     3
 72
    14
 73
    10
 74
     0
 42
0.000000001
 43
0.0000000001
 40
0.0
 40
0.0
 40
0.0
 40
0.0
 40
1.0
 40
2.0
 40
3.0
 40
4.0
 40
5.0
 40
6.0
 40
7.0
 40
7.0
 40
7.0
 40
7.0
 10
1002.10594999238
 20
233.6202017710867
 30
714.9442138671875
 10
1003.349818276909
 20
234.9017831341304
 30
714.9442138671875
 10
1005.367482031522
 20
237.6485383141491
 30
714.9442138671875
 10
1007.102329489701
 20
242.4648657092267
 30
714.9442138671875
 10
1006.660789620735
 20
247.7489563461314
 30
714.9442138671875
 10
1002.771175252094
 20
251.5172541254639
 30
714.9442138671875
 10
997.4884913965606
 20
251.8438670543011
 30
714.9442138671875
 10
992.6964487417791
 20
250.0483790554323
 30
714.9442138671875
 10
989.9710250723964
 20
248.0021507460343
 30
714.9442138671875
 10
988.7773110304118
 20
246.8095086997902
 30
714.9442138671875
  0
SPLINE
  5
9B3F7
330
1F
100
AcDbEntity
  8
Make2D visible lines - Tangent
100
AcDbSpline
210
0.0
220
0.0
230
1.0
 70
    12
 71
     2
 72
     6
 73
     3
 74
     0
 42
0.000000001
 43
0.0000000001
 40
0.0
 40
0.0
 40
0.0
 40
3.770590876880781
 40
3.770590876880781
 40
3.770590876880781
 10
988.7773110304118
 20
246.8095086997902
 30
714.9442138671875
 41
1.0
 10
954.5451663628142
 20
213.3240260228037
 30
714.9442138671875
 41
0.9999999988427543
 10
920.3111161798554
 20
179.8404914614003
 30
714.9442138671875
 41
0.9999999984951207
  0
SPLINE
  5
9B3F8
330
1F
100
AcDbEntity
  8
Make2D visible lines - Tangent
100
AcDbSpline
210
0.0
220
0.0
230
1.0
 70
    12
 71
     2
 72
     6
 73
     3
 74
     0
 42
0.000000001
 43
0.0000000001
 40
-3.651972160153634
 40
-3.651972160153634
 40
-3.651972160153634
 40
0.0
 40
0.0
 40
0.0
 10
588.1285921178966
 20
181.9845336678237
 30
714.9442138671875
 41
0.9999999985177943
 10
554.9548629650404
 20
214.4292807458342
 30
714.9442138671875
 41
0.99999999887916
 10
521.7743626533062
 20
246.8832896270197
 30
714.9442138671875
 41
1.0
  0
SPLINE
  5
9B3F9
330
1F
100
AcDbEntity
  8
Make2D visible lines - Tangent
100
AcDbSpline
210
0.0
220
0.0
230
1.0
 70
     8
 71
     3
 72
    14
 73
    10
 74
     0
 42
0.000000001
 43
0.0000000001
 40
0.0
 40
0.0
 40
0.0
 40
0.0
 40
1.0
 40
2.0
 40
3.0
 40
4.0
 40
5.0
 40
6.0
 40
7.0
 40
7.0
 40
7.0
 40
7.0
 10
521.7743626533062
 20
246.8832896270197
 30
714.9442138671875
 10
520.4927812902621
 20
248.1271579115488
 30
714.9442138671875
 10
517.746026110244
 20
250.1448216661625
 30
714.9442138671875
 10
512.9296987151661
 20
251.8796691243411
 30
714.9442138671875
 10
507.6456080782615
 20
251.4381292553754
 30
714.9442138671875
 10
503.8773102989289
 20
247.5485148867343
 30
714.9442138671875
 10
503.5506973700918
 20
242.265831031201
 30
714.9442138671875
 10
505.3461853689602
 20
237.4737883764193
 30
714.9442138671875
 10
507.3924136783587
 20
234.7483647070363
 30
714.9442138671875
 10
508.5850557246025
 20
233.5546506650518
 30
714.9442138671875
  0
SPLINE
  5
9B3FA
330
1F
100
AcDbEntity
  8
Make2D visible lines - Tangent
100
AcDbSpline
210
0.0
220
0.0
230
1.0
 70
    12
 71
     2
 72
     6
 73
     3
 74
     0
 42
0.000000001
 43
0.0000000001
 40
0.0
 40
0.0
 40
0.0
 40
3.549969886497025
 40
3.549969886497025
 40
3.549969886497025
 10
508.5850557246025
 20
233.5546506650518
 30
714.9442138671875
 41
1.0
 10
540.1112697880092
 20
201.3254625404353
 30
714.9442138671875
 41
0.999999998910466
 10
571.6357570415294
 20
169.0945853611493
 30
714.9442138671875
 41
0.9999999985385732
  0
SPLINE
  5
9B3FB
330
1F
100
AcDbEntity
  8
Make2D visible lines - Tangent
100
AcDbSpline
210
0.0
220
0.0
230
1.0
 70
    12
 71
     2
 72
     6
 73
     3
 74
     0
 42
0.000000001
 43
0.0000000001
 40
-3.553602127449321
 40
-3.553602127449321
 40
-3.553602127449321
 40
0.0
 40
0.0
 40
0.0
 10
571.6621515488915
 20
-168.8812175742345
 30
714.9442138671875
 41
0.999999998537813
 10
540.0910979568426
 20
-201.161551996804
 30
714.9442138671875
 41
0.9999999989093511
 10
508.5112747973732
 20
-233.4482977120536
 30
714.9442138671875
 41
1.0
  0
SPLINE
  5
9B3FC
330
1F
100
AcDbEntity
  8
Make2D visible lines - Tangent
100
AcDbSpline
210
0.0
220
0.0
230
1.0
 70
     8
 71
     3
 72
    14
 73
    10
 74
     0
 42
0.000000001
 43
0.0000000001
 40
0.0
 40
0.0
 40
0.0
 40
0.0
 40
1.0
 40
2.0
 40
3.0
 40
4.0
 40
5.0
 40
6.0
 40
7.0
 40
7.0
 40
7.0
 40
7.0
 10
508.5112747973732
 20
-233.4482977120536
 30
714.9442138671875
 10
507.2674065128441
 20
-234.7298790750977
 30
714.9442138671875
 10
505.2497427582304
 20
-237.476634255116
 30
714.9442138671875
 10
503.5148953000518
 20
-242.2929616501936
 30
714.9442138671875
 10
503.9564351690175
 20
-247.5770522870984
 30
714.9442138671875
 10
507.8460495376591
 20
-251.3453500664312
 30
714.9442138671875
 10
513.1287333931919
 20
-251.671962995268
 30
714.9442138671875
 10
517.9207760479738
 20
-249.8764749963997
 30
714.9442138671875
 10
520.6461997173563
 20
-247.8302466870013
 30
714.9442138671875
 10
521.8399137593406
 20
-246.6376046407575
 30
714.9442138671875
  0
SPLINE
  5
9B3FD
330
1F
100
AcDbEntity
  8
Make2D visible lines - Tangent
100
AcDbSpline
210
0.0
220
0.0
230
1.0
 70
    12
 71
     2
 72
     6
 73
     3
 74
     0
 42
0.000000001
 43
0.0000000001
 40
0.0
 40
0.0
 40
0.0
 40
3.652304510727871
 40
3.652304510727871
 40
3.652304510727871
 10
521.8399137593406
 20
-246.6376046407575
 30
714.9442138671875
 41
1.0
 10
554.998169443725
 20
-214.202587580039
 30
714.9442138671875
 41
0.999999998879058
 10
588.1582129653719
 20
-181.7693983226985
 30
714.9442138671875
 41
0.9999999985177286
  0
SPLINE
  5
9B3FE
330
1F
100
AcDbEntity
  8
Make2D visible lines - Tangent
100
AcDbSpline
210
0.0
220
0.0
230
1.0
 70
    12
 71
     2
 72
     6
 73
     3
 74
     0
 42
0.000000001
 43
0.0000000001
 40
-3.774101532423085
 40
-3.774101532423085
 40
-3.774101532423085
 40
0.0
 40
0.0
 40
0.0
 10
920.2698463758828
 20
-179.6426033830124
 30
714.9442138671875
 41
0.9999999984944741
 10
954.5527384481793
 20
-213.172048660448
 30
714.9442138671875
 41
0.9999999988416767
 10
988.8428621364468
 20
-246.7113855679871
 30
714.9442138671875
 41
1.0
  0
SPLINE
  5
9B3FF
330
1F
100
AcDbEntity
  8
Make2D visible lines - Tangent
100
AcDbSpline
210
0.0
220
0.0
230
1.0
 70
     8
 71
     3
 72
    14
 73
    10
 74
     0
 42
0.000000001
 43
0.0000000001
 40
0.0
 40
0.0
 40
0.0
 40
0.0
 40
1.0
 40
2.0
 40
3.0
 40
4.0
 40
5.0
 40
6.0
 40
7.0
 40
7.0
 40
7.0
 40
7.0
 10
988.8428621364468
 20
-246.7113855679871
 30
714.9442138671875
 10
990.12444349949
 20
-247.9552538525162
 30
714.9442138671875
 10
992.8711986795089
 20
-249.97291760713
 30
714.9442138671875
 10
997.6875260745861
 20
-251.7077650653085
 30
714.9442138671875
 10
1002.971616711491
 20
-251.2662251963424
 30
714.9442138671875
 10
1006.739914490824
 20
-247.3766108277017
 30
714.9442138671875
 10
1007.06652741966
 20
-242.0939269721679
 30
714.9442138671875
 10
1005.271039420792
 20
-237.3018843173862
 30
714.9442138671875
 10
1003.224811111394
 20
-234.5764606480037
 30
714.9442138671875
 10
1002.03216906515
 20
-233.3827466060192
 30
714.9442138671875
  0
SPLINE
  5
9B400
330
1F
100
AcDbEntity
  8
Make2D visible lines - Tangent
100
AcDbSpline
210
0.0
220
0.0
230
1.0
 70
    12
 71
     2
 72
     6
 73
     3
 74
     0
 42
0.000000001
 43
0.0000000001
 40
0.0
 40
0.0
 40
0.0
 40
3.799511942617316
 40
3.799511942617316
 40
3.799511942617316
 10
1002.03216906515
 20
-233.3827466060192
 30
714.9442138671875
 41
1.0
 10
968.2898471079361
 20
-198.8880356352305
 30
714.9442138671875
 41
0.999999998833878
 10
934.5495032660862
 20
-164.3913898061618
 30
714.9442138671875
 41
0.9999999984898355
  0
SPLINE
  5
9B401
330
1F
100
AcDbEntity
  8
Make2D visible lines
100
AcDbSpline
210
0.0
220
0.0
230
1.0
 70
     8
 71
     3
 72
    16
 73
    12
 74
     0
 42
0.000000001
 43
0.0000000001
 40
8.859681867019631
 40
8.859681867019631
 40
8.859681867019631
 40
8.859681867019631
 40
9.014211833764461
 40
9.264211833764461
 40
9.514211833764461
 40
9.514211833764461
 40
9.514211833764461
 40
9.764211833764461
 40
10.01421183376446
 40
10.26421183376446
 40
10.51421183376446
 40
10.51421183376446
 40
10.51421183376446
 40
10.51421183376446
 10
-708.0208148254541
 20
-209.2186717884559
 30
714.9442138671875
 10
-702.8125706252547
 20
-208.6878672442984
 30
714.9442138671875
 10
-688.8739372998941
 20
-206.911812812158
 30
714.9442138671875
 10
-663.5733083672171
 20
-201.7543446141257
 30
714.9442138671875
 10
-645.7396435627854
 20
-195.6772301706968
 30
714.9442138671875
 10
-636.6896748590138
 20
-191.8346936794827
 30
714.9442138671875
 10
-629.3025366032016
 20
-188.735354974245
 30
714.9442138671875
 10
-614.4108191979901
 20
-181.46336950687
 30
714.9442138671875
 10
-593.8325729611038
 20
-168.0289738851069
 30
714.9442138671875
 10
-576.3103428068041
 20
-153.4337915710306
 30
714.9442138671875
 10
-557.9391707125162
 20
-134.1250153452696
 30
714.9442138671875
 10
-541.0244841254145
 20
-101.6041872004074
 30
714.9442138671875
  0
SPLINE
  5
9B402
330
1F
100
AcDbEntity
  8
Make2D visible lines
100
AcDbSpline
210
0.0
220
0.0
230
1.0
 70
     8
 71
     3
 72
    16
 73
    12
 74
     0
 42
0.000000001
 43
0.0000000001
 40
8.859681867019631
 40
8.859681867019631
 40
8.859681867019631
 40
8.859681867019631
 40
9.014211833764461
 40
9.264211833764461
 40
9.514211833764461
 40
9.514211833764461
 40
9.514211833764461
 40
9.764211833764461
 40
10.01421183376446
 40
10.26421183376446
 40
10.51421183376446
 40
10.51421183376446
 40
10.51421183376446
 40
10.51421183376446
 10
-708.0208148254541
 20
209.4547936469872
 30
714.9442138671875
 10
-702.8125706252547
 20
208.9239891028297
 30
714.9442138671875
 10
-688.8739372998941
 20
207.1479346706893
 30
714.9442138671875
 10
-663.5733083672171
 20
201.990466472657
 30
714.9442138671875
 10
-645.7396435627854
 20
195.9133520292281
 30
714.9442138671875
 10
-636.6896748590138
 20
192.070815538014
 30
714.9442138671875
 10
-629.3025366032016
 20
188.9714768327763
 30
714.9442138671875
 10
-614.4108191979901
 20
181.6994913654013
 30
714.9442138671875
 10
-593.8325729611038
 20
168.2650957436382
 30
714.9442138671875
 10
-576.3103428068041
 20
153.6699134295619
 30
714.9442138671875
 10
-557.9391707125162
 20
134.3611372038009
 30
714.9442138671875
 10
-541.0244841254145
 20
101.8403090589387
 30
714.9442138671875
  0
LINE
  5
9B403
330
1F
100
AcDbEntity
  8
Make2D visible lines - Tangent
100
AcDbLine
 10
-537.4985631081123
 20
130.8294251965723
 30
714.9442138671875
 11
-552.7646642040956
 21
148.1594277152127
 31
714.9442138671875
  0
SPLINE
  5
9B404
330
1F
100
AcDbEntity
  8
Make2D visible lines - Tangent
100
AcDbSpline
210
0.0
220
0.0
230
1.0
 70
     8
 71
     3
 72
    24
 73
    20
 74
     0
 42
0.000000001
 43
0.0000000001
 40
-17.0
 40
-17.0
 40
-17.0
 40
-17.0
 40
-15.99999896874797
 40
-14.99999793749595
 40
-13.99999690624392
 40
-12.9999958749919
 40
-11.99999484373987
 40
-10.99999381248784
 40
-9.999992781235816
 40
-8.999991749983788
 40
-7.999990718731763
 40
-6.999989687479736
 40
-5.999988656227711
 40
-4.999987624975684
 40
-3.999986593723658
 40
-2.999985562471633
 40
-1.999984531219606
 40
-0.9999834999675806
 40
0.0
 40
0.0
 40
0.0
 40
0.0
 10
-552.7646642040956
 20
148.1594277152127
 30
714.9442138671875
 10
-560.2585628623919
 20
156.6664644370427
 30
714.9442138671875
 10
-576.8971436089516
 20
172.1864488436341
 30
714.9442138671875
 10
-605.3235039119044
 20
191.0270442100965
 30
714.9442138671875
 10
-636.1376256380469
 20
205.5854226311823
 30
714.9442138671875
 10
-668.5899696500582
 20
215.9567278080614
 30
714.9442138671875
 10
-702.0415990573397
 20
222.3457406327303
 30
714.9442138671875
 10
-735.9549342115065
 20
225.2335429183609
 30
714.9442138671875
 10
-770.0255375053605
 20
224.6810806678383
 30
714.9442138671875
 10
-803.6691678069828
 20
219.4975323571622
 30
714.9442138671875
 10
-837.0766825947034
 20
213.118894220028
 30
714.9442138671875
 10
-869.3807327434152
 20
201.9374555364854
 30
714.9442138671875
 10
-898.4802121108394
 20
184.1188663124786
 30
714.9442138671875
 10
-924.6832373005915
 20
162.1067232518991
 30
714.9442138671875
 10
-943.1463446354639
 20
133.1217379456271
 30
714.9442138671875
 10
-955.1241995839429
 20
101.2094875570798
 30
714.9442138671875
 10
-962.5283783057266
 20
67.94957179087134
 30
714.9442138671875
 10
-966.253940861128
 20
34.11950608229484
 30
714.9442138671875
 10
-967.0059338877209
 20
11.45159144747742
 30
714.9442138671875
 10
-967.00266061057
 20
0.1180609292656527
 30
714.9442138671875
  0
SPLINE
  5
9B405
330
1F
100
AcDbEntity
  8
Make2D visible lines - Tangent
100
AcDbSpline
210
0.0
220
0.0
230
1.0
 70
     8
 71
     3
 72
    24
 73
    20
 74
     0
 42
0.000000001
 43
0.0000000001
 40
0.0
 40
0.0
 40
0.0
 40
0.0
 40
0.9999834999675806
 40
1.999984531219606
 40
2.999985562471633
 40
3.999986593723658
 40
4.999987624975684
 40
5.999988656227711
 40
6.999989687479736
 40
7.999990718731763
 40
8.999991749983788
 40
9.999992781235816
 40
10.99999381248784
 40
11.99999484373987
 40
12.9999958749919
 40
13.99999690624392
 40
14.99999793749595
 40
15.99999896874797
 40
17.0
 40
17.0
 40
17.0
 40
17.0
 10
-967.00266061057
 20
0.1180609292656527
 30
714.9442138671875
 10
-967.0059338877209
 20
-11.21546958894612
 30
714.9442138671875
 10
-966.253940861128
 20
-33.88338422376353
 30
714.9442138671875
 10
-962.5283783057266
 20
-67.71344993234004
 30
714.9442138671875
 10
-955.1241995839429
 20
-100.973365698548
 30
714.9442138671875
 10
-943.1463446354639
 20
-132.8856160870958
 30
714.9442138671875
 10
-924.6832373005915
 20
-161.8706013933678
 30
714.9442138671875
 10
-898.4802121108394
 20
-183.8827444539473
 30
714.9442138671875
 10
-869.3807327434152
 20
-201.7013336779541
 30
714.9442138671875
 10
-837.0766825947034
 20
-212.8827723614967
 30
714.9442138671875
 10
-803.6691678069828
 20
-219.2614104986309
 30
714.9442138671875
 10
-770.0255375053605
 20
-224.444958809307
 30
714.9442138671875
 10
-735.9549342115065
 20
-224.9974210598296
 30
714.9442138671875
 10
-702.0415990573397
 20
-222.109618774199
 30
714.9442138671875
 10
-668.5899696500582
 20
-215.7206059495301
 30
714.9442138671875
 10
-636.1376256380469
 20
-205.349300772651
 30
714.9442138671875
 10
-605.3235039119044
 20
-190.7909223515652
 30
714.9442138671875
 10
-576.8971436089516
 20
-171.9503269851028
 30
714.9442138671875
 10
-560.2585628623919
 20
-156.4303425785114
 30
714.9442138671875
 10
-552.7646642040956
 20
-147.9233058566809
 30
714.9442138671875
  0
LINE
  5
9B406
330
1F
100
AcDbEntity
  8
Make2D visible lines - Tangent
100
AcDbLine
 10
-552.7646642040956
 20
-147.9233058566809
 30
714.9442138671875
 11
-537.4985631081115
 21
-130.5933033380405
 31
714.9442138671875
  0
SPLINE
  5
9B407
330
1F
100
AcDbEntity
  8
Default
100
AcDbSpline
210
0.0
220
0.0
230
1.0
 70
     8
 71
     3
 72
    11
 73
     7
 74
     0
 42
0.000000001
 43
0.0000000001
 40
0.0
 40
0.0
 40
0.0
 40
0.0
 40
0.467605547583452
 40
0.9142111430713327
 40
1.790162585470303
 40
3.412367086947839
 40
3.412367086947839
 40
3.412367086947839
 40
3.412367086947839
 10
-978.5260448524946
 20
0.1180609292656527
 30
714.9442138671875
 10
-978.5221360696482
 20
-3.840791696249084
 30
714.9442138671875
 10
-978.4434253339302
 20
-11.58155232895603
 30
714.9442138671875
 10
-977.9011382092146
 20
-26.7291628411607
 30
714.9442138671875
 10
-976.169541655795
 20
-51.60833907983112
 30
714.9442138671875
 10
-972.9810679928261
 20
-72.55265605835745
 30
714.9442138671875
 10
-970.0343963417138
 20
-85.96914665228712
 30
714.9442138671875
  0
SPLINE
  5
9B408
330
1F
100
AcDbEntity
  8
Default
100
AcDbSpline
210
0.0
220
0.0
230
1.0
 70
     8
 71
     3
 72
     8
 73
     4
 74
     0
 42
0.000000001
 43
0.0000000001
 40
0.0
 40
0.0
 40
0.0
 40
0.0
 40
1.0
 40
1.0
 40
1.0
 40
1.0
 10
-970.0343963417138
 20
-85.96914665228712
 30
714.9442138671875
 10
-961.2704232616994
 20
-125.8723921832437
 30
714.9442138671875
 10
-943.111610590885
 20
-166.453085776723
 30
714.9442138671875
 10
-901.8794216850144
 20
-194.1697247235555
 30
714.9442138671875
  0
SPLINE
  5
9B409
330
1F
100
AcDbEntity
  8
Default
100
AcDbSpline
210
0.0
220
0.0
230
1.0
 70
     8
 71
     3
 72
    35
 73
    31
 74
     0
 42
0.000000001
 43
0.0000000001
 40
0.0
 40
0.0
 40
0.0
 40
0.0
 40
1.200721309039849
 40
2.474806189780193
 40
3.195853407963301
 40
3.98021372722645
 40
5.573951835782332
 40
7.111438093592548
 40
8.622931506501279
 40
9.33701971540726
 40
10.03763722837931
 40
10.71619595131842
 40
11.38765340373526
 40
12.6667968358364
 40
13.90631383006255
 40
14.48211977252136
 40
15.05812707602911
 40
16.24216093903146
 40
16.56621434235525
 40
16.81447999607517
 40
17.05433016171483
 40
17.29779240719692
 40
17.64791820344995
 40
18.00118544930303
 40
18.20323209221873
 40
18.40348689596203
 40
18.79616858581712
 40
19.4508953258949
 40
20.09030225747283
 40
21.29052340907742
 40
21.29052340907742
 40
21.29052340907742
 40
21.29052340907742
 10
-901.8794216850144
 20
-194.1697247235555
 30
714.9442138671875
 10
-893.4426807958201
 20
-199.8409759308978
 30
714.9442138671875
 10
-874.9632051362521
 20
-209.8996904866693
 30
714.9442138671875
 10
-849.2507147206008
 20
-218.5931742704437
 30
714.9442138671875
 10
-826.3071616419143
 20
-223.8511954868849
 30
714.9442138671875
 10
-800.4061945482275
 20
-228.1192358657653
 30
714.9442138671875
 10
-767.3436430715228
 20
-231.1219899479096
 30
714.9442138671875
 10
-727.977739852839
 20
-230.0114481147397
 30
714.9442138671875
 10
-696.3655468976798
 20
-225.7886862064878
 30
714.9442138671875
 10
-672.1732920058668
 20
-220.3366448083638
 30
714.9442138671875
 10
-655.1562713680064
 20
-215.3771218565925
 30
714.9442138671875
 10
-638.8176278960352
 20
-209.4649142197062
 30
714.9442138671875
 10
-618.445062658063
 20
-200.4679347350605
 30
714.9442138671875
 10
-594.8526519643019
 20
-187.2012223573723
 30
714.9442138671875
 10
-573.9019538191064
 20
-171.3589523420813
 30
714.9442138671875
 10
-559.1762488500099
 20
-157.4436357429234
 30
714.9442138671875
 10
-545.9302929885129
 20
-142.7340214329923
 30
714.9442138671875
 10
-535.6153417950881
 20
-128.3652659923658
 30
714.9442138671875
 10
-528.043180861986
 20
-115.5625043896397
 30
714.9442138671875
 10
-524.7078136659224
 20
-109.5494261365683
 30
714.9442138671875
 10
-521.9543900233922
 20
-103.9975851971543
 30
714.9442138671875
 10
-519.1311567339869
 20
-97.53004723023321
 30
714.9442138671875
 10
-516.181454927804
 20
-90.07376391878722
 30
714.9442138671875
 10
-513.5032148831294
 20
-82.89125798729299
 30
714.9442138671875
 10
-511.5017511598885
 20
-76.8131128257686
 30
714.9442138671875
 10
-509.4475325202927
 20
-70.40440571439956
 30
714.9442138671875
 10
-506.4375535476588
 20
-60.27658868592959
 30
714.9442138671875
 10
-503.0379227378847
 20
-46.39854191271649
 30
714.9442138671875
 10
-499.2640632514283
 20
-25.61009242016269
 30
714.9442138671875
 10
-498.0195863255326
 20
-10.04581298539631
 30
714.9442138671875
 10
-498.0211475607721
 20
0.1180609292656527
 30
714.9442138671875
  0
SPLINE
  5
9B40A
330
1F
100
AcDbEntity
  8
Default
100
AcDbSpline
210
0.0
220
0.0
230
1.0
 70
     8
 71
     3
 72
    35
 73
    31
 74
     0
 42
0.000000001
 43
0.0000000001
 40
-21.29052340907742
 40
-21.29052340907742
 40
-21.29052340907742
 40
-21.29052340907742
 40
-20.09030225747283
 40
-19.4508953258949
 40
-18.79616858581712
 40
-18.40348689596203
 40
-18.20323209221873
 40
-18.00118544930303
 40
-17.64791820344995
 40
-17.29779240719692
 40
-17.05433016171483
 40
-16.81447999607517
 40
-16.56621434235525
 40
-16.24216093903146
 40
-15.05812707602911
 40
-14.48211977252136
 40
-13.90631383006255
 40
-12.6667968358364
 40
-11.38765340373526
 40
-10.71619595131842
 40
-10.03763722837931
 40
-9.33701971540726
 40
-8.622931506501279
 40
-7.111438093592548
 40
-5.573951835782332
 40
-3.98021372722645
 40
-3.195853407963301
 40
-2.474806189780193
 40
-1.200721309039849
 40
0.0
 40
0.0
 40
0.0
 40
0.0
 10
-498.0211475607721
 20
0.1180609292656527
 30
714.9442138671875
 10
-498.0195863255326
 20
10.28193484392807
 30
714.9442138671875
 10
-499.2640632514283
 20
25.84621427869399
 30
714.9442138671875
 10
-503.0379227378847
 20
46.63466377124779
 30
714.9442138671875
 10
-506.4375535476588
 20
60.5127105444609
 30
714.9442138671875
 10
-509.4475325202927
 20
70.64052757293087
 30
714.9442138671875
 10
-511.5017511598885
 20
77.0492346842999
 30
714.9442138671875
 10
-513.5032148831294
 20
83.1273798458243
 30
714.9442138671875
 10
-516.181454927804
 20
90.30988577731852
 30
714.9442138671875
 10
-519.1311567339869
 20
97.76616908876452
 30
714.9442138671875
 10
-521.9543900233922
 20
104.233707055686
 30
714.9442138671875
 10
-524.7078136659224
 20
109.7855479950996
 30
714.9442138671875
 10
-528.043180861986
 20
115.798626248171
 30
714.9442138671875
 10
-535.6153417950881
 20
128.6013878508971
 30
714.9442138671875
 10
-545.9302929885129
 20
142.9701432915241
 30
714.9442138671875
 10
-559.1762488500099
 20
157.6797576014547
 30
714.9442138671875
 10
-573.9019538191064
 20
171.5950742006126
 30
714.9442138671875
 10
-594.8526519643019
 20
187.4373442159036
 30
714.9442138671875
 10
-618.445062658063
 20
200.7040565935919
 30
714.9442138671875
 10
-638.8176278960352
 20
209.7010360782375
 30
714.9442138671875
 10
-655.1562713680064
 20
215.6132437151238
 30
714.9442138671875
 10
-672.1732920058668
 20
220.5727666668951
 30
714.9442138671875
 10
-696.3655468976798
 20
226.0248080650191
 30
714.9442138671875
 10
-727.977739852839
 20
230.247569973271
 30
714.9442138671875
 10
-767.3436430715228
 20
231.3581118064409
 30
714.9442138671875
 10
-800.4061945482275
 20
228.3553577242966
 30
714.9442138671875
 10
-826.3071616419143
 20
224.0873173454162
 30
714.9442138671875
 10
-849.2507147206008
 20
218.829296128975
 30
714.9442138671875
 10
-874.9632051362521
 20
210.1358123452006
 30
714.9442138671875
 10
-893.4426807958201
 20
200.0770977894291
 30
714.9442138671875
 10
-901.8794216850144
 20
194.4058465820868
 30
714.9442138671875
  0
SPLINE
  5
9B40B
330
1F
100
AcDbEntity
  8
Default
100
AcDbSpline
210
0.0
220
0.0
230
1.0
 70
     8
 71
     3
 72
     8
 73
     4
 74
     0
 42
0.000000001
 43
0.0000000001
 40
-1.0
 40
-1.0
 40
-1.0
 40
-1.0
 40
0.0
 40
0.0
 40
0.0
 40
0.0
 10
-901.8794216850144
 20
194.4058465820868
 30
714.9442138671875
 10
-943.111610590885
 20
166.6892076352543
 30
714.9442138671875
 10
-961.2704232616994
 20
126.1085140417755
 30
714.9442138671875
 10
-970.0343963417138
 20
86.20526851081843
 30
714.9442138671875
  0
SPLINE
  5
9B40C
330
1F
100
AcDbEntity
  8
Default
100
AcDbSpline
210
0.0
220
0.0
230
1.0
 70
     8
 71
     3
 72
    11
 73
     7
 74
     0
 42
0.000000001
 43
0.0000000001
 40
-3.412367086947839
 40
-3.412367086947839
 40
-3.412367086947839
 40
-3.412367086947839
 40
-1.790162585470303
 40
-0.9142111430713327
 40
-0.467605547583452
 40
0.0
 40
0.0
 40
0.0
 40
0.0
 10
-970.0343963417138
 20
86.20526851081843
 30
714.9442138671875
 10
-972.9810679928261
 20
72.78877791688922
 30
714.9442138671875
 10
-976.169541655795
 20
51.84446093836243
 30
714.9442138671875
 10
-977.9011382092146
 20
26.96528469969201
 30
714.9442138671875
 10
-978.4434253339302
 20
11.81767418748779
 30
714.9442138671875
 10
-978.5221360696482
 20
4.076913554780389
 30
714.9442138671875
 10
-978.5260448524946
 20
0.1180609292656527
 30
714.9442138671875
  0
SPLINE
  5
9B40D
330
1F
100
AcDbEntity
  8
Make2D visible lines
100
AcDbSpline
210
0.0
220
0.0
230
1.0
 70
     8
 71
     3
 72
    14
 73
    10
 74
     0
 42
0.000000001
 43
0.0000000001
 40
0.0
 40
0.0
 40
0.0
 40
0.0
 40
1.481699860261514
 40
2.955788216511598
 40
4.416700758545094
 40
5.884108663557238
 40
7.358109975686018
 40
8.858415456149499
 40
11.80891716318225
 40
11.80891716318225
 40
11.80891716318225
 40
11.80891716318225
 10
-893.8561929503878
 20
0.1173108976269077
 30
714.9442138671875
 10
-893.8603674584131
 20
12.66172498867911
 30
714.9442138671875
 10
-891.4878806759013
 20
37.69424921298707
 30
714.9442138671875
 10
-880.6571085932244
 20
73.6829292245867
 30
714.9442138671875
 10
-862.9041938525702
 20
106.6733985033657
 30
714.9442138671875
 10
-838.931156167604
 20
135.4544117716942
 30
714.9442138671875
 10
-809.5642217453212
 20
159.2287277871538
 30
714.9442138671875
 10
-764.9374560538976
 20
182.6816647221645
 30
714.9442138671875
 10
-727.2429008699307
 20
189.9694409072541
 30
714.9442138671875
 10
-702.2625001546416
 20
189.8992002658452
 30
714.9442138671875
  0
SPLINE
  5
9B40E
330
1F
100
AcDbEntity
  8
Make2D visible lines
100
AcDbSpline
210
0.0
220
0.0
230
1.0
 70
     8
 71
     3
 72
    14
 73
    10
 74
     0
 42
0.000000001
 43
0.0000000001
 40
-11.77268051163042
 40
-11.77268051163042
 40
-11.77268051163042
 40
-11.77268051163042
 40
-10.31305521956241
 40
-9.555794665613511
 40
-8.831339706698615
 40
-5.863857530525328
 40
-2.926562433324921
 40
-1.46251707193435
 40
0.0
 40
0.0
 40
0.0
 40
0.0
 10
-702.2625001546416
 20
189.8992002658452
 30
714.9442138671875
 10
-689.9029461994912
 20
189.8709521774577
 30
714.9442138671875
 10
-671.1437505177932
 20
187.9909826618283
 30
714.9442138671875
 10
-646.9455294968134
 20
181.9680558048786
 30
714.9442138671875
 10
-611.4101063381488
 20
169.3516236047227
 30
714.9442138671875
 10
-563.7001123559557
 20
137.757694545454
 30
714.9442138671875
 10
-528.1598178041904
 20
85.00454868415875
 30
714.9442138671875
 10
-513.6280516649107
 20
37.27126501494343
 30
714.9442138671875
 10
-511.1429485461547
 20
12.50216687161094
 30
714.9442138671875
 10
-511.1423566946564
 20
0.1176201167737645
 30
714.9442138671875
  0
SPLINE
  5
9B40F
330
1F
100
AcDbEntity
  8
Make2D visible lines
100
AcDbSpline
210
0.0
220
0.0
230
1.0
 70
     8
 71
     3
 72
    13
 73
     9
 74
     0
 42
0.000000001
 43
0.0000000001
 40
-11.7727400990787
 40
-11.7727400990787
 40
-11.7727400990787
 40
-11.7727400990787
 40
-8.846116153537671
 40
-5.908821855544181
 40
-2.941340482501388
 40
-2.21688566122531
 40
-1.459625214112689
 40
0.0
 40
0.0
 40
0.0
 40
0.0
 10
-511.1423566946564
 20
0.1176201167737645
 30
714.9442138671875
 10
-511.1431639698028
 20
-24.65959299059239
 30
714.9442138671875
 10
-521.1055799852331
 20
-74.29637214708361
 30
714.9442138671875
 10
-563.7002037624958
 20
-137.5268930805476
 30
714.9442138671875
 10
-611.4100502530318
 20
-169.1160582961132
 30
714.9442138671875
 10
-646.9455585413923
 20
-181.7352089838804
 30
714.9442138671875
 10
-671.1437256484128
 20
-187.7563915095842
 30
714.9442138671875
 10
-689.9029589824826
 20
-189.637552152153
 30
714.9442138671875
 10
-702.2625001519427
 20
-189.665068575125
 30
714.9442138671875
  0
SPLINE
  5
9B410
330
1F
100
AcDbEntity
  8
Make2D visible lines
100
AcDbSpline
210
0.0
220
0.0
230
1.0
 70
     8
 71
     3
 72
    15
 73
    11
 74
     0
 42
0.000000001
 43
0.0000000001
 40
0.0
 40
0.0
 40
0.0
 40
0.0
 40
1.470019918796529
 40
2.970242495676713
 40
4.437641340435603
 40
5.921518609508079
 40
7.379060719792957
 40
8.853121015021443
 40
10.32719972765261
 40
11.80891731241405
 40
11.80891731241405
 40
11.80891731241405
 40
11.80891731241405
 10
-702.2625001519427
 20
-189.665068575125
 30
714.9442138671875
 10
-714.7097174421212
 20
-189.7025365199973
 30
714.9442138671875
 10
-739.8583539330862
 20
-187.3095494499806
 30
714.9442138671875
 10
-776.0615887038055
 20
-176.5976481970532
 30
714.9442138671875
 10
-809.5744706875493
 20
-158.9631393800126
 30
714.9442138671875
 10
-838.7523030702611
 20
-135.3962568942573
 30
714.9442138671875
 10
-862.8271566946967
 20
-106.5574372288323
 30
714.9442138671875
 10
-880.6249442472926
 20
-73.55585183640267
 30
714.9442138671875
 10
-891.4876929731834
 20
-37.45975718902798
 30
714.9442138671875
 10
-893.8604806834909
 20
-12.42727596923339
 30
714.9442138671875
 10
-893.8561929503878
 20
0.1173108976269077
 30
714.9442138671875
  0
SPLINE
  5
9B411
330
1F
100
AcDbEntity
  8
Make2D visible lines
100
AcDbSpline
210
0.0
220
0.0
230
1.0
 70
    12
 71
     2
 72
     6
 73
     3
 74
     0
 42
0.000000001
 43
0.0000000001
 40
0.0
 40
0.0
 40
0.0
 40
0.0853474550214741
 40
0.0853474550214741
 40
0.0853474550214741
 10
-1011.404409022901
 20
241.6413330655461
 30
714.9442138671875
 41
1.0
 10
-1012.222934518935
 20
242.3525488846359
 30
714.9442138671875
 41
0.9993970637774639
 10
-1012.990128861378
 20
243.1188548091232
 30
714.9442138671875
 41
1.0
  0
SPLINE
  5
9B412
330
1F
100
AcDbEntity
  8
Make2D visible lines - Tangent
100
AcDbSpline
210
0.0
220
0.0
230
1.0
 70
     8
 71
     3
 72
    12
 73
     8
 74
     0
 42
0.000000001
 43
0.0000000001
 40
0.0
 40
0.0
 40
0.0
 40
0.0
 40
0.1510110321465192
 40
0.3037660471064116
 40
0.5900965017365678
 40
0.8249401141264362
 40
1.014583801502342
 40
1.014583801502342
 40
1.014583801502342
 40
1.014583801502342
 10
-996.287492738543
 20
255.4993459852673
 30
714.9442138671875
 10
-997.0993799865778
 20
256.4878289770624
 30
714.9442138671875
 10
-998.8499924754638
 20
258.3760110329482
 30
714.9442138671875
 10
-1002.687430190513
 20
261.5951802341034
 30
714.9442138671875
 10
-1007.691150076486
 20
264.4273902601
 30
714.9442138671875
 10
-1013.718744545426
 20
265.6147047029536
 30
714.9442138671875
 10
-1017.285015512709
 20
264.3741234474557
 30
714.9442138671875
 10
-1018.418274687816
 20
263.1958379977524
 30
714.9442138671875
  0
SPLINE
  5
9B413
330
1F
100
AcDbEntity
  8
Make2D visible lines - Tangent
100
AcDbSpline
210
0.0
220
0.0
230
1.0
 70
     8
 71
     3
 72
    12
 73
     8
 74
     0
 42
0.000000001
 43
0.0000000001
 40
-1.014583801502342
 40
-1.014583801502342
 40
-1.014583801502342
 40
-1.014583801502342
 40
-0.8249401141264362
 40
-0.5900965017365678
 40
-0.3037660471064116
 40
-0.1510110321465192
 40
0.0
 40
0.0
 40
0.0
 40
0.0
 10
-1018.418274687816
 20
263.1958379977524
 30
714.9442138671875
 10
-1019.596560137519
 20
262.0625788226444
 30
714.9442138671875
 10
-1020.837141393018
 20
258.496307855362
 30
714.9442138671875
 10
-1019.649826950164
 20
252.4687133864219
 30
714.9442138671875
 10
-1016.817616924168
 20
247.4649935004492
 30
714.9442138671875
 10
-1013.598447723013
 20
243.6275557853997
 30
714.9442138671875
 10
-1011.710265667126
 20
241.8769432965129
 30
714.9442138671875
 10
-1010.721782675331
 20
241.0650560484784
 30
714.9442138671875
  0
SPLINE
  5
9B414
330
1F
100
AcDbEntity
  8
Make2D visible lines - Tangent
100
AcDbSpline
210
0.0
220
0.0
230
1.0
 70
    12
 71
     2
 72
     6
 73
     3
 74
     0
 42
0.000000001
 43
0.0000000001
 40
0.0
 40
0.0
 40
0.0
 40
0.1369528492222414
 40
0.1369528492222414
 40
0.1369528492222414
 10
-990.0887188258552
 20
248.0712380847855
 30
714.9442138671875
 41
1.0
 10
-991.3439765279532
 20
249.2751454029382
 30
714.9442138671875
 41
0.9999966913238282
 10
-992.5607575607729
 20
250.5189270815
 30
714.9442138671875
 41
0.9999959461296658
  0
ARC
  5
9B415
330
1F
100
AcDbEntity
  8
Make2D visible lines - Tangent
100
AcDbCircle
 10
-983.7293935317555
 20
259.6456466119203
 30
714.9442138671875
 40
12.7
100
AcDbArc
 50
213.487152173538
 51
225.9422552251315
  0
SPLINE
  5
9B416
330
1F
100
AcDbEntity
  8
Make2D visible lines - Tangent
100
AcDbSpline
210
0.0
220
0.0
230
1.0
 70
     8
 71
     3
 72
    14
 73
    10
 74
     0
 42
0.000000001
 43
0.0000000001
 40
0.2772630823298201
 40
0.2772630823298201
 40
0.2772630823298201
 40
0.2772630823298201
 40
1.0
 40
2.0
 40
3.0
 40
4.0
 40
5.0
 40
6.0
 40
7.0
 40
7.0
 40
7.0
 40
7.0
 10
-994.3213150164663
 20
252.6384218216268
 30
714.9442138671875
 10
-994.8898805887129
 20
253.4978493525483
 30
714.9442138671875
 10
-996.3367711778513
 20
255.4859346765971
 30
714.9442138671875
 10
-999.0023480509639
 20
258.3218263861478
 30
714.9442138671875
 10
-1002.339244324774
 20
261.0116271842995
 30
714.9442138671875
 10
-1006.02609133857
 20
263.2066968957412
 30
714.9442138671875
 10
-1010.055638390622
 20
264.7042293331202
 30
714.9442138671875
 10
-1014.385282034875
 20
265.078784702048
 30
714.9442138671875
 10
-1017.137365016985
 20
263.9510577568572
 30
714.9442138671875
 10
-1018.146323587964
 20
262.9238690609537
 30
714.9442138671875
  0
SPLINE
  5
9B417
330
1F
100
AcDbEntity
  8
Make2D visible lines - Tangent
100
AcDbSpline
210
0.0
220
0.0
230
1.0
 70
     8
 71
     3
 72
    14
 73
    10
 74
     0
 42
0.000000001
 43
0.0000000001
 40
-7.0
 40
-7.0
 40
-7.0
 40
-7.0
 40
-6.0
 40
-5.0
 40
-4.0
 40
-3.0
 40
-2.0
 40
-1.0
 40
-0.2482205602640466
 40
-0.2482205602640466
 40
-0.2482205602640466
 40
-0.2482205602640466
 10
-1018.146323587964
 20
262.9238690609537
 30
714.9442138671875
 10
-1019.173512283868
 20
261.9149104899749
 30
714.9442138671875
 10
-1020.301239229058
 20
259.1628275078639
 30
714.9442138671875
 10
-1019.926683860131
 20
254.8331838636114
 30
714.9442138671875
 10
-1018.429151422751
 20
250.8036368115601
 30
714.9442138671875
 10
-1016.23408171131
 20
247.116789797764
 30
714.9442138671875
 10
-1013.544280913158
 20
243.7798935239535
 30
714.9442138671875
 10
-1010.678139697305
 20
241.08588383581
 30
714.9442138671875
 10
-1008.65321709121
 20
239.6187097699959
 30
714.9442138671875
 10
-1007.757148090424
 20
239.0305046274944
 30
714.9442138671875
  0
ARC
  5
9B418
330
1F
100
AcDbEntity
  8
Make2D visible lines - Tangent
100
AcDbCircle
 10
-1014.726408764007
 20
228.4135650654718
 30
714.9442138671875
 40
12.7
100
AcDbArc
 50
43.97757980795684
 51
56.71796787816255
  0
SPLINE
  5
9B419
330
1F
100
AcDbEntity
  8
Make2D visible lines - Tangent
100
AcDbSpline
210
0.0
220
0.0
230
1.0
 70
    12
 71
     2
 72
     6
 73
     3
 74
     0
 42
0.000000001
 43
0.0000000001
 40
-0.1297405451143296
 40
-0.1297405451143296
 40
-0.1297405451143296
 40
0.0
 40
0.0
 40
0.0
 10
-1005.587341833068
 20
237.2321508722663
 30
714.9442138671875
 41
0.9999960316975588
 10
-1004.443213374431
 20
236.0464430059307
 30
714.9442138671875
 41
0.999996865512317
 10
-1003.302687131743
 20
234.8572697788974
 30
714.9442138671875
 41
1.0
  0
SPLINE
  5
9B41A
330
1F
100
AcDbEntity
  8
Make2D visible lines
100
AcDbSpline
210
0.0
220
0.0
230
1.0
 70
    12
 71
     2
 72
     6
 73
     3
 74
     0
 42
0.000000001
 43
0.0000000001
 40
0.0
 40
0.0
 40
0.0
 40
0.0853474550214741
 40
0.0853474550214741
 40
0.0853474550214741
 10
-996.8637695492976
 20
-256.0100684801172
 30
714.9442138671875
 41
1.0
 10
-997.5749853683874
 20
-256.8285939761507
 30
714.9442138671875
 41
0.9993970637774639
 10
-998.3412912928743
 20
-257.5957883185937
 30
714.9442138671875
 41
1.0
  0
SPLINE
  5
9B41B
330
1F
100
AcDbEntity
  8
Make2D visible lines - Tangent
100
AcDbSpline
210
0.0
220
0.0
230
1.0
 70
     8
 71
     3
 72
    12
 73
     8
 74
     0
 42
0.000000001
 43
0.0000000001
 40
0.0
 40
0.0
 40
0.0
 40
0.0
 40
0.1510110321465192
 40
0.3037660471064116
 40
0.5900965017365678
 40
0.8249401141264362
 40
1.014583801502342
 40
1.014583801502342
 40
1.014583801502342
 40
1.014583801502342
 10
-1010.721782469018
 20
-240.8931521957587
 30
714.9442138671875
 10
-1011.710265460813
 20
-241.7050394437932
 30
714.9442138671875
 10
-1013.5984475167
 20
-243.4556519326801
 30
714.9442138671875
 10
-1016.817616717855
 20
-247.2930896477286
 30
714.9442138671875
 10
-1019.649826743851
 20
-252.2968095337018
 30
714.9442138671875
 10
-1020.837141186705
 20
-258.3244040026424
 30
714.9442138671875
 10
-1019.596559931207
 20
-261.8906749699243
 30
714.9442138671875
 10
-1018.418274481503
 20
-263.0239341450323
 30
714.9442138671875
  0
SPLINE
  5
9B41C
330
1F
100
AcDbEntity
  8
Make2D visible lines - Tangent
100
AcDbSpline
210
0.0
220
0.0
230
1.0
 70
     8
 71
     3
 72
    12
 73
     8
 74
     0
 42
0.000000001
 43
0.0000000001
 40
-1.014583801502342
 40
-1.014583801502342
 40
-1.014583801502342
 40
-1.014583801502342
 40
-0.8249401141264362
 40
-0.5900965017365678
 40
-0.3037660471064116
 40
-0.1510110321465192
 40
0.0
 40
0.0
 40
0.0
 40
0.0
 10
-1018.418274481503
 20
-263.0239341450323
 30
714.9442138671875
 10
-1017.285015306395
 20
-264.202219594736
 30
714.9442138671875
 10
-1013.718744339113
 20
-265.4428008502335
 30
714.9442138671875
 10
-1007.691149870173
 20
-264.2554864073803
 30
714.9442138671875
 10
-1002.6874299842
 20
-261.4232763813837
 30
714.9442138671875
 10
-998.8499922691509
 20
-258.2041071802286
 30
714.9442138671875
 10
-997.0993797802643
 20
-256.3159251243423
 30
714.9442138671875
 10
-996.2874925322298
 20
-255.3274421325472
 30
714.9442138671875
  0
SPLINE
  5
9B41D
330
1F
100
AcDbEntity
  8
Make2D visible lines - Tangent
100
AcDbSpline
210
0.0
220
0.0
230
1.0
 70
    12
 71
     2
 72
     6
 73
     3
 74
     0
 42
0.000000001
 43
0.0000000001
 40
0.0
 40
0.0
 40
0.0
 40
0.1369528492222414
 40
0.1369528492222414
 40
0.1369528492222414
 10
-1003.293674568536
 20
-234.6943782830716
 30
714.9442138671875
 41
1.0
 10
-1004.497581886689
 20
-235.9496359851686
 30
714.9442138671875
 41
0.9999966913238282
 10
-1005.741363565251
 20
-237.1664170179887
 30
714.9442138671875
 41
0.9999959461296658
  0
ARC
  5
9B41E
330
1F
100
AcDbEntity
  8
Make2D visible lines - Tangent
100
AcDbCircle
 10
-1014.868083095672
 20
-228.3350529889707
 30
714.9442138671875
 40
12.7
100
AcDbArc
 50
303.4871521735317
 51
315.9422552251303
  0
SPLINE
  5
9B41F
330
1F
100
AcDbEntity
  8
Make2D visible lines - Tangent
100
AcDbSpline
210
0.0
220
0.0
230
1.0
 70
     8
 71
     3
 72
    14
 73
    10
 74
     0
 42
0.000000001
 43
0.0000000001
 40
0.2772630823298201
 40
0.2772630823298201
 40
0.2772630823298201
 40
0.2772630823298201
 40
1.0
 40
2.0
 40
3.0
 40
4.0
 40
5.0
 40
6.0
 40
7.0
 40
7.0
 40
7.0
 40
7.0
 10
-1007.860858305378
 20
-238.926974473682
 30
714.9442138671875
 10
-1008.7202858363
 20
-239.4955400459283
 30
714.9442138671875
 10
-1010.708371160348
 20
-240.9424306350669
 30
714.9442138671875
 10
-1013.544262869899
 20
-243.6080075081799
 30
714.9442138671875
 10
-1016.234063668051
 20
-246.9449037819903
 30
714.9442138671875
 10
-1018.429133379492
 20
-250.6317507957868
 30
714.9442138671875
 10
-1019.926665816871
 20
-254.6612978478373
 30
714.9442138671875
 10
-1020.3012211858
 20
-258.9909414920898
 30
714.9442138671875
 10
-1019.173494240608
 20
-261.7430244742017
 30
714.9442138671875
 10
-1018.146305544705
 20
-262.7519830451805
 30
714.9442138671875
  0
SPLINE
  5
9B420
330
1F
100
AcDbEntity
  8
Make2D visible lines - Tangent
100
AcDbSpline
210
0.0
220
0.0
230
1.0
 70
     8
 71
     3
 72
    14
 73
    10
 74
     0
 42
0.000000001
 43
0.0000000001
 40
-7.0
 40
-7.0
 40
-7.0
 40
-7.0
 40
-6.0
 40
-5.0
 40
-4.0
 40
-3.0
 40
-2.0
 40
-1.0
 40
-0.2482205602640466
 40
-0.2482205602640466
 40
-0.2482205602640466
 40
-0.2482205602640466
 10
-1018.146305544705
 20
-262.7519830451805
 30
714.9442138671875
 10
-1017.137346973726
 20
-263.779171741084
 30
714.9442138671875
 10
-1014.385263991615
 20
-264.9068986862748
 30
714.9442138671875
 10
-1010.055620347362
 20
-264.5323433173465
 30
714.9442138671875
 10
-1006.026073295312
 20
-263.034810879967
 30
714.9442138671875
 10
-1002.339226281515
 20
-260.8397411685263
 30
714.9442138671875
 10
-999.0023300077046
 20
-258.1499403703737
 30
714.9442138671875
 10
-996.3083203195617
 20
-255.283799154521
 30
714.9442138671875
 10
-994.8411462537469
 20
-253.2588765484264
 30
714.9442138671875
 10
-994.2529411112458
 20
-252.3628075476394
 30
714.9442138671875
  0
ARC
  5
9B421
330
1F
100
AcDbEntity
  8
Make2D visible lines - Tangent
100
AcDbCircle
 10
-983.6360015492228
 20
-259.3320682212237
 30
714.9442138671875
 40
12.7
100
AcDbArc
 50
133.97757980795
 51
146.7179678781725
  0
SPLINE
  5
9B422
330
1F
100
AcDbEntity
  8
Make2D visible lines - Tangent
100
AcDbSpline
210
0.0
220
0.0
230
1.0
 70
    12
 71
     2
 72
     6
 73
     3
 74
     0
 42
0.000000001
 43
0.0000000001
 40
-0.1297405451143296
 40
-0.1297405451143296
 40
-0.1297405451143296
 40
0.0
 40
0.0
 40
0.0
 10
-992.4545873560177
 20
-250.1930012902834
 30
714.9442138671875
 41
0.9999960316975588
 10
-991.2688794896817
 20
-249.0488728316472
 30
714.9442138671875
 41
0.999996865512317
 10
-990.0797062626486
 20
-247.9083465889597
 30
714.9442138671875
 41
1.0
  0
SPLINE
  5
9B423
330
1F
100
AcDbEntity
  8
Make2D visible lines
100
AcDbSpline
210
0.0
220
0.0
230
1.0
 70
    12
 71
     2
 72
     6
 73
     3
 74
     0
 42
0.000000001
 43
0.0000000001
 40
0.0
 40
0.0
 40
0.0
 40
0.0853474550214741
 40
0.0853474550214741
 40
0.0853474550214741
 10
-499.2123680036345
 20
-241.469429006513
 30
714.9442138671875
 41
1.0
 10
-498.3938425076012
 20
-242.1806448256033
 30
714.9442138671875
 41
0.9993970637774639
 10
-497.6266481651578
 20
-242.9469507500902
 30
714.9442138671875
 41
1.0
  0
SPLINE
  5
9B424
330
1F
100
AcDbEntity
  8
Make2D visible lines - Tangent
100
AcDbSpline
210
0.0
220
0.0
230
1.0
 70
     8
 71
     3
 72
    12
 73
     8
 74
     0
 42
0.000000001
 43
0.0000000001
 40
0.0
 40
0.0
 40
0.0
 40
0.0
 40
0.1510110321465192
 40
0.3037660471064116
 40
0.5900965017365678
 40
0.8249401141264362
 40
1.014583801502342
 40
1.014583801502342
 40
1.014583801502342
 40
1.014583801502342
 10
-514.329284287993
 20
-255.3274419262342
 30
714.9442138671875
 10
-513.5173970399582
 20
-256.3159249180293
 30
714.9442138671875
 10
-511.7667845510714
 20
-258.2041069739152
 30
714.9442138671875
 10
-507.9293468360226
 20
-261.4232761750703
 30
714.9442138671875
 10
-502.9256269500497
 20
-264.2554862010669
 30
714.9442138671875
 10
-496.8980324811093
 20
-265.4428006439206
 30
714.9442138671875
 10
-493.3317615138269
 20
-264.2022193884226
 30
714.9442138671875
 10
-492.1985023387192
 20
-263.0239339387198
 30
714.9442138671875
  0
SPLINE
  5
9B425
330
1F
100
AcDbEntity
  8
Make2D visible lines - Tangent
100
AcDbSpline
210
0.0
220
0.0
230
1.0
 70
     8
 71
     3
 72
    12
 73
     8
 74
     0
 42
0.000000001
 43
0.0000000001
 40
-1.014583801502342
 40
-1.014583801502342
 40
-1.014583801502342
 40
-1.014583801502342
 40
-0.8249401141264362
 40
-0.5900965017365678
 40
-0.3037660471064116
 40
-0.1510110321465192
 40
0.0
 40
0.0
 40
0.0
 40
0.0
 10
-492.1985023387192
 20
-263.0239339387198
 30
714.9442138671875
 10
-491.0202168890156
 20
-261.8906747636114
 30
714.9442138671875
 10
-489.7796356335177
 20
-258.3244037963289
 30
714.9442138671875
 10
-490.9669500763714
 20
-252.2968093273888
 30
714.9442138671875
 10
-493.799160102368
 20
-247.2930894414161
 30
714.9442138671875
 10
-497.018329303523
 20
-243.4556517263672
 30
714.9442138671875
 10
-498.906511359409
 20
-241.7050392374803
 30
714.9442138671875
 10
-499.8949943512041
 20
-240.8931519894458
 30
714.9442138671875
  0
SPLINE
  5
9B426
330
1F
100
AcDbEntity
  8
Make2D visible lines - Tangent
100
AcDbSpline
210
0.0
220
0.0
230
1.0
 70
    12
 71
     2
 72
     6
 73
     3
 74
     0
 42
0.000000001
 43
0.0000000001
 40
0.0
 40
0.0
 40
0.0
 40
0.1369528492222414
 40
0.1369528492222414
 40
0.1369528492222414
 10
-520.5280582006796
 20
-247.8993340257529
 30
714.9442138671875
 41
1.0
 10
-519.2728004985826
 20
-249.1032413439056
 30
714.9442138671875
 41
0.9999966913238282
 10
-518.0560194657625
 20
-250.347023022467
 30
714.9442138671875
 41
0.9999959461296658
  0
ARC
  5
9B427
330
1F
100
AcDbEntity
  8
Make2D visible lines - Tangent
100
AcDbCircle
 10
-526.8873834947806
 20
-259.4737425528878
 30
714.9442138671875
 40
12.7
100
AcDbArc
 50
33.4871521735371
 51
45.94225522513148
  0
SPLINE
  5
9B428
330
1F
100
AcDbEntity
  8
Make2D visible lines - Tangent
100
AcDbSpline
210
0.0
220
0.0
230
1.0
 70
     8
 71
     3
 72
    14
 73
    10
 74
     0
 42
0.000000001
 43
0.0000000001
 40
0.2772630823298201
 40
0.2772630823298201
 40
0.2772630823298201
 40
0.2772630823298201
 40
1.0
 40
2.0
 40
3.0
 40
4.0
 40
5.0
 40
6.0
 40
7.0
 40
7.0
 40
7.0
 40
7.0
 10
-516.2954620100692
 20
-252.4665177625938
 30
714.9442138671875
 10
-515.7268964378231
 20
-253.3259452935157
 30
714.9442138671875
 10
-514.2800058486845
 20
-255.3140306175641
 30
714.9442138671875
 10
-511.6144289755716
 20
-258.1499223271147
 30
714.9442138671875
 10
-508.2775327017617
 20
-260.8397231252669
 30
714.9442138671875
 10
-504.5906856879652
 20
-263.0347928367076
 30
714.9442138671875
 10
-500.561138635914
 20
-264.5323252740872
 30
714.9442138671875
 10
-496.2314949916611
 20
-264.9068806430149
 30
714.9442138671875
 10
-493.4794120095503
 20
-263.7791536978242
 30
714.9442138671875
 10
-492.4704534385712
 20
-262.7519650019211
 30
714.9442138671875
  0
SPLINE
  5
9B429
330
1F
100
AcDbEntity
  8
Make2D visible lines - Tangent
100
AcDbSpline
210
0.0
220
0.0
230
1.0
 70
     8
 71
     3
 72
    14
 73
    10
 74
     0
 42
0.000000001
 43
0.0000000001
 40
-7.0
 40
-7.0
 40
-7.0
 40
-7.0
 40
-6.0
 40
-5.0
 40
-4.0
 40
-3.0
 40
-2.0
 40
-1.0
 40
-0.2482205602640466
 40
-0.2482205602640466
 40
-0.2482205602640466
 40
-0.2482205602640466
 10
-492.4704534385712
 20
-262.7519650019211
 30
714.9442138671875
 10
-491.4432647426675
 20
-261.7430064309418
 30
714.9442138671875
 10
-490.3155377974774
 20
-258.9909234488308
 30
714.9442138671875
 10
-490.690093166405
 20
-254.6612798045784
 30
714.9442138671875
 10
-492.1876256037842
 20
-250.631732752527
 30
714.9442138671875
 10
-494.3826953152254
 20
-246.9448857387309
 30
714.9442138671875
 10
-497.0724961133776
 20
-243.6079894649205
 30
714.9442138671875
 10
-499.9386373292304
 20
-240.9139797767774
 30
714.9442138671875
 10
-501.9635599353255
 20
-239.4468057109624
 30
714.9442138671875
 10
-502.8596289361122
 20
-238.8586005684609
 30
714.9442138671875
  0
ARC
  5
9B42A
330
1F
100
AcDbEntity
  8
Make2D visible lines - Tangent
100
AcDbCircle
 10
-495.8903682625281
 20
-228.2416610064391
 30
714.9442138671875
 40
12.7
100
AcDbArc
 50
223.9775798079568
 51
236.7179678781625
  0
SPLINE
  5
9B42B
330
1F
100
AcDbEntity
  8
Make2D visible lines - Tangent
100
AcDbSpline
210
0.0
220
0.0
230
1.0
 70
    12
 71
     2
 72
     6
 73
     3
 74
     0
 42
0.000000001
 43
0.0000000001
 40
-0.1297405451143296
 40
-0.1297405451143296
 40
-0.1297405451143296
 40
0.0
 40
0.0
 40
0.0
 10
-505.0294351934679
 20
-237.0602468132332
 30
714.9442138671875
 41
0.9999960316975588
 10
-506.1735636521044
 20
-235.874538946898
 30
714.9442138671875
 41
0.999996865512317
 10
-507.3140898947918
 20
-234.6853657198643
 30
714.9442138671875
 41
1.0
  0
SPLINE
  5
9B42C
330
1F
100
AcDbEntity
  8
Make2D visible lines - Tangent
100
AcDbSpline
210
0.0
220
0.0
230
1.0
 70
    12
 71
     2
 72
     6
 73
     3
 74
     0
 42
0.000000001
 43
0.0000000001
 40
0.0
 40
0.0
 40
0.0
 40
0.1369528492222414
 40
0.1369528492222414
 40
0.1369528492222414
 10
-507.3231024579984
 20
234.8662823421042
 30
714.9442138671875
 41
1.0
 10
-506.1191951398457
 20
236.1215400442012
 30
714.9442138671875
 41
0.9999966913238282
 10
-504.8754134612845
 20
237.3383210770218
 30
714.9442138671875
 41
0.9999959461296658
  0
ARC
  5
9B42D
330
1F
100
AcDbEntity
  8
Make2D visible lines - Tangent
100
AcDbCircle
 10
-495.7486939308638
 20
228.5069570480037
 30
714.9442138671875
 40
12.7
100
AcDbArc
 50
123.4871521735317
 51
135.9422552251314
  0
SPLINE
  5
9B42E
330
1F
100
AcDbEntity
  8
Make2D visible lines - Tangent
100
AcDbSpline
210
0.0
220
0.0
230
1.0
 70
     8
 71
     3
 72
    14
 73
    10
 74
     0
 42
0.000000001
 43
0.0000000001
 40
0.2772630823298201
 40
0.2772630823298201
 40
0.2772630823298201
 40
0.2772630823298201
 40
1.0
 40
2.0
 40
3.0
 40
4.0
 40
5.0
 40
6.0
 40
7.0
 40
7.0
 40
7.0
 40
7.0
 10
-502.7559187211573
 20
239.098878532715
 30
714.9442138671875
 10
-501.8964911902361
 20
239.667444104961
 30
714.9442138671875
 10
-499.9084058661872
 20
241.1143346940999
 30
714.9442138671875
 10
-497.072514156637
 20
243.7799115672125
 30
714.9442138671875
 10
-494.3827133584846
 20
247.1168078410229
 30
714.9442138671875
 10
-492.1876436470436
 20
250.8036548548195
 30
714.9442138671875
 10
-490.6901112096641
 20
254.8332019068704
 30
714.9442138671875
 10
-490.3155558407362
 20
259.1628455511228
 30
714.9442138671875
 10
-491.4432827859271
 20
261.9149285332343
 30
714.9442138671875
 10
-492.4704714818304
 20
262.9238871042131
 30
714.9442138671875
  0
SPLINE
  5
9B42F
330
1F
100
AcDbEntity
  8
Make2D visible lines - Tangent
100
AcDbSpline
210
0.0
220
0.0
230
1.0
 70
     8
 71
     3
 72
    14
 73
    10
 74
     0
 42
0.000000001
 43
0.0000000001
 40
-7.0
 40
-7.0
 40
-7.0
 40
-7.0
 40
-6.0
 40
-5.0
 40
-4.0
 40
-3.0
 40
-2.0
 40
-1.0
 40
-0.2482205602640466
 40
-0.2482205602640466
 40
-0.2482205602640466
 40
-0.2482205602640466
 10
-492.4704714818304
 20
262.9238871042131
 30
714.9442138671875
 10
-493.4794300528094
 20
263.9510758001167
 30
714.9442138671875
 10
-496.2315130349207
 20
265.0788027453074
 30
714.9442138671875
 10
-500.5611566791731
 20
264.7042473763792
 30
714.9442138671875
 10
-504.5907037312243
 20
263.2067149390001
 30
714.9442138671875
 10
-508.2775507450206
 20
261.0116452275589
 30
714.9442138671875
 10
-511.614447018831
 20
258.3218444294067
 30
714.9442138671875
 10
-514.3084567069736
 20
255.4557032135536
 30
714.9442138671875
 10
-515.7756307727888
 20
253.4307806074586
 30
714.9442138671875
 10
-516.36383591529
 20
252.5347116066724
 30
714.9442138671875
  0
ARC
  5
9B430
330
1F
100
AcDbEntity
  8
Make2D visible lines - Tangent
100
AcDbCircle
 10
-526.9807754773124
 20
259.5039722802563
 30
714.9442138671875
 40
12.7
100
AcDbArc
 50
313.97757980795
 51
326.7179678781725
  0
SPLINE
  5
9B431
330
1F
100
AcDbEntity
  8
Make2D visible lines - Tangent
100
AcDbSpline
210
0.0
220
0.0
230
1.0
 70
    12
 71
     2
 72
     6
 73
     3
 74
     0
 42
0.000000001
 43
0.0000000001
 40
-0.1297405451143296
 40
-0.1297405451143296
 40
-0.1297405451143296
 40
0.0
 40
0.0
 40
0.0
 10
-518.1621896705175
 20
250.3649053493165
 30
714.9442138671875
 41
0.9999960316975588
 10
-519.3478975368534
 20
249.2207768906802
 30
714.9442138671875
 41
0.999996865512317
 10
-520.5370707638872
 20
248.0802506479928
 30
714.9442138671875
 41
1.0
  0
SPLINE
  5
9B432
330
1F
100
AcDbEntity
  8
Make2D visible lines - Tangent
100
AcDbSpline
210
0.0
220
0.0
230
1.0
 70
     8
 71
     3
 72
    12
 73
     8
 74
     0
 42
0.000000001
 43
0.0000000001
 40
0.0
 40
0.0
 40
0.0
 40
0.0
 40
0.1510110321465192
 40
0.3037660471064116
 40
0.5900965017365678
 40
0.8249401141264362
 40
1.014583801502342
 40
1.014583801502342
 40
1.014583801502342
 40
1.014583801502342
 10
-499.8949945575173
 20
241.0650562547913
 30
714.9442138671875
 10
-498.906511565722
 20
241.8769435028258
 30
714.9442138671875
 10
-497.0183295098359
 20
243.6275559917127
 30
714.9442138671875
 10
-493.799160308681
 20
247.4649937067621
 30
714.9442138671875
 10
-490.9669502826846
 20
252.4687135927344
 30
714.9442138671875
 10
-489.7796358398305
 20
258.4963080616745
 30
714.9442138671875
 10
-491.0202170953287
 20
262.0625790289574
 30
714.9442138671875
 10
-492.1985025450322
 20
263.1958382040649
 30
714.9442138671875
  0
SPLINE
  5
9B433
330
1F
100
AcDbEntity
  8
Make2D visible lines - Tangent
100
AcDbSpline
210
0.0
220
0.0
230
1.0
 70
     8
 71
     3
 72
    12
 73
     8
 74
     0
 42
0.000000001
 43
0.0000000001
 40
-1.014583801502342
 40
-1.014583801502342
 40
-1.014583801502342
 40
-1.014583801502342
 40
-0.8249401141264362
 40
-0.5900965017365678
 40
-0.3037660471064116
 40
-0.1510110321465192
 40
0.0
 40
0.0
 40
0.0
 40
0.0
 10
-492.1985025450322
 20
263.1958382040649
 30
714.9442138671875
 10
-493.3317617201401
 20
264.3741236537691
 30
714.9442138671875
 10
-496.8980326874223
 20
265.6147049092666
 30
714.9442138671875
 10
-502.9256271563625
 20
264.4273904664129
 30
714.9442138671875
 10
-507.9293470423352
 20
261.5951804404168
 30
714.9442138671875
 10
-511.7667847573843
 20
258.3760112392616
 30
714.9442138671875
 10
-513.517397246271
 20
256.4878291833753
 30
714.9442138671875
 10
-514.329284494306
 20
255.4993461915798
 30
714.9442138671875
  0
SPLINE
  5
9B434
330
1F
100
AcDbEntity
  8
Make2D visible lines
100
AcDbSpline
210
0.0
220
0.0
230
1.0
 70
    12
 71
     2
 72
     6
 73
     3
 74
     0
 42
0.000000001
 43
0.0000000001
 40
0.0
 40
0.0
 40
0.0
 40
0.0853474550214741
 40
0.0853474550214741
 40
0.0853474550214741
 10
-513.7530074772384
 20
256.1819725391498
 30
714.9442138671875
 41
1.0
 10
-513.0417916581484
 20
257.0004980351833
 30
714.9442138671875
 41
0.9993970637774639
 10
-512.2754857336611
 20
257.7676923776268
 30
714.9442138671875
 41
1.0
  0
SPLINE
  5
9B435
330
1F
100
AcDbEntity
  8
Make2D visible lines - Tangent
100
AcDbSpline
210
0.0
220
0.0
230
1.0
 70
    12
 71
     2
 72
     6
 73
     3
 74
     0
 42
0.000000001
 43
0.0000000001
 40
-3.799577872997743
 40
-3.799577872997743
 40
-3.799577872997743
 40
0.0
 40
0.0
 40
0.0
 10
-934.5842763387826
 20
164.5843463093148
 30
714.9442138671875
 41
0.9999999984898234
 10
-968.3399884126435
 20
199.0986092516442
 30
714.9442138671875
 41
0.9999999988338577
 10
-1002.105726110771
 20
233.6202017710867
 30
714.9442138671875
 41
1.0
  0
SPLINE
  5
9B436
330
1F
100
AcDbEntity
  8
Make2D visible lines - Tangent
100
AcDbSpline
210
0.0
220
0.0
230
1.0
 70
     8
 71
     3
 72
    14
 73
    10
 74
     0
 42
0.000000001
 43
0.0000000001
 40
0.0
 40
0.0
 40
0.0
 40
0.0
 40
1.0
 40
2.0
 40
3.0
 40
4.0
 40
5.0
 40
6.0
 40
7.0
 40
7.0
 40
7.0
 40
7.0
 10
-1002.105726110771
 20
233.6202017710867
 30
714.9442138671875
 10
-1003.3495943953
 20
234.9017831341304
 30
714.9442138671875
 10
-1005.367258149913
 20
237.6485383141491
 30
714.9442138671875
 10
-1007.102105608093
 20
242.4648657092267
 30
714.9442138671875
 10
-1006.660565739126
 20
247.7489563461314
 30
714.9442138671875
 10
-1002.770951370485
 20
251.5172541254639
 30
714.9442138671875
 10
-997.4882675149519
 20
251.8438670543011
 30
714.9442138671875
 10
-992.6962248601705
 20
250.0483790554323
 30
714.9442138671875
 10
-989.9708011907877
 20
248.0021507460343
 30
714.9442138671875
 10
-988.7770871488033
 20
246.8095086997902
 30
714.9442138671875
  0
SPLINE
  5
9B437
330
1F
100
AcDbEntity
  8
Make2D visible lines - Tangent
100
AcDbSpline
210
0.0
220
0.0
230
1.0
 70
    12
 71
     2
 72
     6
 73
     3
 74
     0
 42
0.000000001
 43
0.0000000001
 40
0.0
 40
0.0
 40
0.0
 40
3.770590876880781
 40
3.770590876880781
 40
3.770590876880781
 10
-988.7770871488033
 20
246.8095086997902
 30
714.9442138671875
 41
1.0
 10
-954.5449424812057
 20
213.3240260228037
 30
714.9442138671875
 41
0.9999999988427543
 10
-920.3108922982469
 20
179.8404914614003
 30
714.9442138671875
 41
0.9999999984951207
  0
SPLINE
  5
9B438
330
1F
100
AcDbEntity
  8
Make2D visible lines - Tangent
100
AcDbSpline
210
0.0
220
0.0
230
1.0
 70
    12
 71
     2
 72
     6
 73
     3
 74
     0
 42
0.000000001
 43
0.0000000001
 40
-3.651972160153634
 40
-3.651972160153634
 40
-3.651972160153634
 40
0.0
 40
0.0
 40
0.0
 10
-588.1283682362879
 20
181.9845336678237
 30
714.9442138671875
 41
0.9999999985177943
 10
-554.9546390834318
 20
214.4292807458342
 30
714.9442138671875
 41
0.99999999887916
 10
-521.7741387716976
 20
246.8832896270197
 30
714.9442138671875
 41
1.0
  0
SPLINE
  5
9B439
330
1F
100
AcDbEntity
  8
Make2D visible lines - Tangent
100
AcDbSpline
210
0.0
220
0.0
230
1.0
 70
     8
 71
     3
 72
    14
 73
    10
 74
     0
 42
0.000000001
 43
0.0000000001
 40
0.0
 40
0.0
 40
0.0
 40
0.0
 40
1.0
 40
2.0
 40
3.0
 40
4.0
 40
5.0
 40
6.0
 40
7.0
 40
7.0
 40
7.0
 40
7.0
 10
-521.7741387716976
 20
246.8832896270197
 30
714.9442138671875
 10
-520.4925574086535
 20
248.1271579115488
 30
714.9442138671875
 10
-517.7458022286355
 20
250.1448216661625
 30
714.9442138671875
 10
-512.9294748335576
 20
251.8796691243411
 30
714.9442138671875
 10
-507.645384196653
 20
251.4381292553754
 30
714.9442138671875
 10
-503.8770864173202
 20
247.5485148867343
 30
714.9442138671875
 10
-503.5504734884833
 20
242.265831031201
 30
714.9442138671875
 10
-505.3459614873516
 20
237.4737883764193
 30
714.9442138671875
 10
-507.39218979675
 20
234.7483647070363
 30
714.9442138671875
 10
-508.5848318429939
 20
233.5546506650518
 30
714.9442138671875
  0
SPLINE
  5
9B43A
330
1F
100
AcDbEntity
  8
Make2D visible lines - Tangent
100
AcDbSpline
210
0.0
220
0.0
230
1.0
 70
    12
 71
     2
 72
     6
 73
     3
 74
     0
 42
0.000000001
 43
0.0000000001
 40
0.0
 40
0.0
 40
0.0
 40
3.549969886497025
 40
3.549969886497025
 40
3.549969886497025
 10
-508.5848318429939
 20
233.5546506650518
 30
714.9442138671875
 41
1.0
 10
-540.1110459064007
 20
201.3254625404353
 30
714.9442138671875
 41
0.999999998910466
 10
-571.6355331599209
 20
169.0945853611493
 30
714.9442138671875
 41
0.9999999985385732
  0
SPLINE
  5
9B43B
330
1F
100
AcDbEntity
  8
Make2D visible lines - Tangent
100
AcDbSpline
210
0.0
220
0.0
230
1.0
 70
    12
 71
     2
 72
     6
 73
     3
 74
     0
 42
0.000000001
 43
0.0000000001
 40
-3.553602127449321
 40
-3.553602127449321
 40
-3.553602127449321
 40
0.0
 40
0.0
 40
0.0
 10
-571.6619276672829
 20
-168.8812175742345
 30
714.9442138671875
 41
0.999999998537813
 10
-540.090874075234
 20
-201.161551996804
 30
714.9442138671875
 41
0.9999999989093511
 10
-508.5110509157646
 20
-233.4482977120536
 30
714.9442138671875
 41
1.0
  0
SPLINE
  5
9B43C
330
1F
100
AcDbEntity
  8
Make2D visible lines - Tangent
100
AcDbSpline
210
0.0
220
0.0
230
1.0
 70
     8
 71
     3
 72
    14
 73
    10
 74
     0
 42
0.000000001
 43
0.0000000001
 40
0.0
 40
0.0
 40
0.0
 40
0.0
 40
1.0
 40
2.0
 40
3.0
 40
4.0
 40
5.0
 40
6.0
 40
7.0
 40
7.0
 40
7.0
 40
7.0
 10
-508.5110509157646
 20
-233.4482977120536
 30
714.9442138671875
 10
-507.2671826312356
 20
-234.7298790750977
 30
714.9442138671875
 10
-505.2495188766218
 20
-237.476634255116
 30
714.9442138671875
 10
-503.5146714184432
 20
-242.2929616501936
 30
714.9442138671875
 10
-503.9562112874089
 20
-247.5770522870984
 30
714.9442138671875
 10
-507.8458256560505
 20
-251.3453500664312
 30
714.9442138671875
 10
-513.1285095115834
 20
-251.671962995268
 30
714.9442138671875
 10
-517.9205521663653
 20
-249.8764749963997
 30
714.9442138671875
 10
-520.6459758357477
 20
-247.8302466870013
 30
714.9442138671875
 10
-521.8396898777321
 20
-246.6376046407575
 30
714.9442138671875
  0
SPLINE
  5
9B43D
330
1F
100
AcDbEntity
  8
Make2D visible lines - Tangent
100
AcDbSpline
210
0.0
220
0.0
230
1.0
 70
    12
 71
     2
 72
     6
 73
     3
 74
     0
 42
0.000000001
 43
0.0000000001
 40
0.0
 40
0.0
 40
0.0
 40
3.652304510727871
 40
3.652304510727871
 40
3.652304510727871
 10
-521.8396898777321
 20
-246.6376046407575
 30
714.9442138671875
 41
1.0
 10
-554.9979455621164
 20
-214.202587580039
 30
714.9442138671875
 41
0.999999998879058
 10
-588.1579890837634
 20
-181.7693983226985
 30
714.9442138671875
 41
0.9999999985177286
  0
SPLINE
  5
9B43E
330
1F
100
AcDbEntity
  8
Make2D visible lines - Tangent
100
AcDbSpline
210
0.0
220
0.0
230
1.0
 70
    12
 71
     2
 72
     6
 73
     3
 74
     0
 42
0.000000001
 43
0.0000000001
 40
-3.774101532423085
 40
-3.774101532423085
 40
-3.774101532423085
 40
0.0
 40
0.0
 40
0.0
 10
-920.2696224942743
 20
-179.6426033830124
 30
714.9442138671875
 41
0.9999999984944741
 10
-954.5525145665708
 20
-213.172048660448
 30
714.9442138671875
 41
0.9999999988416767
 10
-988.8426382548383
 20
-246.7113855679871
 30
714.9442138671875
 41
1.0
  0
SPLINE
  5
9B43F
330
1F
100
AcDbEntity
  8
Make2D visible lines - Tangent
100
AcDbSpline
210
0.0
220
0.0
230
1.0
 70
     8
 71
     3
 72
    14
 73
    10
 74
     0
 42
0.000000001
 43
0.0000000001
 40
0.0
 40
0.0
 40
0.0
 40
0.0
 40
1.0
 40
2.0
 40
3.0
 40
4.0
 40
5.0
 40
6.0
 40
7.0
 40
7.0
 40
7.0
 40
7.0
 10
-988.8426382548383
 20
-246.7113855679871
 30
714.9442138671875
 10
-990.1242196178813
 20
-247.9552538525162
 30
714.9442138671875
 10
-992.8709747979002
 20
-249.97291760713
 30
714.9442138671875
 10
-997.6873021929774
 20
-251.7077650653085
 30
714.9442138671875
 10
-1002.971392829882
 20
-251.2662251963424
 30
714.9442138671875
 10
-1006.739690609215
 20
-247.3766108277017
 30
714.9442138671875
 10
-1007.066303538052
 20
-242.0939269721679
 30
714.9442138671875
 10
-1005.270815539184
 20
-237.3018843173862
 30
714.9442138671875
 10
-1003.224587229785
 20
-234.5764606480037
 30
714.9442138671875
 10
-1002.031945183541
 20
-233.3827466060192
 30
714.9442138671875
  0
SPLINE
  5
9B440
330
1F
100
AcDbEntity
  8
Make2D visible lines - Tangent
100
AcDbSpline
210
0.0
220
0.0
230
1.0
 70
    12
 71
     2
 72
     6
 73
     3
 74
     0
 42
0.000000001
 43
0.0000000001
 40
0.0
 40
0.0
 40
0.0
 40
3.799511942617316
 40
3.799511942617316
 40
3.799511942617316
 10
-1002.031945183541
 20
-233.3827466060192
 30
714.9442138671875
 41
1.0
 10
-968.2896232263276
 20
-198.8880356352305
 30
714.9442138671875
 41
0.999999998833878
 10
-934.5492793844776
 20
-164.3913898061618
 30
714.9442138671875
 41
0.9999999984898355
  0
ENDSEC
  0
SECTION
  2
OBJECTS
  0
DICTIONARY
  5
C
330
0
100
AcDbDictionary
281
     1
  3
ACAD_BACKGROUND
350
9ACA3
  3
ACAD_CIP_PREVIOUS_PRODUCT_INFO
350
9AC7C
  3
ACAD_COLOR
350
9AC74
  3
ACAD_DETAILVIEWSTYLE
350
9AC71
  3
ACAD_GROUP
350
D
  3
ACAD_LAYOUT
350
1A
  3
ACAD_MATERIAL
350
43
  3
ACAD_MLEADERSTYLE
350
9AC70
  3
ACAD_MLINESTYLE
350
17
  3
ACAD_PLOTSETTINGS
350
19
  3
ACAD_PLOTSTYLENAME
350
E
  3
ACAD_SCALELIST
350
47
  3
ACAD_SECTIONVIEWSTYLE
350
9AC72
  3
ACAD_TABLESTYLE
350
9AC6F
  3
ACAD_VISUALSTYLE
350
2A
  3
ACDB_RECOMPOSE_DATA
350
9B467
  3
AcDbVariableDictionary
350
9AC36
  0
DICTIONARY
  5
9AC34
330
8
100
AcDbDictionary
280
     1
281
     1
  0
SUN
  5
69
330
29
100
AcDbSun
 90
        1
290
     0
 63
     7
421
 16777215
 40
1.0
291
     1
 91
  2455826
 92
 54000000
292
     0
 70
     0
 71
   256
280
     1
  0
DICTIONARY
  5
9AC84
330
2
100
AcDbDictionary
280
     1
281
     1
  3
ACAD_LAYERSTATES
360
9AC85
  0
DICTIONARY
  5
9AC7D
330
10
100
AcDbDictionary
280
     1
281
     1
  3
ADSK_XREC_LAYER_RECONCILED
360
9AC7E
  0
DICTIONARY
  5
9AC7F
330
6A
100
AcDbDictionary
280
     1
281
     1
  3
ADSK_XREC_LAYER_RECONCILED
360
9AC80
  0
DICTIONARY
  5
9ACA7
330
9ACA6
100
AcDbDictionary
280
     1
281
     1
  0
DICTIONARY
  5
9ACA9
330
9ACA8
100
AcDbDictionary
280
     1
281
     1
  0
DICTIONARY
  5
9AEFA
330
1F
100
AcDbDictionary
280
     1
281
     1
  3
ACAD_SORTENTS
360
9AEFB
  0
DICTIONARY
  5
9ACA3
102
{ACAD_REACTORS
330
C
102
}
330
C
100
AcDbDictionary
281
     1
  0
XRECORD
  5
9AC7C
102
{ACAD_REACTORS
330
C
102
}
330
C
100
AcDbXrecord
280
     1
300
ACD
300
2016
300
ACD_F_S
  0
DICTIONARY
  5
9AC74
102
{ACAD_REACTORS
330
C
102
}
330
C
100
AcDbDictionary
281
     1
  0
DICTIONARY
  5
9AC71
102
{ACAD_REACTORS
330
C
102
}
330
C
100
AcDbDictionary
281
     1
  3
Imperial24
350
9AC78
  0
DICTIONARY
  5
D
102
{ACAD_REACTORS
330
C
102
}
330
C
100
AcDbDictionary
281
     1
  0
DICTIONARY
  5
1A
102
{ACAD_REACTORS
330
C
102
}
330
C
100
AcDbDictionary
281
     1
  3
Layout1
350
1E
  3
Layout2
350
26
  3
Model
350
22
  0
DICTIONARY
  5
43
102
{ACAD_REACTORS
330
C
102
}
330
C
100
AcDbDictionary
281
     1
  3
ByBlock
350
45
  3
ByLayer
350
44
  3
Global
350
46
  0
DICTIONARY
  5
9AC70
102
{ACAD_REACTORS
330
C
102
}
330
C
100
AcDbDictionary
281
     1
  3
Standard
350
9AC76
  0
DICTIONARY
  5
17
102
{ACAD_REACTORS
330
C
102
}
330
C
100
AcDbDictionary
281
     1
  3
Standard
350
18
  0
DICTIONARY
  5
19
102
{ACAD_REACTORS
330
C
102
}
330
C
100
AcDbDictionary
281
     1
  0
ACDBDICTIONARYWDFLT
  5
E
102
{ACAD_REACTORS
330
C
102
}
330
C
100
AcDbDictionary
281
     1
  3
Normal
350
F
100
AcDbDictionaryWithDefault
340
F
  0
DICTIONARY
  5
47
102
{ACAD_REACTORS
330
C
102
}
330
C
100
AcDbDictionary
281
     1
  3
A0
350
48
  3
A1
350
49
  3
A2
350
4A
  3
A3
350
4B
  3
A4
350
4C
  3
A5
350
4D
  3
A6
350
4E
  3
A7
350
4F
  3
A8
350
50
  3
A9
350
51
  3
B0
350
52
  3
B1
350
53
  3
B2
350
54
  3
B3
350
55
  3
B4
350
56
  3
B5
350
57
  3
B6
350
58
  3
B7
350
59
  3
B8
350
5A
  3
B9
350
5B
  3
C0
350
5C
  3
C1
350
5D
  3
C2
350
5E
  3
C3
350
5F
  3
C4
350
60
  3
C5
350
61
  3
C6
350
62
  3
C7
350
63
  3
C8
350
64
  3
C9
350
65
  3
D0
350
66
  3
D1
350
67
  3
D2
350
68
  0
DICTIONARY
  5
9AC72
102
{ACAD_REACTORS
330
C
102
}
330
C
100
AcDbDictionary
281
     1
  3
Imperial24
350
9AC77
  0
DICTIONARY
  5
9AC6F
102
{ACAD_REACTORS
330
C
102
}
330
C
100
AcDbDictionary
281
     1
  3
Standard
350
9AC75
  0
DICTIONARY
  5
2A
102
{ACAD_REACTORS
330
C
102
}
330
C
100
AcDbDictionary
281
     1
  3
2dWireframe
350
2F
  3
3D Hidden
350
9ACAA
  3
3dWireframe
350
9ACAB
  3
Basic
350
32
  3
Brighten
350
36
  3
ColorChange
350
3A
  3
Conceptual
350
34
  3
Dim
350
35
  3
EdgeColorOff
350
3D
  3
Facepattern
350
39
  3
Flat
350
2B
  3
FlatWithEdges
350
2C
  3
Gouraud
350
2D
  3
GouraudWithEdges
350
2E
  3
Hidden
350
31
  3
JitterOff
350
3B
  3
Linepattern
350
38
  3
OverhangOff
350
3C
  3
Realistic
350
33
  3
Shaded
350
42
  3
Shaded with edges
350
41
  3
Shades of Gray
350
3E
  3
Sketchy
350
3F
  3
Thicken
350
37
  3
Wireframe
350
30
  3
X-Ray
350
40
  0
XRECORD
  5
9B467
102
{ACAD_REACTORS
330
C
102
}
330
C
100
AcDbXrecord
280
     1
 90
        1
330
9AC75
330
9AC77
330
9AC78
  0
DICTIONARY
  5
9AC36
102
{ACAD_REACTORS
330
C
102
}
330
C
100
AcDbDictionary
281
     1
  3
CANNOSCALE
350
9AC37
  3
CMLEADERSTYLE
350
9B00B
  3
CTABLESTYLE
350
9B00A
  3
CVIEWDETAILSTYLE
350
9B00C
  3
CVIEWSECTIONSTYLE
350
9B00D
  3
LAYEREVAL
350
9B00F
  3
LAYERNOTIFY
350
9B010
  3
LIGHTINGUNITS
350
9B00E
  3
MSLTSCALE
350
9AC38
  0
DICTIONARY
  5
9AC85
102
{ACAD_REACTORS
330
9AC84
102
}
330
9AC84
100
AcDbDictionary
281
     1
  0
XRECORD
  5
9AC7E
102
{ACAD_REACTORS
330
9AC7D
102
}
330
9AC7D
100
AcDbXrecord
280
     1
290
     1
  0
XRECORD
  5
9AC80
102
{ACAD_REACTORS
330
9AC7F
102
}
330
9AC7F
100
AcDbXrecord
280
     1
290
     1
  0
SORTENTSTABLE
  5
9AEFB
102
{ACAD_REACTORS
330
9AEFA
102
}
330
9AEFA
100
AcDbSortentsTable
330
1F
  0
ACDBDETAILVIEWSTYLE
  5
9AC78
102
{ACAD_XDICTIONARY
360
9B007
102
}
102
{ACAD_REACTORS
330
9AC71
102
}
330
9AC71
100
AcDbModelDocViewStyle
 70
     0
  3
Imperial24
290
     0
100
AcDbDetailViewStyle
 70
     0
 71
     0
 90
        3
 71
     1
340
11
 62
   256
 40
0.24
340
0
 62
   256
 40
0.24
300

 40
0.36
280
     3
 71
     2
340
16
 90
       25
 62
   256
 71
     3
340
11
 62
   256
 40
0.24
 90
        1
 40
0.75
 90
        1
300
%<\AcVar ViewType \f "%tc1">% %<\AcVar ViewDetailId>%\PSCALE %<\AcVar ViewScale \f "%sn">%
 71
     4
340
16
 90
       25
 62
   256
340
16
 90
       25
 62
   256
280
     0
  0
LAYOUT
  5
1E
102
{ACAD_REACTORS
330
1A
102
}
330
1A
100
AcDbPlotSettings
  1

  2
none_device
  4

  6

 40
0.0
 41
0.0
 42
0.0
 43
0.0
 44
0.0
 45
0.0
 46
0.0
 47
0.0
 48
0.0
 49
0.0
140
0.0
141
0.0
142
1.0
143
1.0
 70
   688
 72
     0
 73
     0
 74
     5
  7

 75
    16
147
1.0
 76
     0
 77
     2
 78
   300
148
0.0
149
0.0
100
AcDbLayout
  1
Layout1
 70
     1
 71
     1
 10
0.0
 20
0.0
 11
12.0
 21
9.0
 12
0.0
 22
0.0
 32
0.0
 14
1.000000000000000E+20
 24
1.000000000000000E+20
 34
1.000000000000000E+20
 15
-1.000000000000000E+20
 25
-1.000000000000000E+20
 35
-1.000000000000000E+20
146
0.0
 13
0.0
 23
0.0
 33
0.0
 16
1.0
 26
0.0
 36
0.0
 17
0.0
 27
1.0
 37
0.0
 76
     0
330
1B
  0
LAYOUT
  5
26
102
{ACAD_REACTORS
330
1A
102
}
330
1A
100
AcDbPlotSettings
  1

  2
none_device
  4

  6

 40
0.0
 41
0.0
 42
0.0
 43
0.0
 44
0.0
 45
0.0
 46
0.0
 47
0.0
 48
0.0
 49
0.0
140
0.0
141
0.0
142
1.0
143
1.0
 70
   688
 72
     0
 73
     0
 74
     5
  7

 75
    16
147
1.0
 76
     0
 77
     2
 78
   300
148
0.0
149
0.0
100
AcDbLayout
  1
Layout2
 70
     1
 71
     2
 10
0.0
 20
0.0
 11
0.0
 21
0.0
 12
0.0
 22
0.0
 32
0.0
 14
0.0
 24
0.0
 34
0.0
 15
0.0
 25
0.0
 35
0.0
146
0.0
 13
0.0
 23
0.0
 33
0.0
 16
1.0
 26
0.0
 36
0.0
 17
0.0
 27
1.0
 37
0.0
 76
     0
330
23
  0
LAYOUT
  5
22
102
{ACAD_REACTORS
330
1A
102
}
330
1A
100
AcDbPlotSettings
  1

  2
none_device
  4
Letter_(8.50_x_11.00_Inches)
  6

 40
6.349999999999999
 41
6.349999999999999
 42
6.350005079999999
 43
6.350005079999999
 44
215.9
 45
279.4
 46
0.0
 47
0.0
 48
0.0
 49
0.0
140
0.0
141
0.0
142
1.0
143
1.0
 70
  1712
 72
     0
 73
     0
 74
     0
  7

 75
     0
147
1.0
 76
     0
 77
     2
 78
   300
148
0.0
149
0.0
100
AcDbLayout
  1
Model
 70
     1
 71
     0
 10
0.0
 20
0.0
 11
12.0
 21
9.0
 12
0.0
 22
0.0
 32
0.0
 14
-1095.705810546875
 24
-1095.705810546875
 34
-0.029534799978137
 15
1095.705810546875
 25
1095.705810546875
 35
925.6874389648437
146
0.0
 13
0.0
 23
0.0
 33
0.0
 16
1.0
 26
0.0
 36
0.0
 17
0.0
 27
1.0
 37
0.0
 76
     0
330
1F
331
29
  0
MATERIAL
  5
45
102
{ACAD_REACTORS
330
43
102
}
330
43
100
AcDbMaterial
  1
ByBlock
 73
     1
 78
     1
172
     1
176
     1
270
     1
274
     1
  0
MATERIAL
  5
44
102
{ACAD_REACTORS
330
43
102
}
330
43
100
AcDbMaterial
  1
ByLayer
 73
     1
 78
     1
172
     1
176
     1
270
     1
274
     1
  0
MATERIAL
  5
46
102
{ACAD_REACTORS
330
43
102
}
330
43
100
AcDbMaterial
  1
Global
 73
     1
 78
     1
172
     1
176
     1
270
     1
274
     1
  0
MLEADERSTYLE
  5
9AC76
102
{ACAD_REACTORS
330
9AC70
102
}
330
9AC70
100
AcDbMLeaderStyle
179
     2
170
     2
171
     1
172
     0
 90
        2
 40
0.0
 41
0.0
173
     1
 91
-1056964608
340
14
 92
       -2
290
     1
 42
0.09
291
     1
 43
0.36
  3
Standard
 44
0.18
300

342
11
174
     1
178
     6
175
     1
176
     0
 93
-1056964608
 45
0.18
292
     0
297
     0
 46
0.18
 94
-1056964608
 47
1.0
 49
1.0
140
1.0
293
     1
141
0.0
294
     1
177
     0
142
1.0
295
     1
296
     0
143
0.125
271
     0
272
     9
273
     9
298
     1
  0
MLINESTYLE
  5
18
102
{ACAD_REACTORS
330
17
102
}
330
17
100
AcDbMlineStyle
  2
STANDARD
 70
     0
  3

 62
   256
 51
90.0
 52
90.0
 71
     2
 49
0.5
 62
   256
  6
BYLAYER
 49
-0.5
 62
   256
  6
BYLAYER
  0
ACDBPLACEHOLDER
  5
F
102
{ACAD_REACTORS
330
E
102
}
330
E
  0
SCALE
  5
48
102
{ACAD_REACTORS
330
47
102
}
330
47
100
AcDbScale
 70
     0
300
1:1
140
1.0
141
1.0
290
     1
  0
SCALE
  5
49
102
{ACAD_REACTORS
330
47
102
}
330
47
100
AcDbScale
 70
     0
300
1:2
140
1.0
141
2.0
290
     0
  0
SCALE
  5
4A
102
{ACAD_REACTORS
330
47
102
}
330
47
100
AcDbScale
 70
     0
300
1:4
140
1.0
141
4.0
290
     0
  0
SCALE
  5
4B
102
{ACAD_REACTORS
330
47
102
}
330
47
100
AcDbScale
 70
     0
300
1:5
140
1.0
141
5.0
290
     0
  0
SCALE
  5
4C
102
{ACAD_REACTORS
330
47
102
}
330
47
100
AcDbScale
 70
     0
300
1:8
140
1.0
141
8.0
290
     0
  0
SCALE
  5
4D
102
{ACAD_REACTORS
330
47
102
}
330
47
100
AcDbScale
 70
     0
300
1:10
140
1.0
141
10.0
290
     0
  0
SCALE
  5
4E
102
{ACAD_REACTORS
330
47
102
}
330
47
100
AcDbScale
 70
     0
300
1:16
140
1.0
141
16.0
290
     0
  0
SCALE
  5
4F
102
{ACAD_REACTORS
330
47
102
}
330
47
100
AcDbScale
 70
     0
300
1:20
140
1.0
141
20.0
290
     0
  0
SCALE
  5
50
102
{ACAD_REACTORS
330
47
102
}
330
47
100
AcDbScale
 70
     0
300
1:30
140
1.0
141
30.0
290
     0
  0
SCALE
  5
51
102
{ACAD_REACTORS
330
47
102
}
330
47
100
AcDbScale
 70
     0
300
1:40
140
1.0
141
40.0
290
     0
  0
SCALE
  5
52
102
{ACAD_REACTORS
330
47
102
}
330
47
100
AcDbScale
 70
     0
300
1:50
140
1.0
141
50.0
290
     0
  0
SCALE
  5
53
102
{ACAD_REACTORS
330
47
102
}
330
47
100
AcDbScale
 70
     0
300
1:100
140
1.0
141
100.0
290
     0
  0
SCALE
  5
54
102
{ACAD_REACTORS
330
47
102
}
330
47
100
AcDbScale
 70
     0
300
2:1
140
2.0
141
1.0
290
     0
  0
SCALE
  5
55
102
{ACAD_REACTORS
330
47
102
}
330
47
100
AcDbScale
 70
     0
300
4:1
140
4.0
141
1.0
290
     0
  0
SCALE
  5
56
102
{ACAD_REACTORS
330
47
102
}
330
47
100
AcDbScale
 70
     0
300
8:1
140
8.0
141
1.0
290
     0
  0
SCALE
  5
57
102
{ACAD_REACTORS
330
47
102
}
330
47
100
AcDbScale
 70
     0
300
10:1
140
10.0
141
1.0
290
     0
  0
SCALE
  5
58
102
{ACAD_REACTORS
330
47
102
}
330
47
100
AcDbScale
 70
     0
300
100:1
140
100.0
141
1.0
290
     0
  0
SCALE
  5
59
102
{ACAD_REACTORS
330
47
102
}
330
47
100
AcDbScale
 70
     0
300
1/128" = 1'-0"
140
0.0078125
141
12.0
290
     0
  0
SCALE
  5
5A
102
{ACAD_REACTORS
330
47
102
}
330
47
100
AcDbScale
 70
     0
300
1/64" = 1'-0"
140
0.015625
141
12.0
290
     0
  0
SCALE
  5
5B
102
{ACAD_REACTORS
330
47
102
}
330
47
100
AcDbScale
 70
     0
300
1/32" = 1'-0"
140
0.03125
141
12.0
290
     0
  0
SCALE
  5
5C
102
{ACAD_REACTORS
330
47
102
}
330
47
100
AcDbScale
 70
     0
300
1/16" = 1'-0"
140
0.0625
141
12.0
290
     0
  0
SCALE
  5
5D
102
{ACAD_REACTORS
330
47
102
}
330
47
100
AcDbScale
 70
     0
300
3/32" = 1'-0"
140
0.09375
141
12.0
290
     0
  0
SCALE
  5
5E
102
{ACAD_REACTORS
330
47
102
}
330
47
100
AcDbScale
 70
     0
300
1/8" = 1'-0"
140
0.125
141
12.0
290
     0
  0
SCALE
  5
5F
102
{ACAD_REACTORS
330
47
102
}
330
47
100
AcDbScale
 70
     0
300
3/16" = 1'-0"
140
0.1875
141
12.0
290
     0
  0
SCALE
  5
60
102
{ACAD_REACTORS
330
47
102
}
330
47
100
AcDbScale
 70
     0
300
1/4" = 1'-0"
140
0.25
141
12.0
290
     0
  0
SCALE
  5
61
102
{ACAD_REACTORS
330
47
102
}
330
47
100
AcDbScale
 70
     0
300
3/8" = 1'-0"
140
0.375
141
12.0
290
     0
  0
SCALE
  5
62
102
{ACAD_REACTORS
330
47
102
}
330
47
100
AcDbScale
 70
     0
300
1/2" = 1'-0"
140
0.5
141
12.0
290
     0
  0
SCALE
  5
63
102
{ACAD_REACTORS
330
47
102
}
330
47
100
AcDbScale
 70
     0
300
3/4" = 1'-0"
140
0.75
141
12.0
290
     0
  0
SCALE
  5
64
102
{ACAD_REACTORS
330
47
102
}
330
47
100
AcDbScale
 70
     0
300
1" = 1'-0"
140
1.0
141
12.0
290
     0
  0
SCALE
  5
65
102
{ACAD_REACTORS
330
47
102
}
330
47
100
AcDbScale
 70
     0
300
1-1/2" = 1'-0"
140
1.5
141
12.0
290
     0
  0
SCALE
  5
66
102
{ACAD_REACTORS
330
47
102
}
330
47
100
AcDbScale
 70
     0
300
3" = 1'-0"
140
3.0
141
12.0
290
     0
  0
SCALE
  5
67
102
{ACAD_REACTORS
330
47
102
}
330
47
100
AcDbScale
 70
     0
300
6" = 1'-0"
140
6.0
141
12.0
290
     0
  0
SCALE
  5
68
102
{ACAD_REACTORS
330
47
102
}
330
47
100
AcDbScale
 70
     0
300
1'-0" = 1'-0"
140
12.0
141
12.0
290
     0
  0
ACDBSECTIONVIEWSTYLE
  5
9AC77
102
{ACAD_XDICTIONARY
360
9B005
102
}
102
{ACAD_REACTORS
330
9AC72
102
}
330
9AC72
100
AcDbModelDocViewStyle
 70
     0
  3
Imperial24
290
     0
100
AcDbSectionViewStyle
 70
     0
 71
     0
 90
       78
 71
     1
340
11
 62
   256
 40
0.24
340
0
340
0
 62
   256
 40
0.24
300
I, O, Q, S, X, Z
 40
0.48
 90
        3
 40
0.18
 90
        1
 71
     2
340
16
 90
       25
 62
   256
340
16
 90
       50
 62
   256
 40
0.24
 40
0.0
 40
0.24
 71
     3
340
11
 62
   256
 40
0.24
 90
        1
 40
0.75
 90
        1
300
%<\AcVar ViewType \f "%tc1">% %<\AcVar ViewSectionStartId>%-%<\AcVar ViewSectionEndId>%\PSCALE %<\AcVar ViewScale \f "%sn">%
 71
     4
 62
   256
 62
   257
300
ANSI31
 40
1.0
 90
        0
290
     0
290
     0
 90
        6
 40
0.0
 40
1.570796326794896
 40
0.2617993877991494
 40
1.308996938995747
 40
-0.2617993877991494
 40
1.832595714594046
  0
TABLESTYLE
  5
9AC75
102
{ACAD_XDICTIONARY
360
9B463
102
}
102
{ACAD_REACTORS
330
9AC6F
102
}
330
9AC6F
100
AcDbTableStyle
280
     0
  3
Standard
 70
     0
 71
     0
 40
0.06
 41
0.06
280
     0
281
     0
  7
Standard
140
0.18
170
     2
 62
     0
 63
     7
283
     0
 90
      512
 91
        0
  1

274
    -2
284
     1
 64
     0
275
    -2
285
     1
 65
     0
276
    -2
286
     1
 66
     0
277
    -2
287
     1
 67
     0
278
    -2
288
     1
 68
     0
279
    -2
289
     1
 69
     0
  7
Standard
140
0.25
170
     5
 62
     0
 63
     7
283
     0
 90
      512
 91
        0
  1

274
    -2
284
     1
 64
     0
275
    -2
285
     1
 65
     0
276
    -2
286
     1
 66
     0
277
    -2
287
     1
 67
     0
278
    -2
288
     1
 68
     0
279
    -2
289
     1
 69
     0
  7
Standard
140
0.18
170
     5
 62
     0
 63
     7
283
     0
 90
      512
 91
        0
  1

274
    -2
284
     1
 64
     0
275
    -2
285
     1
 65
     0
276
    -2
286
     1
 66
     0
277
    -2
287
     1
 67
     0
278
    -2
288
     1
 68
     0
279
    -2
289
     1
 69
     0
  0
VISUALSTYLE
  5
2F
102
{ACAD_REACTORS
330
2A
102
}
330
2A
100
AcDbVisualStyle
  2
2dWireframe
 70
     4
177
     3
291
     0
 70
    58
 90
        0
176
     1
 90
        2
176
     1
 90
        0
176
     1
 90
        0
176
     1
 40
0.6
176
     1
 40
30.0
176
     1
 62
     7
420
 16777215
176
     1
 90
        1
176
     1
 90
        4
176
     1
 62
     7
176
     1
 62
   257
176
     1
 90
        1
176
     1
 90
        1
176
     1
 40
1.0
176
     1
 90
        0
176
     1
 62
   257
176
     1
 40
1.0
176
     1
 90
        1
176
     1
 90
        6
176
     1
 90
        2
176
     1
 62
     7
176
     1
 90
        5
176
     1
 90
        0
176
     1
 90
        0
176
     1
290
     0
176
     1
 90
        1
176
     1
 40
0.0
176
     1
 90
        0
176
     1
290
     1
176
     1
290
     1
176
     1
290
     0
176
     1
290
     0
176
     1
290
     0
176
     1
290
     0
176
     1
290
     0
176
     1
290
     0
176
     1
290
     0
176
     1
 90
       50
176
     1
 40
0.0
176
     1
 40
1.0
176
     1
 90
        0
176
     1
 62
    18
420
        0
176
     1
 90
       50
176
     1
 90
        3
176
     1
 62
     5
420
      255
176
     1
290
     0
176
     1
 90
       50
176
     1
 90
       50
176
     1
 90
       50
176
     1
290
     0
176
     1
 90
       50
176
     1
 62
   256
176
     0
 40
1.0
176
     0
 90
        2
176
     1
  1
strokes_ogs.tif
176
     1
290
     0
176
     1
 40
1.0
176
     1
 40
1.0
176
     1
  0
VISUALSTYLE
  5
9ACAA
102
{ACAD_REACTORS
330
2A
102
}
330
2A
100
AcDbVisualStyle
  2

 70
     6
177
     3
291
     0
 70
    58
 90
        1
176
     1
 90
        2
176
     1
 90
        2
176
     1
 90
        0
176
     1
 40
0.6
176
     1
 40
30.0
176
     1
 62
     7
420
 16777215
176
     1
 90
        2
176
     1
 90
        2
176
     1
 62
     7
176
     1
 62
   257
176
     1
 90
        2
176
     1
 90
        1
176
     1
 40
40.0
176
     1
 90
        0
176
     1
 62
   257
176
     1
 40
1.0
176
     1
 90
        1
176
     1
 90
        6
176
     1
 90
        2
176
     1
 62
     7
176
     1
 90
        3
176
     1
 90
        0
176
     1
 90
        0
176
     1
290
     0
176
     1
 90
        1
176
     1
 40
0.0
176
     1
 90
        0
176
     1
290
     0
176
     1
290
     1
176
     1
290
     1
176
     1
290
     0
176
     1
290
     0
176
     1
290
     0
176
     1
290
     0
176
     1
290
     0
176
     1
290
     0
176
     1
 90
       50
176
     1
 40
0.0
176
     1
 40
1.0
176
     1
 90
        0
176
     1
 62
    18
420
        0
176
     1
 90
       50
176
     1
 90
        3
176
     1
 62
     5
420
      255
176
     1
290
     0
176
     1
 90
       50
176
     1
 90
       50
176
     1
 90
       50
176
     1
290
     0
176
     1
 90
       50
176
     1
 62
   256
176
     0
 40
1.0
176
     0
 90
        2
176
     1
  1
strokes_ogs.tif
176
     1
290
     0
176
     1
 40
1.0
176
     1
 40
1.0
176
     1
  0
VISUALSTYLE
  5
9ACAB
102
{ACAD_REACTORS
330
2A
102
}
330
2A
100
AcDbVisualStyle
  2

 70
     5
177
     3
291
     0
 70
    58
 90
        0
176
     1
 90
        2
176
     1
 90
        0
176
     1
 90
        0
176
     1
 40
0.6
176
     1
 40
30.0
176
     1
 62
     7
420
 16777215
176
     1
 90
        1
176
     1
 90
        4
176
     1
 62
     7
176
     1
 62
   257
176
     1
 90
        1
176
     1
 90
        1
176
     1
 40
1.0
176
     1
 90
        0
176
     1
 62
   257
176
     1
 40
1.0
176
     1
 90
        1
176
     1
 90
        6
176
     1
 90
        2
176
     1
 62
     7
176
     1
 90
        5
176
     1
 90
        0
176
     1
 90
        0
176
     1
290
     0
176
     1
 90
        1
176
     1
 40
0.0
176
     1
 90
        0
176
     1
290
     0
176
     1
290
     1
176
     1
290
     1
176
     1
290
     0
176
     1
290
     0
176
     1
290
     0
176
     1
290
     0
176
     1
290
     0
176
     1
290
     0
176
     1
 90
       50
176
     1
 40
0.0
176
     1
 40
1.0
176
     1
 90
        0
176
     1
 62
    18
420
        0
176
     1
 90
       50
176
     1
 90
        3
176
     1
 62
     5
420
      255
176
     1
290
     0
176
     1
 90
       50
176
     1
 90
       50
176
     1
 90
       50
176
     1
290
     0
176
     1
 90
       50
176
     1
 62
   256
176
     0
 40
1.0
176
     0
 90
        2
176
     1
  1
strokes_ogs.tif
176
     1
290
     0
176
     1
 40
1.0
176
     1
 40
1.0
176
     1
  0
VISUALSTYLE
  5
32
102
{ACAD_REACTORS
330
2A
102
}
330
2A
100
AcDbVisualStyle
  2
Basic
 70
     7
177
     3
291
     1
 70
    58
 90
        1
176
     1
 90
        0
176
     1
 90
        1
176
     1
 90
        0
176
     1
 40
0.6
176
     1
 40
30.0
176
     1
 62
     7
420
 16777215
176
     1
 90
        0
176
     1
 90
        4
176
     1
 62
     7
176
     1
 62
   257
176
     1
 90
        1
176
     1
 90
        1
176
     1
 40
1.0
176
     1
 90
        8
176
     1
 62
     7
176
     1
 40
1.0
176
     1
 90
        1
176
     1
 90
        6
176
     1
 90
        2
176
     1
 62
     7
176
     1
 90
        5
176
     1
 90
        0
176
     1
 90
        0
176
     1
290
     0
176
     1
 90
        1
176
     1
 40
0.0
176
     1
 90
        0
176
     1
290
     0
176
     1
290
     1
176
     1
290
     1
176
     1
290
     0
176
     1
290
     0
176
     1
290
     0
176
     1
290
     0
176
     1
290
     0
176
     1
290
     0
176
     1
 90
       50
176
     1
 40
0.0
176
     1
 40
1.0
176
     1
 90
        0
176
     1
 62
    18
420
        0
176
     1
 90
       50
176
     1
 90
        3
176
     1
 62
     5
420
      255
176
     1
290
     0
176
     1
 90
       50
176
     1
 90
       50
176
     1
 90
       50
176
     1
290
     0
176
     1
 90
       50
176
     1
 62
   256
176
     0
 40
1.0
176
     0
 90
        2
176
     1
  1
strokes_ogs.tif
176
     1
290
     0
176
     1
 40
1.0
176
     1
 40
1.0
176
     1
  0
VISUALSTYLE
  5
36
102
{ACAD_REACTORS
330
2A
102
}
330
2A
100
AcDbVisualStyle
  2
Brighten
 70
    12
177
     3
291
     1
 70
    58
 90
        2
176
     1
 90
        2
176
     1
 90
        0
176
     1
 90
        0
176
     1
 40
0.6
176
     1
 40
30.0
176
     1
 62
     7
420
 16777215
176
     1
 90
        1
176
     1
 90
        4
176
     1
 62
     7
176
     1
 62
   257
176
     1
 90
        1
176
     1
 90
        1
176
     1
 40
1.0
176
     1
 90
        8
176
     1
 62
     7
176
     1
 40
1.0
176
     1
 90
        1
176
     1
 90
        6
176
     1
 90
        2
176
     1
 62
     7
176
     1
 90
        5
176
     1
 90
        0
176
     1
 90
        0
176
     1
290
     0
176
     1
 90
        1
176
     1
 40
50.0
176
     1
 90
        0
176
     1
290
     0
176
     1
290
     1
176
     1
290
     1
176
     1
290
     0
176
     1
290
     0
176
     1
290
     0
176
     1
290
     0
176
     1
290
     0
176
     1
290
     0
176
     1
 90
       50
176
     1
 40
0.0
176
     1
 40
1.0
176
     1
 90
        0
176
     1
 62
    18
420
        0
176
     1
 90
       50
176
     1
 90
        3
176
     1
 62
     5
420
      255
176
     1
290
     0
176
     1
 90
       50
176
     1
 90
       50
176
     1
 90
       50
176
     1
290
     0
176
     1
 90
       50
176
     1
 62
   256
176
     0
 40
1.0
176
     0
 90
        2
176
     1
  1
strokes_ogs.tif
176
     1
290
     0
176
     1
 40
1.0
176
     1
 40
1.0
176
     1
  0
VISUALSTYLE
  5
3A
102
{ACAD_REACTORS
330
2A
102
}
330
2A
100
AcDbVisualStyle
  2
ColorChange
 70
    16
177
     3
291
     1
 70
    58
 90
        2
176
     1
 90
        2
176
     1
 90
        3
176
     1
 90
        0
176
     1
 40
0.6
176
     1
 40
30.0
176
     1
 62
     8
420
  8421504
176
     1
 90
        1
176
     1
 90
        4
176
     1
 62
     7
176
     1
 62
   257
176
     1
 90
        1
176
     1
 90
        1
176
     1
 40
1.0
176
     1
 90
        8
176
     1
 62
     8
420
  8421504
176
     1
 40
1.0
176
     1
 90
        1
176
     1
 90
        6
176
     1
 90
        2
176
     1
 62
     7
176
     1
 90
        5
176
     1
 90
        0
176
     1
 90
        0
176
     1
290
     0
176
     1
 90
        1
176
     1
 40
0.0
176
     1
 90
        0
176
     1
290
     0
176
     1
290
     1
176
     1
290
     1
176
     1
290
     0
176
     1
290
     0
176
     1
290
     0
176
     1
290
     0
176
     1
290
     0
176
     1
290
     0
176
     1
 90
       50
176
     1
 40
0.0
176
     1
 40
1.0
176
     1
 90
        0
176
     1
 62
    18
420
        0
176
     1
 90
       50
176
     1
 90
        3
176
     1
 62
     5
420
      255
176
     1
290
     0
176
     1
 90
       50
176
     1
 90
       50
176
     1
 90
       50
176
     1
290
     0
176
     1
 90
       50
176
     1
 62
   256
176
     0
 40
1.0
176
     0
 90
        2
176
     1
  1
strokes_ogs.tif
176
     1
290
     0
176
     1
 40
1.0
176
     1
 40
1.0
176
     1
  0
VISUALSTYLE
  5
34
102
{ACAD_REACTORS
330
2A
102
}
330
2A
100
AcDbVisualStyle
  2
Conceptual
 70
     9
177
     3
291
     0
 70
    58
 90
        3
176
     1
 90
        2
176
     1
 90
        0
176
     1
 90
        0
176
     1
 40
0.6
176
     1
 40
30.0
176
     1
 62
     7
420
 16777215
176
     1
 90
        2
176
     1
 90
        2
176
     1
 62
     7
176
     1
 62
   257
176
     1
 90
        1
176
     1
 90
        1
176
     1
 40
179.0
176
     1
 90
        8
176
     1
 62
     7
176
     1
 40
1.0
176
     1
 90
        1
176
     1
 90
        6
176
     1
 90
        2
176
     1
 62
     7
176
     1
 90
        3
176
     1
 90
        0
176
     1
 90
        0
176
     1
290
     0
176
     1
 90
        1
176
     1
 40
0.0
176
     1
 90
        0
176
     1
290
     0
176
     1
290
     1
176
     1
290
     1
176
     1
290
     0
176
     1
290
     0
176
     1
290
     0
176
     1
290
     0
176
     1
290
     0
176
     1
290
     0
176
     1
 90
       50
176
     1
 40
0.0
176
     1
 40
1.0
176
     1
 90
        0
176
     1
 62
    18
420
        0
176
     1
 90
       50
176
     1
 90
        3
176
     1
 62
     5
420
      255
176
     1
290
     0
176
     1
 90
       50
176
     1
 90
       50
176
     1
 90
       50
176
     1
290
     0
176
     1
 90
       50
176
     1
 62
   256
176
     0
 40
1.0
176
     0
 90
        2
176
     1
  1
strokes_ogs.tif
176
     1
290
     0
176
     1
 40
1.0
176
     1
 40
1.0
176
     1
  0
VISUALSTYLE
  5
35
102
{ACAD_REACTORS
330
2A
102
}
330
2A
100
AcDbVisualStyle
  2
Dim
 70
    11
177
     3
291
     1
 70
    58
 90
        2
176
     1
 90
        2
176
     1
 90
        0
176
     1
 90
        0
176
     1
 40
0.6
176
     1
 40
30.0
176
     1
 62
     7
420
 16777215
176
     1
 90
        1
176
     1
 90
        4
176
     1
 62
     7
176
     1
 62
   257
176
     1
 90
        1
176
     1
 90
        1
176
     1
 40
1.0
176
     1
 90
        8
176
     1
 62
     7
176
     1
 40
1.0
176
     1
 90
        1
176
     1
 90
        6
176
     1
 90
        2
176
     1
 62
     7
176
     1
 90
        5
176
     1
 90
        0
176
     1
 90
        0
176
     1
290
     0
176
     1
 90
        1
176
     1
 40
-50.0
176
     1
 90
        0
176
     1
290
     0
176
     1
290
     1
176
     1
290
     1
176
     1
290
     0
176
     1
290
     0
176
     1
290
     0
176
     1
290
     0
176
     1
290
     0
176
     1
290
     0
176
     1
 90
       50
176
     1
 40
0.0
176
     1
 40
1.0
176
     1
 90
        0
176
     1
 62
    18
420
        0
176
     1
 90
       50
176
     1
 90
        3
176
     1
 62
     5
420
      255
176
     1
290
     0
176
     1
 90
       50
176
     1
 90
       50
176
     1
 90
       50
176
     1
290
     0
176
     1
 90
       50
176
     1
 62
   256
176
     0
 40
1.0
176
     0
 90
        2
176
     1
  1
strokes_ogs.tif
176
     1
290
     0
176
     1
 40
1.0
176
     1
 40
1.0
176
     1
  0
VISUALSTYLE
  5
3D
102
{ACAD_REACTORS
330
2A
102
}
330
2A
100
AcDbVisualStyle
  2
EdgeColorOff
 70
    22
177
     3
291
     1
 70
    58
 90
        2
176
     0
 90
        2
176
     0
 90
        0
176
     0
 90
        0
176
     0
 40
0.6
176
     0
 40
30.0
176
     0
 62
     7
420
 16777215
176
     0
 90
        1
176
     0
 90
        4
176
     0
 62
     7
176
     0
 62
   257
176
     0
 90
        1
176
     0
 90
        1
176
     0
 40
1.0
176
     0
 90
        8
176
     2
 62
     7
176
     0
 40
1.0
176
     0
 90
        1
176
     0
 90
        6
176
     0
 90
        2
176
     0
 62
     7
176
     0
 90
        5
176
     0
 90
        0
176
     0
 90
        0
176
     0
290
     0
176
     0
 90
        1
176
     0
 40
0.0
176
     0
 90
        0
176
     0
290
     0
176
     0
290
     1
176
     0
290
     1
176
     0
290
     0
176
     0
290
     0
176
     0
290
     0
176
     0
290
     0
176
     0
290
     0
176
     0
290
     0
176
     0
 90
       50
176
     0
 40
0.0
176
     0
 40
1.0
176
     0
 90
        0
176
     0
 62
    18
420
        0
176
     0
 90
       50
176
     0
 90
        3
176
     0
 62
     5
420
      255
176
     0
290
     0
176
     0
 90
       50
176
     0
 90
       50
176
     0
 90
       50
176
     0
290
     0
176
     0
 90
       50
176
     0
 62
   256
176
     0
 40
1.0
176
     0
 90
        2
176
     0
  1
strokes_ogs.tif
176
     0
290
     0
176
     0
 40
1.0
176
     0
 40
1.0
176
     0
  0
VISUALSTYLE
  5
39
102
{ACAD_REACTORS
330
2A
102
}
330
2A
100
AcDbVisualStyle
  2
Facepattern
 70
    15
177
     3
291
     1
 70
    58
 90
        2
176
     1
 90
        2
176
     1
 90
        0
176
     1
 90
        0
176
     1
 40
0.6
176
     1
 40
30.0
176
     1
 62
     7
420
 16777215
176
     1
 90
        1
176
     1
 90
        4
176
     1
 62
     7
176
     1
 62
   257
176
     1
 90
        1
176
     1
 90
        1
176
     1
 40
1.0
176
     1
 90
        8
176
     1
 62
     7
176
     1
 40
1.0
176
     1
 90
        1
176
     1
 90
        6
176
     1
 90
        2
176
     1
 62
     7
176
     1
 90
        5
176
     1
 90
        0
176
     1
 90
        0
176
     1
290
     0
176
     1
 90
        1
176
     1
 40
0.0
176
     1
 90
        0
176
     1
290
     0
176
     1
290
     1
176
     1
290
     1
176
     1
290
     0
176
     1
290
     0
176
     1
290
     0
176
     1
290
     0
176
     1
290
     0
176
     1
290
     0
176
     1
 90
       50
176
     1
 40
0.0
176
     1
 40
1.0
176
     1
 90
        0
176
     1
 62
    18
420
        0
176
     1
 90
       50
176
     1
 90
        3
176
     1
 62
     5
420
      255
176
     1
290
     0
176
     1
 90
       50
176
     1
 90
       50
176
     1
 90
       50
176
     1
290
     0
176
     1
 90
       50
176
     1
 62
   256
176
     0
 40
1.0
176
     0
 90
        2
176
     1
  1
strokes_ogs.tif
176
     1
290
     0
176
     1
 40
1.0
176
     1
 40
1.0
176
     1
  0
VISUALSTYLE
  5
2B
102
{ACAD_REACTORS
330
2A
102
}
330
2A
100
AcDbVisualStyle
  2
Flat
 70
     0
177
     3
291
     1
 70
    58
 90
        2
176
     1
 90
        1
176
     1
 90
        1
176
     1
 90
        2
176
     1
 40
0.6
176
     1
 40
30.0
176
     1
 62
     7
420
 16777215
176
     1
 90
        0
176
     1
 90
        0
176
     1
 62
     7
176
     1
 62
   257
176
     1
 90
        1
176
     1
 90
        1
176
     1
 40
1.0
176
     1
 90
        8
176
     1
 62
     7
176
     1
 40
1.0
176
     1
 90
        1
176
     1
 90
        6
176
     1
 90
        2
176
     1
 62
     7
176
     1
 90
        5
176
     1
 90
        0
176
     1
 90
        0
176
     1
290
     0
176
     1
 90
       13
176
     1
 40
0.0
176
     1
 90
        0
176
     1
290
     0
176
     1
290
     1
176
     1
290
     1
176
     1
290
     0
176
     1
290
     0
176
     1
290
     0
176
     1
290
     0
176
     1
290
     0
176
     1
290
     0
176
     1
 90
       50
176
     1
 40
0.0
176
     1
 40
1.0
176
     1
 90
        0
176
     1
 62
    18
420
        0
176
     1
 90
       50
176
     1
 90
        3
176
     1
 62
     5
420
      255
176
     1
290
     0
176
     1
 90
       50
176
     1
 90
       50
176
     1
 90
       50
176
     1
290
     0
176
     1
 90
       50
176
     1
 62
   256
176
     0
 40
1.0
176
     0
 90
        2
176
     1
  1
strokes_ogs.tif
176
     1
290
     0
176
     1
 40
1.0
176
     1
 40
1.0
176
     1
  0
VISUALSTYLE
  5
2C
102
{ACAD_REACTORS
330
2A
102
}
330
2A
100
AcDbVisualStyle
  2
FlatWithEdges
 70
     1
177
     3
291
     1
 70
    58
 90
        2
176
     1
 90
        1
176
     1
 90
        1
176
     1
 90
        2
176
     1
 40
0.6
176
     1
 40
30.0
176
     1
 62
     7
420
 16777215
176
     1
 90
        1
176
     1
 90
        0
176
     1
 62
     7
176
     1
 62
   257
176
     1
 90
        1
176
     1
 90
        1
176
     1
 40
1.0
176
     1
 90
        0
176
     1
 62
   257
176
     1
 40
1.0
176
     1
 90
        1
176
     1
 90
        6
176
     1
 90
        2
176
     1
 62
     7
176
     1
 90
        5
176
     1
 90
        0
176
     1
 90
        0
176
     1
290
     0
176
     1
 90
       13
176
     1
 40
0.0
176
     1
 90
        0
176
     1
290
     0
176
     1
290
     1
176
     1
290
     1
176
     1
290
     0
176
     1
290
     0
176
     1
290
     0
176
     1
290
     0
176
     1
290
     0
176
     1
290
     0
176
     1
 90
       50
176
     1
 40
0.0
176
     1
 40
1.0
176
     1
 90
        0
176
     1
 62
    18
420
        0
176
     1
 90
       50
176
     1
 90
        3
176
     1
 62
     5
420
      255
176
     1
290
     0
176
     1
 90
       50
176
     1
 90
       50
176
     1
 90
       50
176
     1
290
     0
176
     1
 90
       50
176
     1
 62
   256
176
     0
 40
1.0
176
     0
 90
        2
176
     1
  1
strokes_ogs.tif
176
     1
290
     0
176
     1
 40
1.0
176
     1
 40
1.0
176
     1
  0
VISUALSTYLE
  5
2D
102
{ACAD_REACTORS
330
2A
102
}
330
2A
100
AcDbVisualStyle
  2
Gouraud
 70
     2
177
     3
291
     1
 70
    58
 90
        2
176
     1
 90
        2
176
     1
 90
        1
176
     1
 90
        2
176
     1
 40
0.6
176
     1
 40
30.0
176
     1
 62
     7
420
 16777215
176
     1
 90
        0
176
     1
 90
        0
176
     1
 62
     7
176
     1
 62
   257
176
     1
 90
        1
176
     1
 90
        1
176
     1
 40
1.0
176
     1
 90
        0
176
     1
 62
     7
176
     1
 40
1.0
176
     1
 90
        1
176
     1
 90
        6
176
     1
 90
        2
176
     1
 62
     7
176
     1
 90
        5
176
     1
 90
        0
176
     1
 90
        0
176
     1
290
     0
176
     1
 90
       13
176
     1
 40
0.0
176
     1
 90
        0
176
     1
290
     0
176
     1
290
     1
176
     1
290
     1
176
     1
290
     0
176
     1
290
     0
176
     1
290
     0
176
     1
290
     0
176
     1
290
     0
176
     1
290
     0
176
     1
 90
       50
176
     1
 40
0.0
176
     1
 40
1.0
176
     1
 90
        0
176
     1
 62
    18
420
        0
176
     1
 90
       50
176
     1
 90
        3
176
     1
 62
     5
420
      255
176
     1
290
     0
176
     1
 90
       50
176
     1
 90
       50
176
     1
 90
       50
176
     1
290
     0
176
     1
 90
       50
176
     1
 62
   256
176
     0
 40
1.0
176
     0
 90
        2
176
     1
  1
strokes_ogs.tif
176
     1
290
     0
176
     1
 40
1.0
176
     1
 40
1.0
176
     1
  0
VISUALSTYLE
  5
2E
102
{ACAD_REACTORS
330
2A
102
}
330
2A
100
AcDbVisualStyle
  2
GouraudWithEdges
 70
     3
177
     3
291
     1
 70
    58
 90
        2
176
     1
 90
        2
176
     1
 90
        1
176
     1
 90
        2
176
     1
 40
0.6
176
     1
 40
30.0
176
     1
 62
     7
420
 16777215
176
     1
 90
        1
176
     1
 90
        0
176
     1
 62
     7
176
     1
 62
   257
176
     1
 90
        1
176
     1
 90
        1
176
     1
 40
1.0
176
     1
 90
        0
176
     1
 62
   257
176
     1
 40
1.0
176
     1
 90
        1
176
     1
 90
        6
176
     1
 90
        2
176
     1
 62
     7
176
     1
 90
        5
176
     1
 90
        0
176
     1
 90
        0
176
     1
290
     0
176
     1
 90
       13
176
     1
 40
0.0
176
     1
 90
        0
176
     1
290
     0
176
     1
290
     1
176
     1
290
     1
176
     1
290
     0
176
     1
290
     0
176
     1
290
     0
176
     1
290
     0
176
     1
290
     0
176
     1
290
     0
176
     1
 90
       50
176
     1
 40
0.0
176
     1
 40
1.0
176
     1
 90
        0
176
     1
 62
    18
420
        0
176
     1
 90
       50
176
     1
 90
        3
176
     1
 62
     5
420
      255
176
     1
290
     0
176
     1
 90
       50
176
     1
 90
       50
176
     1
 90
       50
176
     1
290
     0
176
     1
 90
       50
176
     1
 62
   256
176
     0
 40
1.0
176
     0
 90
        2
176
     1
  1
strokes_ogs.tif
176
     1
290
     0
176
     1
 40
1.0
176
     1
 40
1.0
176
     1
  0
VISUALSTYLE
  5
31
102
{ACAD_REACTORS
330
2A
102
}
330
2A
100
AcDbVisualStyle
  2
Hidden
 70
     6
177
     3
291
     0
 70
    58
 90
        1
176
     1
 90
        2
176
     1
 90
        2
176
     1
 90
        0
176
     1
 40
0.6
176
     1
 40
30.0
176
     1
 62
     7
420
 16777215
176
     1
 90
        2
176
     1
 90
        2
176
     1
 62
     7
176
     1
 62
   257
176
     1
 90
        2
176
     1
 90
        1
176
     1
 40
40.0
176
     1
 90
        0
176
     1
 62
   257
176
     1
 40
1.0
176
     1
 90
        1
176
     1
 90
        6
176
     1
 90
        2
176
     1
 62
     7
176
     1
 90
        3
176
     1
 90
        0
176
     1
 90
        0
176
     1
290
     0
176
     1
 90
        1
176
     1
 40
0.0
176
     1
 90
        0
176
     1
290
     0
176
     1
290
     1
176
     1
290
     1
176
     1
290
     0
176
     1
290
     0
176
     1
290
     0
176
     1
290
     0
176
     1
290
     0
176
     1
290
     0
176
     1
 90
       50
176
     1
 40
0.0
176
     1
 40
1.0
176
     1
 90
        0
176
     1
 62
    18
420
        0
176
     1
 90
       50
176
     1
 90
        3
176
     1
 62
     5
420
      255
176
     1
290
     0
176
     1
 90
       50
176
     1
 90
       50
176
     1
 90
       50
176
     1
290
     0
176
     1
 90
       50
176
     1
 62
   256
176
     0
 40
1.0
176
     0
 90
        2
176
     1
  1
strokes_ogs.tif
176
     1
290
     0
176
     1
 40
1.0
176
     1
 40
1.0
176
     1
  0
VISUALSTYLE
  5
3B
102
{ACAD_REACTORS
330
2A
102
}
330
2A
100
AcDbVisualStyle
  2
JitterOff
 70
    20
177
     3
291
     1
 70
    58
 90
        2
176
     0
 90
        2
176
     0
 90
        0
176
     0
 90
        0
176
     0
 40
0.6
176
     0
 40
30.0
176
     0
 62
     7
420
 16777215
176
     0
 90
        1
176
     0
 90
        4
176
     0
 62
     7
176
     0
 62
   257
176
     0
 90
        1
176
     0
 90
        1
176
     0
 40
1.0
176
     0
 90
       10
176
     2
 62
     7
176
     0
 40
1.0
176
     0
 90
        1
176
     0
 90
        6
176
     0
 90
        2
176
     0
 62
     7
176
     0
 90
        5
176
     0
 90
        0
176
     0
 90
        0
176
     0
290
     0
176
     0
 90
        1
176
     0
 40
0.0
176
     0
 90
        0
176
     0
290
     0
176
     0
290
     1
176
     0
290
     1
176
     0
290
     0
176
     0
290
     0
176
     0
290
     0
176
     0
290
     0
176
     0
290
     0
176
     0
290
     0
176
     0
 90
       50
176
     0
 40
0.0
176
     0
 40
1.0
176
     0
 90
        0
176
     0
 62
    18
420
        0
176
     0
 90
       50
176
     0
 90
        3
176
     0
 62
     5
420
      255
176
     0
290
     0
176
     0
 90
       50
176
     0
 90
       50
176
     0
 90
       50
176
     0
290
     0
176
     0
 90
       50
176
     0
 62
   256
176
     0
 40
1.0
176
     0
 90
        2
176
     0
  1
strokes_ogs.tif
176
     0
290
     0
176
     0
 40
1.0
176
     0
 40
1.0
176
     0
  0
VISUALSTYLE
  5
38
102
{ACAD_REACTORS
330
2A
102
}
330
2A
100
AcDbVisualStyle
  2
Linepattern
 70
    14
177
     3
291
     1
 70
    58
 90
        2
176
     1
 90
        2
176
     1
 90
        0
176
     1
 90
        0
176
     1
 40
0.6
176
     1
 40
30.0
176
     1
 62
     7
420
 16777215
176
     1
 90
        1
176
     1
 90
        4
176
     1
 62
     7
176
     1
 62
   257
176
     1
 90
        7
176
     1
 90
        7
176
     1
 40
1.0
176
     1
 90
        8
176
     1
 62
     7
176
     1
 40
1.0
176
     1
 90
        1
176
     1
 90
        6
176
     1
 90
        2
176
     1
 62
     7
176
     1
 90
        5
176
     1
 90
        0
176
     1
 90
        0
176
     1
290
     0
176
     1
 90
        1
176
     1
 40
0.0
176
     1
 90
        0
176
     1
290
     0
176
     1
290
     1
176
     1
290
     1
176
     1
290
     0
176
     1
290
     0
176
     1
290
     0
176
     1
290
     0
176
     1
290
     0
176
     1
290
     0
176
     1
 90
       50
176
     1
 40
0.0
176
     1
 40
1.0
176
     1
 90
        0
176
     1
 62
    18
420
        0
176
     1
 90
       50
176
     1
 90
        3
176
     1
 62
     5
420
      255
176
     1
290
     0
176
     1
 90
       50
176
     1
 90
       50
176
     1
 90
       50
176
     1
290
     0
176
     1
 90
       50
176
     1
 62
   256
176
     0
 40
1.0
176
     0
 90
        2
176
     1
  1
strokes_ogs.tif
176
     1
290
     0
176
     1
 40
1.0
176
     1
 40
1.0
176
     1
  0
VISUALSTYLE
  5
3C
102
{ACAD_REACTORS
330
2A
102
}
330
2A
100
AcDbVisualStyle
  2
OverhangOff
 70
    21
177
     3
291
     1
 70
    58
 90
        2
176
     0
 90
        2
176
     0
 90
        0
176
     0
 90
        0
176
     0
 40
0.6
176
     0
 40
30.0
176
     0
 62
     7
420
 16777215
176
     0
 90
        1
176
     0
 90
        4
176
     0
 62
     7
176
     0
 62
   257
176
     0
 90
        1
176
     0
 90
        1
176
     0
 40
1.0
176
     0
 90
        9
176
     2
 62
     7
176
     0
 40
1.0
176
     0
 90
        1
176
     0
 90
        6
176
     0
 90
        2
176
     0
 62
     7
176
     0
 90
        5
176
     0
 90
        0
176
     0
 90
        0
176
     0
290
     0
176
     0
 90
        1
176
     0
 40
0.0
176
     0
 90
        0
176
     0
290
     0
176
     0
290
     1
176
     0
290
     1
176
     0
290
     0
176
     0
290
     0
176
     0
290
     0
176
     0
290
     0
176
     0
290
     0
176
     0
290
     0
176
     0
 90
       50
176
     0
 40
0.0
176
     0
 40
1.0
176
     0
 90
        0
176
     0
 62
    18
420
        0
176
     0
 90
       50
176
     0
 90
        3
176
     0
 62
     5
420
      255
176
     0
290
     0
176
     0
 90
       50
176
     0
 90
       50
176
     0
 90
       50
176
     0
290
     0
176
     0
 90
       50
176
     0
 62
   256
176
     0
 40
1.0
176
     0
 90
        2
176
     0
  1
strokes_ogs.tif
176
     0
290
     0
176
     0
 40
1.0
176
     0
 40
1.0
176
     0
  0
VISUALSTYLE
  5
33
102
{ACAD_REACTORS
330
2A
102
}
330
2A
100
AcDbVisualStyle
  2
Realistic
 70
     8
177
     3
291
     0
 70
    58
 90
        2
176
     1
 90
        3
176
     1
 90
        0
176
     1
 90
        2
176
     1
 40
0.6
176
     1
 40
30.0
176
     1
 62
     7
420
 16777215
176
     1
 90
        0
176
     1
 90
        0
176
     1
 62
     7
176
     1
 62
   257
176
     1
 90
        1
176
     1
 90
        1
176
     1
 40
1.0
176
     1
 90
        8
176
     1
 62
   257
176
     1
 40
1.0
176
     1
 90
        1
176
     1
 90
        6
176
     1
 90
        2
176
     1
 62
     7
176
     1
 90
        3
176
     1
 90
        0
176
     1
 90
        0
176
     1
290
     0
176
     1
 90
       13
176
     1
 40
0.0
176
     1
 90
        0
176
     1
290
     0
176
     1
290
     1
176
     1
290
     1
176
     1
290
     0
176
     1
290
     0
176
     1
290
     0
176
     1
290
     0
176
     1
290
     0
176
     1
290
     0
176
     1
 90
       50
176
     1
 40
0.0
176
     1
 40
1.0
176
     1
 90
        0
176
     1
 62
    18
420
        0
176
     1
 90
       50
176
     1
 90
        3
176
     1
 62
     5
420
      255
176
     1
290
     0
176
     1
 90
       50
176
     1
 90
       50
176
     1
 90
       50
176
     1
290
     0
176
     1
 90
       50
176
     1
 62
   256
176
     0
 40
1.0
176
     0
 90
        2
176
     1
  1
strokes_ogs.tif
176
     1
290
     0
176
     1
 40
1.0
176
     1
 40
1.0
176
     1
  0
VISUALSTYLE
  5
42
102
{ACAD_REACTORS
330
2A
102
}
330
2A
100
AcDbVisualStyle
  2
Shaded
 70
    27
177
     3
291
     0
 70
    58
 90
        2
176
     1
 90
        2
176
     1
 90
        1
176
     1
 90
        2
176
     1
 40
0.6
176
     1
 40
30.0
176
     1
 62
     7
420
 16777215
176
     1
 90
        0
176
     1
 90
        4
176
     1
 62
     7
176
     1
 62
   257
176
     1
 90
        1
176
     1
 90
        1
176
     1
 40
1.0
176
     1
 90
        8
176
     1
 62
   257
176
     1
 40
1.0
176
     1
 90
        1
176
     1
 90
        6
176
     1
 90
        2
176
     1
 62
     8
420
  7895160
176
     1
 90
        3
176
     1
 90
        0
176
     1
 90
        0
176
     1
290
     0
176
     1
 90
        5
176
     1
 40
0.0
176
     1
 90
        0
176
     1
290
     0
176
     1
290
     1
176
     1
290
     1
176
     1
290
     0
176
     1
290
     0
176
     1
290
     0
176
     1
290
     0
176
     1
290
     0
176
     1
290
     0
176
     1
 90
       50
176
     1
 40
0.0
176
     1
 40
1.0
176
     1
 90
        0
176
     1
 62
    18
420
        0
176
     1
 90
       50
176
     1
 90
        3
176
     1
 62
     5
420
      255
176
     1
290
     0
176
     1
 90
       50
176
     1
 90
       50
176
     1
 90
       50
176
     1
290
     0
176
     1
 90
       50
176
     1
 62
   256
176
     0
 40
1.0
176
     0
 90
        2
176
     1
  1
strokes_ogs.tif
176
     1
290
     0
176
     1
 40
1.0
176
     1
 40
1.0
176
     1
  0
VISUALSTYLE
  5
41
102
{ACAD_REACTORS
330
2A
102
}
330
2A
100
AcDbVisualStyle
  2
Shaded with edges
 70
    26
177
     3
291
     0
 70
    58
 90
        2
176
     1
 90
        2
176
     1
 90
        1
176
     1
 90
        2
176
     1
 40
0.6
176
     1
 40
30.0
176
     1
 62
     7
420
 16777215
176
     1
 90
        1
176
     1
 90
       10
176
     1
 62
     7
176
     1
 62
   257
176
     1
 90
        2
176
     1
 90
        1
176
     1
 40
1.0
176
     1
 90
        8
176
     1
 62
   257
176
     1
 40
1.0
176
     1
 90
        1
176
     1
 90
        6
176
     1
 90
        2
176
     1
 62
     7
176
     1
 90
        3
176
     1
 90
        0
176
     1
 90
        0
176
     1
290
     0
176
     1
 90
        5
176
     1
 40
0.0
176
     1
 90
        0
176
     1
290
     0
176
     1
290
     1
176
     1
290
     1
176
     1
290
     0
176
     1
290
     0
176
     1
290
     0
176
     1
290
     0
176
     1
290
     0
176
     1
290
     0
176
     1
 90
       50
176
     1
 40
0.0
176
     1
 40
1.0
176
     1
 90
        0
176
     1
 62
    18
420
        0
176
     1
 90
       50
176
     1
 90
        3
176
     1
 62
     5
420
      255
176
     1
290
     0
176
     1
 90
       50
176
     1
 90
       50
176
     1
 90
       50
176
     1
290
     0
176
     1
 90
       50
176
     1
 62
   256
176
     0
 40
1.0
176
     0
 90
        2
176
     1
  1
strokes_ogs.tif
176
     1
290
     0
176
     1
 40
1.0
176
     1
 40
1.0
176
     1
  0
VISUALSTYLE
  5
3E
102
{ACAD_REACTORS
330
2A
102
}
330
2A
100
AcDbVisualStyle
  2
Shades of Gray
 70
    23
177
     3
291
     0
 70
    58
 90
        2
176
     1
 90
        2
176
     1
 90
        3
176
     1
 90
        0
176
     1
 40
0.6
176
     1
 40
30.0
176
     1
 62
     7
420
 16777215
176
     1
 90
        2
176
     1
 90
        2
176
     1
 62
     7
176
     1
 62
     7
176
     1
 90
        1
176
     1
 90
        1
176
     1
 40
40.0
176
     1
 90
        8
176
     1
 62
     7
176
     1
 40
1.0
176
     1
 90
        1
176
     1
 90
        6
176
     1
 90
        2
176
     1
 62
     7
176
     1
 90
        3
176
     1
 90
        0
176
     1
 90
        0
176
     1
290
     0
176
     1
 90
        1
176
     1
 40
0.0
176
     1
 90
        0
176
     1
290
     0
176
     1
290
     1
176
     1
290
     1
176
     1
290
     0
176
     1
290
     0
176
     1
290
     0
176
     1
290
     0
176
     1
290
     0
176
     1
290
     0
176
     1
 90
       50
176
     1
 40
0.0
176
     1
 40
1.0
176
     1
 90
        0
176
     1
 62
    18
420
        0
176
     1
 90
       50
176
     1
 90
        3
176
     1
 62
     5
420
      255
176
     1
290
     0
176
     1
 90
       50
176
     1
 90
       50
176
     1
 90
       50
176
     1
290
     0
176
     1
 90
       50
176
     1
 62
   256
176
     0
 40
1.0
176
     0
 90
        2
176
     1
  1
strokes_ogs.tif
176
     1
290
     0
176
     1
 40
1.0
176
     1
 40
1.0
176
     1
  0
VISUALSTYLE
  5
3F
102
{ACAD_REACTORS
330
2A
102
}
330
2A
100
AcDbVisualStyle
  2
Sketchy
 70
    24
177
     3
291
     0
 70
    58
 90
        1
176
     1
 90
        2
176
     1
 90
        2
176
     1
 90
        0
176
     1
 40
0.6
176
     1
 40
30.0
176
     1
 62
     7
420
 16777215
176
     1
 90
        2
176
     1
 90
        2
176
     1
 62
     7
176
     1
 62
     7
176
     1
 90
        1
176
     1
 90
        1
176
     1
 40
40.0
176
     1
 90
       11
176
     1
 62
     7
176
     1
 40
1.0
176
     1
 90
        1
176
     1
 90
        6
176
     1
 90
        2
176
     1
 62
     7
176
     1
 90
        6
176
     1
 90
        0
176
     1
 90
        0
176
     1
290
     0
176
     1
 90
        1
176
     1
 40
0.0
176
     1
 90
        0
176
     1
290
     0
176
     1
290
     1
176
     1
290
     1
176
     1
290
     0
176
     1
290
     0
176
     1
290
     0
176
     1
290
     0
176
     1
290
     0
176
     1
290
     0
176
     1
 90
       50
176
     1
 40
0.0
176
     1
 40
1.0
176
     1
 90
        0
176
     1
 62
    18
420
        0
176
     1
 90
       50
176
     1
 90
        3
176
     1
 62
     5
420
      255
176
     1
290
     0
176
     1
 90
       50
176
     1
 90
       50
176
     1
 90
       50
176
     1
290
     0
176
     1
 90
       50
176
     1
 62
   256
176
     0
 40
1.0
176
     0
 90
        2
176
     1
  1
strokes_ogs.tif
176
     1
290
     0
176
     1
 40
1.0
176
     1
 40
1.0
176
     1
  0
VISUALSTYLE
  5
37
102
{ACAD_REACTORS
330
2A
102
}
330
2A
100
AcDbVisualStyle
  2
Thicken
 70
    13
177
     3
291
     1
 70
    58
 90
        2
176
     1
 90
        2
176
     1
 90
        0
176
     1
 90
        0
176
     1
 40
0.6
176
     1
 40
30.0
176
     1
 62
     7
420
 16777215
176
     1
 90
        1
176
     1
 90
        4
176
     1
 62
     7
176
     1
 62
   257
176
     1
 90
        1
176
     1
 90
        1
176
     1
 40
1.0
176
     1
 90
       12
176
     1
 62
     7
176
     1
 40
1.0
176
     1
 90
        1
176
     1
 90
        6
176
     1
 90
        2
176
     1
 62
     7
176
     1
 90
        5
176
     1
 90
        0
176
     1
 90
        0
176
     1
290
     0
176
     1
 90
        1
176
     1
 40
0.0
176
     1
 90
        0
176
     1
290
     0
176
     1
290
     1
176
     1
290
     1
176
     1
290
     0
176
     1
290
     0
176
     1
290
     0
176
     1
290
     0
176
     1
290
     0
176
     1
290
     0
176
     1
 90
       50
176
     1
 40
0.0
176
     1
 40
1.0
176
     1
 90
        0
176
     1
 62
    18
420
        0
176
     1
 90
       50
176
     1
 90
        3
176
     1
 62
     5
420
      255
176
     1
290
     0
176
     1
 90
       50
176
     1
 90
       50
176
     1
 90
       50
176
     1
290
     0
176
     1
 90
       50
176
     1
 62
   256
176
     0
 40
1.0
176
     0
 90
        2
176
     1
  1
strokes_ogs.tif
176
     1
290
     0
176
     1
 40
1.0
176
     1
 40
1.0
176
     1
  0
VISUALSTYLE
  5
30
102
{ACAD_REACTORS
330
2A
102
}
330
2A
100
AcDbVisualStyle
  2
Wireframe
 70
     5
177
     3
291
     0
 70
    58
 90
        0
176
     1
 90
        2
176
     1
 90
        0
176
     1
 90
        0
176
     1
 40
0.6
176
     1
 40
30.0
176
     1
 62
     7
420
 16777215
176
     1
 90
        1
176
     1
 90
        4
176
     1
 62
     7
176
     1
 62
   257
176
     1
 90
        1
176
     1
 90
        1
176
     1
 40
1.0
176
     1
 90
        0
176
     1
 62
   257
176
     1
 40
1.0
176
     1
 90
        1
176
     1
 90
        6
176
     1
 90
        2
176
     1
 62
     7
176
     1
 90
        3
176
     1
 90
        0
176
     1
 90
        0
176
     1
290
     0
176
     1
 90
        1
176
     1
 40
0.0
176
     1
 90
        0
176
     1
290
     0
176
     1
290
     1
176
     1
290
     1
176
     1
290
     0
176
     1
290
     0
176
     1
290
     0
176
     1
290
     0
176
     1
290
     0
176
     1
290
     0
176
     1
 90
       50
176
     1
 40
0.0
176
     1
 40
1.0
176
     1
 90
        0
176
     1
 62
    18
420
        0
176
     1
 90
       50
176
     1
 90
        3
176
     1
 62
     5
420
      255
176
     1
290
     0
176
     1
 90
       50
176
     1
 90
       50
176
     1
 90
       50
176
     1
290
     0
176
     1
 90
       50
176
     1
 62
   256
176
     0
 40
1.0
176
     0
 90
        2
176
     1
  1
strokes_ogs.tif
176
     1
290
     0
176
     1
 40
1.0
176
     1
 40
1.0
176
     1
  0
VISUALSTYLE
  5
40
102
{ACAD_REACTORS
330
2A
102
}
330
2A
100
AcDbVisualStyle
  2
X-Ray
 70
    25
177
     3
291
     0
 70
    58
 90
        2
176
     1
 90
        2
176
     1
 90
        1
176
     1
 90
        1
176
     1
 40
0.5
176
     1
 40
30.0
176
     1
 62
     7
420
 16777215
176
     1
 90
        1
176
     1
 90
        0
176
     1
 62
     7
176
     1
 62
   257
176
     1
 90
        1
176
     1
 90
        1
176
     1
 40
1.0
176
     1
 90
        8
176
     1
 62
     7
176
     1
 40
1.0
176
     1
 90
        1
176
     1
 90
        6
176
     1
 90
        2
176
     1
 62
     7
176
     1
 90
        3
176
     1
 90
        0
176
     1
 90
        0
176
     1
290
     0
176
     1
 90
       13
176
     1
 40
0.0
176
     1
 90
        0
176
     1
290
     0
176
     1
290
     1
176
     1
290
     1
176
     1
290
     0
176
     1
290
     0
176
     1
290
     0
176
     1
290
     0
176
     1
290
     0
176
     1
290
     0
176
     1
 90
       50
176
     1
 40
0.0
176
     1
 40
1.0
176
     1
 90
        0
176
     1
 62
    18
420
        0
176
     1
 90
       50
176
     1
 90
        3
176
     1
 62
     5
420
      255
176
     1
290
     0
176
     1
 90
       50
176
     1
 90
       50
176
     1
 90
       50
176
     1
290
     0
176
     1
 90
       50
176
     1
 62
   256
176
     0
 40
1.0
176
     0
 90
        2
176
     1
  1
strokes_ogs.tif
176
     1
290
     0
176
     1
 40
1.0
176
     1
 40
1.0
176
     1
  0
DICTIONARYVAR
  5
9AC37
102
{ACAD_REACTORS
330
9AC36
102
}
330
9AC36
100
DictionaryVariables
280
     0
  1
1:1
  0
DICTIONARYVAR
  5
9B00B
102
{ACAD_REACTORS
330
9AC36
102
}
330
9AC36
100
DictionaryVariables
280
     0
  1
STANDARD
  0
DICTIONARYVAR
  5
9B00A
102
{ACAD_REACTORS
330
9AC36
102
}
330
9AC36
100
DictionaryVariables
280
     0
  1
STANDARD
  0
DICTIONARYVAR
  5
9B00C
102
{ACAD_REACTORS
330
9AC36
102
}
330
9AC36
100
DictionaryVariables
280
     0
  1
Imperial24
  0
DICTIONARYVAR
  5
9B00D
102
{ACAD_REACTORS
330
9AC36
102
}
330
9AC36
100
DictionaryVariables
280
     0
  1
Imperial24
  0
DICTIONARYVAR
  5
9B00F
102
{ACAD_REACTORS
330
9AC36
102
}
330
9AC36
100
DictionaryVariables
280
     0
  1
1
  0
DICTIONARYVAR
  5
9B010
102
{ACAD_REACTORS
330
9AC36
102
}
330
9AC36
100
DictionaryVariables
280
     0
  1
15
  0
DICTIONARYVAR
  5
9B00E
102
{ACAD_REACTORS
330
9AC36
102
}
330
9AC36
100
DictionaryVariables
280
     0
  1
0
  0
DICTIONARYVAR
  5
9AC38
102
{ACAD_REACTORS
330
9AC36
102
}
330
9AC36
100
DictionaryVariables
280
     0
  1
1
  0
DICTIONARY
  5
9B007
330
9AC78
100
AcDbDictionary
280
     1
281
     1
  3
ACAD_XREC_ROUNDTRIP
360
9B466
  0
DICTIONARY
  5
9B005
330
9AC77
100
AcDbDictionary
280
     1
281
     1
  3
ACAD_XREC_ROUNDTRIP
360
9B465
  0
DICTIONARY
  5
9B463
330
9AC75
100
AcDbDictionary
280
     1
281
     1
  3
ACAD_ROUNDTRIP_2008_TABLESTYLE_CELLSTYLEMAP
360
9B464
  0
XRECORD
  5
9B466
102
{ACAD_REACTORS
330
9B007
102
}
330
9B007
100
AcDbXrecord
280
     1
102
DISPLAYNAME
  1
Imperial24
102
FLAGS
 90
        0
  0
XRECORD
  5
9B465
102
{ACAD_REACTORS
330
9B005
102
}
330
9B005
100
AcDbXrecord
280
     1
102
DISPLAYNAME
  1
Imperial24
102
FLAGS
 90
        0
  0
CELLSTYLEMAP
  5
9B464
102
{ACAD_REACTORS
330
9B463
102
}
330
9B463
100
AcDbCellStyleMap
 90
        3
300
CELLSTYLE
  1
TABLEFORMAT_BEGIN
 90
        5
170
     1
 91
        0
 92
    32768
 62
   257
 93
        1
300
CONTENTFORMAT
  1
CONTENTFORMAT_BEGIN
 90
        0
 91
        0
 92
      512
 93
        0
300

 40
0.0
140
1.0
 94
        5
 62
     0
340
11
144
0.25
309
CONTENTFORMAT_END
171
     0
 94
        0
309
TABLEFORMAT_END
  1
CELLSTYLE_BEGIN
 90
        1
 91
        1
300
_TITLE
309
CELLSTYLE_END
300
CELLSTYLE
  1
TABLEFORMAT_BEGIN
 90
        5
170
     1
 91
        0
 92
        0
 62
   257
 93
        1
300
CONTENTFORMAT
  1
CONTENTFORMAT_BEGIN
 90
        0
 91
        0
 92
      512
 93
        0
300

 40
0.0
140
1.0
 94
        5
 62
     0
340
11
144
0.18
309
CONTENTFORMAT_END
171
     0
 94
        0
309
TABLEFORMAT_END
  1
CELLSTYLE_BEGIN
 90
        2
 91
        1
300
_HEADER
309
CELLSTYLE_END
300
CELLSTYLE
  1
TABLEFORMAT_BEGIN
 90
        5
170
     1
 91
        0
 92
        0
 62
   257
 93
        1
300
CONTENTFORMAT
  1
CONTENTFORMAT_BEGIN
 90
        0
 91
        0
 92
      512
 93
        0
300

 40
0.0
140
1.0
 94
        2
 62
     0
340
11
144
0.18
309
CONTENTFORMAT_END
171
     0
 94
        0
309
TABLEFORMAT_END
  1
CELLSTYLE_BEGIN
 90
        3
 91
        2
300
_DATA
309
CELLSTYLE_END
  0
ENDSEC
  0
SECTION
  2
ACDSDATA
 70
     2
 71
     8
  0
ACDSSCHEMA
 90
        0
  1
AcDb_Thumbnail_Schema
  2
AcDbDs::ID
280
    10
 91
        8
  2
Thumbnail_Data
280
    15
 91
        0
101
ACDSRECORD
 95
        0
 90
        1
  2
AcDbDs::TreatedAsObjectData
280
     1
291
     1
101
ACDSRECORD
 95
        0
 90
        2
  2
AcDbDs::Legacy
280
     1
291
     1
101
ACDSRECORD
  1
AcDbDs::ID
 90
        3
  2
AcDs:Indexable
280
     1
291
     1
101
ACDSRECORD
  1
AcDbDs::ID
 90
        4
  2
AcDbDs::HandleAttribute
280
     7
282
     1
  0
ACDSSCHEMA
 90
        1
  1
AcDbDs::TreatedAsObjectDataSchema
  2
AcDbDs::TreatedAsObjectData
280
     1
 91
        0
  0
ACDSSCHEMA
 90
        2
  1
AcDbDs::LegacySchema
  2
AcDbDs::Legacy
280
     1
 91
        0
  0
ACDSSCHEMA
 90
        3
  1
AcDbDs::IndexedPropertySchema
  2
AcDs:Indexable
280
     1
 91
        0
  0
ACDSSCHEMA
 90
        4
  1
AcDbDs::HandleAttributeSchema
  2
AcDbDs::HandleAttribute
280
     7
 91
        1
284
     1
  0
ACDSRECORD
 90
        0
  2
AcDbDs::ID
280
    10
320
22
  2
Thumbnail_Data
280
    15
 94
     1459
310
89504E470D0A1A0A0000000D4948445200000100000000670803000000D82A6C0200000300504C5445000000000000C8C8C80000000000000000000000000000000000000000000000000000330000660000990000CC0000FF0033000033330033660033990033CC0033FF0066000066330066660066990066CC0066FF0099
310
000099330099660099990099CC0099FF00CC0000CC3300CC6600CC9900CCCC00CCFF00FF0000FF3300FF6600FF9900FFCC00FFFF3300003300333300663300993300CC3300FF3333003333333333663333993333CC3333FF3366003366333366663366993366CC3366FF3399003399333399663399993399CC3399FF33CC00
310
33CC3333CC6633CC9933CCCC33CCFF33FF0033FF3333FF6633FF9933FFCC33FFFF6600006600336600666600996600CC6600FF6633006633336633666633996633CC6633FF6666006666336666666666996666CC6666FF6699006699336699666699996699CC6699FF66CC0066CC3366CC6666CC9966CCCC66CCFF66FF0066
310
FF3366FF6666FF9966FFCC66FFFF9900009900339900669900999900CC9900FF9933009933339933669933999933CC9933FF9966009966339966669966999966CC9966FF9999009999339999669999999999CC9999FF99CC0099CC3399CC6699CC9999CCCC99CCFF99FF0099FF3399FF6699FF9999FFCC99FFFFCC0000CC00
310
33CC0066CC0099CC00CCCC00FFCC3300CC3333CC3366CC3399CC33CCCC33FFCC6600CC6633CC6666CC6699CC66CCCC66FFCC9900CC9933CC9966CC9999CC99CCCC99FFCCCC00CCCC33CCCC66CCCC99CCCCCCCCCCFFCCFF00CCFF33CCFF66CCFF99CCFFCCCCFFFFFF0000FF0033FF0066FF0099FF00CCFF00FFFF3300FF3333
310
FF3366FF3399FF33CCFF33FFFF6600FF6633FF6666FF6699FF66CCFF66FFFF9900FF9933FF9966FF9999FF99CCFF99FFFFCC00FFCC33FFCC66FFCC99FFCCCCFFCCFFFFFF00FFFF33FFFF66FFFF99FFFFCCFFFFFF0000000D0D0D1A1A1A2828283535354343435050505D5D5D6B6B6B787878868686939393A1A1A1AEAEAEBB
310
BBBBC9C9C9D6D6D6E4E4E4F1F1F1FFFFFF00000000000000000000000000000000000000000000000000000000000008F1915C0000026E4944415478DAED5CD192C32008E4FFFF77DFEFAE4D4C444C82BDCE880B4F8D9D3A618B280B22F21501E0FC6231C1AE288AD4E32408A092DF6761D1DFB276F0FCFDBBC6B703AB5BC0
310
C90B1022F056BAA85E3DF12C00F49F290C001A113200D0D80437005CC700D8DB2037007F26400400841B006BB9339D85E901900400CFC698D6005938DCBA7C363A40EBCB6700B5C25C84D0EBD87F56F9F5193427A12DEC010E26A40C70AD7F458B13E50504D6DA27F203700DA7A4A42CB503DC0A5B14C814153ED36D650024
310
01581D80EB238E0F000484A713CE94B0C7014027349A3C817453FEE40300D7A1D4ACBBBC15E761330D07000765D29452CDBC0AB6D7DE5FF7287F12BF05BC7FA4A79A9F348034E1FE8D5BEBBAB9C21C9D4A49026C113BCD0323E277EE240D578230FA57BA62D4022A7DA32060F87B6721186C7F8F20A724CBDB01F003003C98
310
398401D8EBC20F8020C21A80B9DF930180A786E10D1C100100F9270080C793270009C08A3E2032005611E08013444C27C8BE0D7EFD2418F228081900A0D135C8A582EF064308C407B441FD1021A2BC48040B38332175B66F8410A9CA89A6CF1C4244BFF0560134C0091642EC0CA844E04445277B775ED0C90ACBC554B3DBBF
310
B2D64FF302BD7967748057E99CF533433709BDF5738343E82CA5620290007CAEDBE25552DC556229292929D94809CD95918639E10000A80A8AA83A49E97B7350D7C8D68780FBDEA015ED83AE935443FAD35900E91ED8D7960C00A106209BA8D00340DF47280160EF25667693E3060054FB6076946C52A5640094A6295D4018
310
F601519418081B0BD3068362D4C0B1E96F769222FAF7752915D52AE811A0E04B8C9002909DA452A2C80FDEF5B1BA5BEECF2E0000000049454E44AE426082
  0
ENDSEC
  0
EOF
