  0
SECTION
  2
HEADER
  9
$ACADVER
  1
AC1027
  9
$ACADMAINTVER
 70
   105
  9
$DWGCODEPAGE
  3
ANSI_1252
  9
$LASTSAVEDBY
  1
Sandra
  9
$REQUIREDVERSIONS
160
                 0
  9
$INSBASE
 10
0.0
 20
0.0
 30
0.0
  9
$EXTMIN
 10
-948.670679835987
 20
-948.670679835987
 30
0.0
  9
$EXTMAX
 10
948.670679835987
 20
948.670679835987
 30
576.2997197120514
  9
$LIMMIN
 10
0.0
 20
0.0
  9
$LIMMAX
 10
12.0
 20
9.0
  9
$ORTHOMODE
 70
     1
  9
$REGENMODE
 70
     1
  9
$FILLMODE
 70
     1
  9
$QTEXTMODE
 70
     0
  9
$MIRRTEXT
 70
     1
  9
$LTSCALE
 40
1.0
  9
$ATTMODE
 70
     1
  9
$TEXTSIZE
 40
0.2
  9
$TRACEWID
 40
0.05
  9
$TEXTSTYLE
  7
Standard
  9
$CLAYER
  8
Default
  9
$CELTYPE
  6
ByLayer
  9
$CECOLOR
 62
   256
  9
$CELTSCALE
 40
1.0
  9
$DISPSILH
 70
     0
  9
$DIMSCALE
 40
1.0
  9
$DIMASZ
 40
0.18
  9
$DIMEXO
 40
0.0625
  9
$DIMDLI
 40
0.38
  9
$DIMRND
 40
0.0
  9
$DIMDLE
 40
0.0
  9
$DIMEXE
 40
0.18
  9
$DIMTP
 40
0.0
  9
$DIMTM
 40
0.0
  9
$DIMTXT
 40
0.18
  9
$DIMCEN
 40
0.09
  9
$DIMTSZ
 40
0.0
  9
$DIMTOL
 70
     0
  9
$DIMLIM
 70
     0
  9
$DIMTIH
 70
     1
  9
$DIMTOH
 70
     1
  9
$DIMSE1
 70
     0
  9
$DIMSE2
 70
     0
  9
$DIMTAD
 70
     0
  9
$DIMZIN
 70
     0
  9
$DIMBLK
  1

  9
$DIMASO
 70
     1
  9
$DIMSHO
 70
     1
  9
$DIMPOST
  1

  9
$DIMAPOST
  1

  9
$DIMALT
 70
     0
  9
$DIMALTD
 70
     2
  9
$DIMALTF
 40
25.4
  9
$DIMLFAC
 40
1.0
  9
$DIMTOFL
 70
     0
  9
$DIMTVP
 40
0.0
  9
$DIMTIX
 70
     0
  9
$DIMSOXD
 70
     0
  9
$DIMSAH
 70
     0
  9
$DIMBLK1
  1

  9
$DIMBLK2
  1

  9
$DIMSTYLE
  2
Standard
  9
$DIMCLRD
 70
     0
  9
$DIMCLRE
 70
     0
  9
$DIMCLRT
 70
     0
  9
$DIMTFAC
 40
1.0
  9
$DIMGAP
 40
0.09
  9
$DIMJUST
 70
     0
  9
$DIMSD1
 70
     0
  9
$DIMSD2
 70
     0
  9
$DIMTOLJ
 70
     1
  9
$DIMTZIN
 70
     0
  9
$DIMALTZ
 70
     0
  9
$DIMALTTZ
 70
     0
  9
$DIMUPT
 70
     0
  9
$DIMDEC
 70
     4
  9
$DIMTDEC
 70
     4
  9
$DIMALTU
 70
     2
  9
$DIMALTTD
 70
     2
  9
$DIMTXSTY
  7
Standard
  9
$DIMAUNIT
 70
     0
  9
$DIMADEC
 70
     0
  9
$DIMALTRND
 40
0.0
  9
$DIMAZIN
 70
     0
  9
$DIMDSEP
 70
    46
  9
$DIMATFIT
 70
     3
  9
$DIMFRAC
 70
     0
  9
$DIMLDRBLK
  1

  9
$DIMLUNIT
 70
     2
  9
$DIMLWD
 70
    -2
  9
$DIMLWE
 70
    -2
  9
$DIMTMOVE
 70
     2
  9
$DIMFXL
 40
1.0
  9
$DIMFXLON
 70
     0
  9
$DIMJOGANG
 40
0.7853981633974483
  9
$DIMTFILL
 70
     0
  9
$DIMTFILLCLR
 70
     0
  9
$DIMARCSYM
 70
     0
  9
$DIMLTYPE
  6

  9
$DIMLTEX1
  6

  9
$DIMLTEX2
  6

  9
$DIMTXTDIRECTION
 70
     0
  9
$LUNITS
 70
     2
  9
$LUPREC
 70
     3
  9
$SKETCHINC
 40
0.1
  9
$FILLETRAD
 40
0.5
  9
$AUNITS
 70
     0
  9
$AUPREC
 70
     0
  9
$MENU
  1
.
  9
$ELEVATION
 40
0.0
  9
$PELEVATION
 40
0.0
  9
$THICKNESS
 40
0.0
  9
$LIMCHECK
 70
     0
  9
$CHAMFERA
 40
0.0
  9
$CHAMFERB
 40
0.0
  9
$CHAMFERC
 40
0.0
  9
$CHAMFERD
 40
0.0
  9
$SKPOLY
 70
     0
  9
$TDCREATE
 40
2456540.428299224
  9
$TDUCREATE
 40
2456540.594965891
  9
$TDUPDATE
 40
2457842.442655069
  9
$TDUUPDATE
 40
2457842.609321736
  9
$TDINDWG
 40
0.0133273958
  9
$TDUSRTIMER
 40
0.0133273958
  9
$USRTIMER
 70
     1
  9
$ANGBASE
 50
0.0
  9
$ANGDIR
 70
     0
  9
$PDMODE
 70
     0
  9
$PDSIZE
 40
0.0
  9
$PLINEWID
 40
0.0
  9
$SPLFRAME
 70
     0
  9
$SPLINETYPE
 70
     6
  9
$SPLINESEGS
 70
     8
  9
$HANDSEED
  5
54A
  9
$SURFTAB1
 70
     6
  9
$SURFTAB2
 70
     6
  9
$SURFTYPE
 70
     6
  9
$SURFU
 70
     6
  9
$SURFV
 70
     6
  9
$UCSBASE
  2

  9
$UCSNAME
  2

  9
$UCSORG
 10
0.0
 20
0.0
 30
0.0
  9
$UCSXDIR
 10
1.0
 20
0.0
 30
0.0
  9
$UCSYDIR
 10
0.0
 20
1.0
 30
0.0
  9
$UCSORTHOREF
  2

  9
$UCSORTHOVIEW
 70
     0
  9
$UCSORGTOP
 10
0.0
 20
0.0
 30
0.0
  9
$UCSORGBOTTOM
 10
0.0
 20
0.0
 30
0.0
  9
$UCSORGLEFT
 10
0.0
 20
0.0
 30
0.0
  9
$UCSORGRIGHT
 10
0.0
 20
0.0
 30
0.0
  9
$UCSORGFRONT
 10
0.0
 20
0.0
 30
0.0
  9
$UCSORGBACK
 10
0.0
 20
0.0
 30
0.0
  9
$PUCSBASE
  2

  9
$PUCSNAME
  2

  9
$PUCSORG
 10
0.0
 20
0.0
 30
0.0
  9
$PUCSXDIR
 10
1.0
 20
0.0
 30
0.0
  9
$PUCSYDIR
 10
0.0
 20
1.0
 30
0.0
  9
$PUCSORTHOREF
  2

  9
$PUCSORTHOVIEW
 70
     0
  9
$PUCSORGTOP
 10
0.0
 20
0.0
 30
0.0
  9
$PUCSORGBOTTOM
 10
0.0
 20
0.0
 30
0.0
  9
$PUCSORGLEFT
 10
0.0
 20
0.0
 30
0.0
  9
$PUCSORGRIGHT
 10
0.0
 20
0.0
 30
0.0
  9
$PUCSORGFRONT
 10
0.0
 20
0.0
 30
0.0
  9
$PUCSORGBACK
 10
0.0
 20
0.0
 30
0.0
  9
$USERI1
 70
     0
  9
$USERI2
 70
     0
  9
$USERI3
 70
     0
  9
$USERI4
 70
     0
  9
$USERI5
 70
     0
  9
$USERR1
 40
0.0
  9
$USERR2
 40
0.0
  9
$USERR3
 40
0.0
  9
$USERR4
 40
0.0
  9
$USERR5
 40
0.0
  9
$WORLDVIEW
 70
     1
  9
$SHADEDGE
 70
     3
  9
$SHADEDIF
 70
    70
  9
$TILEMODE
 70
     1
  9
$MAXACTVP
 70
    64
  9
$PINSBASE
 10
0.0
 20
0.0
 30
0.0
  9
$PLIMCHECK
 70
     0
  9
$PEXTMIN
 10
1.000000000000000E+20
 20
1.000000000000000E+20
 30
1.000000000000000E+20
  9
$PEXTMAX
 10
-1.000000000000000E+20
 20
-1.000000000000000E+20
 30
-1.000000000000000E+20
  9
$PLIMMIN
 10
0.0
 20
0.0
  9
$PLIMMAX
 10
12.0
 20
9.0
  9
$UNITMODE
 70
     0
  9
$VISRETAIN
 70
     1
  9
$PLINEGEN
 70
     0
  9
$PSLTSCALE
 70
     1
  9
$TREEDEPTH
 70
  3020
  9
$CMLSTYLE
  2
Standard
  9
$CMLJUST
 70
     0
  9
$CMLSCALE
 40
1.0
  9
$PROXYGRAPHICS
 70
     1
  9
$MEASUREMENT
 70
     0
  9
$CELWEIGHT
370
    -1
  9
$ENDCAPS
280
     0
  9
$JOINSTYLE
280
     0
  9
$LWDISPLAY
290
     0
  9
$INSUNITS
 70
     4
  9
$HYPERLINKBASE
  1

  9
$STYLESHEET
  1

  9
$XEDIT
290
     1
  9
$CEPSNTYPE
380
     0
  9
$PSTYLEMODE
290
     1
  9
$FINGERPRINTGUID
  2
{9E533E05-AFD0-4EB1-AF42-10975C4F4BCE}
  9
$VERSIONGUID
  2
{A555E0E1-A892-49C5-A1C2-F683AF2E67D1}
  9
$EXTNAMES
290
     1
  9
$PSVPSCALE
 40
0.0
  9
$OLESTARTUP
290
     0
  9
$SORTENTS
280
   127
  9
$INDEXCTL
280
     0
  9
$HIDETEXT
280
     1
  9
$XCLIPFRAME
280
     0
  9
$HALOGAP
280
     0
  9
$OBSCOLOR
 70
   257
  9
$OBSLTYPE
280
     0
  9
$INTERSECTIONDISPLAY
280
     0
  9
$INTERSECTIONCOLOR
 70
   257
  9
$DIMASSOC
280
     2
  9
$PROJECTNAME
  1

  9
$CAMERADISPLAY
290
     0
  9
$LENSLENGTH
 40
50.0
  9
$CAMERAHEIGHT
 40
0.0
  9
$STEPSPERSEC
 40
2.0
  9
$STEPSIZE
 40
6.0
  9
$3DDWFPREC
 40
2.0
  9
$PSOLWIDTH
 40
0.25
  9
$PSOLHEIGHT
 40
4.0
  9
$LOFTANG1
 40
1.570796326794896
  9
$LOFTANG2
 40
1.570796326794896
  9
$LOFTMAG1
 40
0.0
  9
$LOFTMAG2
 40
0.0
  9
$LOFTPARAM
 70
     7
  9
$LOFTNORMALS
280
     1
  9
$LATITUDE
 40
37.795
  9
$LONGITUDE
 40
-122.394
  9
$NORTHDIRECTION
 40
0.0
  9
$TIMEZONE
 70
 -8000
  9
$LIGHTGLYPHDISPLAY
280
     1
  9
$TILEMODELIGHTSYNCH
280
     1
  9
$CMATERIAL
347
44
  9
$SOLIDHIST
280
     0
  9
$SHOWHIST
280
     1
  9
$DWFFRAME
280
     2
  9
$DGNFRAME
280
     0
  9
$REALWORLDSCALE
290
     1
  9
$INTERFERECOLOR
 62
     1
  9
$INTERFEREOBJVS
345
33
  9
$INTERFEREVPVS
346
30
  9
$CSHADOW
280
     0
  9
$SHADOWPLANELOCATION
 40
0.0
  0
ENDSEC
  0
SECTION
  2
CLASSES
  0
CLASS
  1
ACDBDICTIONARYWDFLT
  2
AcDbDictionaryWithDefault
  3
ObjectDBX Classes
 90
        0
 91
        1
280
     0
281
     0
  0
CLASS
  1
VISUALSTYLE
  2
AcDbVisualStyle
  3
ObjectDBX Classes
 90
     4095
 91
       26
280
     0
281
     0
  0
CLASS
  1
MATERIAL
  2
AcDbMaterial
  3
ObjectDBX Classes
 90
     1153
 91
        3
280
     0
281
     0
  0
CLASS
  1
SCALE
  2
AcDbScale
  3
ObjectDBX Classes
 90
     1153
 91
       33
280
     0
281
     0
  0
CLASS
  1
SUN
  2
AcDbSun
  3
SCENEOE
 90
     1153
 91
        1
280
     0
281
     0
  0
CLASS
  1
DICTIONARYVAR
  2
AcDbDictionaryVar
  3
ObjectDBX Classes
 90
        0
 91
        9
280
     0
281
     0
  0
CLASS
  1
TABLESTYLE
  2
AcDbTableStyle
  3
ObjectDBX Classes
 90
     4095
 91
        1
280
     0
281
     0
  0
CLASS
  1
MLEADERSTYLE
  2
AcDbMLeaderStyle
  3
ACDB_MLEADERSTYLE_CLASS
 90
     4095
 91
        1
280
     0
281
     0
  0
CLASS
  1
ACDBSECTIONVIEWSTYLE
  2
AcDbSectionViewStyle
  3
ObjectDBX Classes
 90
     1025
 91
        1
280
     0
281
     0
  0
CLASS
  1
ACDBDETAILVIEWSTYLE
  2
AcDbDetailViewStyle
  3
ObjectDBX Classes
 90
     1025
 91
        1
280
     0
281
     0
  0
CLASS
  1
SOLID_BACKGROUND
  2
AcDbSolidBackground
  3
SCENEOE
 90
     4095
 91
        0
280
     0
281
     0
  0
CLASS
  1
NPOCOLLECTION
  2
AcDbImpNonPersistentObjectsCollection
  3
ObjectDBX Classes
 90
     1153
 91
        0
280
     0
281
     0
  0
CLASS
  1
SORTENTSTABLE
  2
AcDbSortentsTable
  3
ObjectDBX Classes
 90
        0
 91
        1
280
     0
281
     0
  0
CLASS
  1
CELLSTYLEMAP
  2
AcDbCellStyleMap
  3
ObjectDBX Classes
 90
     1152
 91
        1
280
     0
281
     0
  0
ENDSEC
  0
SECTION
  2
TABLES
  0
TABLE
  2
VPORT
  5
8
102
{ACAD_XDICTIONARY
360
D6
102
}
330
0
100
AcDbSymbolTable
 70
     1
  0
VPORT
  5
29
330
8
100
AcDbSymbolTableRecord
100
AcDbViewportTableRecord
  2
*Active
 70
     0
 10
0.0
 20
0.0
 11
1.0
 21
1.0
 12
-333.189427587396
 22
159.3475373271524
 13
0.0
 23
0.0
 14
0.5
 24
0.5
 15
0.5
 25
0.5
 16
-0.0000000000043201
 26
0.0
 36
19317.32038915686
 17
629.0802625458227
 27
0.0
 37
437.2263813660951
 40
2649.845026136066
 41
2.334549878345498
 42
50.0
 43
0.0
 44
0.0
 50
0.0
 51
0.0
 71
     0
 72
   100
 73
     1
 74
     3
 75
     0
 76
     0
 77
     0
 78
     0
281
     0
 65
     1
110
0.0
120
0.0
130
0.0
111
1.0
121
0.0
131
0.0
112
0.0
122
1.0
132
0.0
 79
     0
146
0.0
348
2F
 60
     3
 61
     5
292
     1
282
     1
141
0.0
142
0.0
 63
   250
421
  3355443
361
69
1001
ACAD_NAV_VCDISPLAY
1070
     3
  0
ENDTAB
  0
TABLE
  2
LTYPE
  5
5
330
0
100
AcDbSymbolTable
 70
     1
  0
LTYPE
  5
14
330
5
100
AcDbSymbolTableRecord
100
AcDbLinetypeTableRecord
  2
ByBlock
 70
     0
  3

 72
    65
 73
     0
 40
0.0
  0
LTYPE
  5
15
330
5
100
AcDbSymbolTableRecord
100
AcDbLinetypeTableRecord
  2
ByLayer
 70
     0
  3

 72
    65
 73
     0
 40
0.0
  0
LTYPE
  5
16
330
5
100
AcDbSymbolTableRecord
100
AcDbLinetypeTableRecord
  2
Continuous
 70
     0
  3
Solid line
 72
    65
 73
     0
 40
0.0
  0
ENDTAB
  0
TABLE
  2
LAYER
  5
2
102
{ACAD_XDICTIONARY
360
128
102
}
330
0
100
AcDbSymbolTable
 70
     2
  0
LAYER
  5
10
102
{ACAD_XDICTIONARY
360
11F
102
}
330
2
100
AcDbSymbolTableRecord
100
AcDbLayerTableRecord
  2
0
 70
     0
 62
     7
  6
Continuous
370
    -3
390
F
347
46
348
0
  0
LAYER
  5
159
102
{ACAD_XDICTIONARY
360
15A
102
}
330
2
100
AcDbSymbolTableRecord
100
AcDbLayerTableRecord
  2
Default
 70
     0
 62
     7
  6
Continuous
370
    -3
390
F
347
46
348
0
  0
ENDTAB
  0
TABLE
  2
STYLE
  5
3
330
0
100
AcDbSymbolTable
 70
     1
  0
STYLE
  5
11
330
3
100
AcDbSymbolTableRecord
100
AcDbTextStyleTableRecord
  2
Standard
 70
     0
 40
0.0
 41
1.0
 50
0.0
 71
     0
 42
0.2
  3
txt
  4

  0
ENDTAB
  0
TABLE
  2
VIEW
  5
6
330
0
100
AcDbSymbolTable
 70
     0
  0
ENDTAB
  0
TABLE
  2
UCS
  5
7
330
0
100
AcDbSymbolTable
 70
     0
  0
ENDTAB
  0
TABLE
  2
APPID
  5
9
330
0
100
AcDbSymbolTable
 70
     4
  0
APPID
  5
12
330
9
100
AcDbSymbolTableRecord
100
AcDbRegAppTableRecord
  2
ACAD
 70
     0
  0
APPID
  5
D1
330
9
100
AcDbSymbolTableRecord
100
AcDbRegAppTableRecord
  2
ACAD_OBJECT_CHANGE_GUID
 70
     0
  0
APPID
  5
12E
330
9
100
AcDbSymbolTableRecord
100
AcDbRegAppTableRecord
  2
ACAD_NAV_VCDISPLAY
 70
     0
  0
APPID
  5
140
330
9
100
AcDbSymbolTableRecord
100
AcDbRegAppTableRecord
  2
ACAD_EXEMPT_FROM_CAD_STANDARDS
 70
     0
  0
ENDTAB
  0
TABLE
  2
DIMSTYLE
  5
A
330
0
100
AcDbSymbolTable
 70
     1
100
AcDbDimStyleTable
 71
     1
340
27
  0
DIMSTYLE
105
27
330
A
100
AcDbSymbolTableRecord
100
AcDbDimStyleTableRecord
  2
Standard
 70
     0
340
11
  0
ENDTAB
  0
TABLE
  2
BLOCK_RECORD
  5
1
330
0
100
AcDbSymbolTable
 70
     1
  0
BLOCK_RECORD
  5
1F
102
{ACAD_XDICTIONARY
360
3B7
102
}
330
1
100
AcDbSymbolTableRecord
100
AcDbBlockTableRecord
  2
*Model_Space
340
22
 70
     0
280
     1
281
     0
  0
BLOCK_RECORD
  5
1B
330
1
100
AcDbSymbolTableRecord
100
AcDbBlockTableRecord
  2
*Paper_Space
340
1E
 70
     0
280
     1
281
     0
  0
BLOCK_RECORD
  5
23
330
1
100
AcDbSymbolTableRecord
100
AcDbBlockTableRecord
  2
*Paper_Space0
340
26
 70
     0
280
     1
281
     0
  0
ENDTAB
  0
ENDSEC
  0
SECTION
  2
BLOCKS
  0
BLOCK
  5
20
330
1F
100
AcDbEntity
  8
0
100
AcDbBlockBegin
  2
*Model_Space
 70
     0
 10
0.0
 20
0.0
 30
0.0
  3
*Model_Space
  1

  0
ENDBLK
  5
21
330
1F
100
AcDbEntity
  8
0
100
AcDbBlockEnd
  0
BLOCK
  5
1C
330
1B
100
AcDbEntity
 67
     1
  8
0
100
AcDbBlockBegin
  2
*Paper_Space
 70
     0
 10
0.0
 20
0.0
 30
0.0
  3
*Paper_Space
  1

  0
ENDBLK
  5
1D
330
1B
100
AcDbEntity
 67
     1
  8
0
100
AcDbBlockEnd
  0
BLOCK
  5
24
330
23
100
AcDbEntity
 67
     1
  8
0
100
AcDbBlockBegin
  2
*Paper_Space0
 70
     0
 10
0.0
 20
0.0
 30
0.0
  3
*Paper_Space0
  1

  0
ENDBLK
  5
25
330
23
100
AcDbEntity
 67
     1
  8
0
100
AcDbBlockEnd
  0
ENDSEC
  0
SECTION
  2
ENTITIES
  0
SPLINE
  5
2C9
330
1F
100
AcDbEntity
  8
Default
100
AcDbSpline
210
0.0
220
0.0
230
1.0
 70
    28
 71
     2
 72
     6
 73
     3
 74
     0
 42
0.000000001
 43
0.0000000001
 40
0.0
 40
0.0
 40
0.0
 40
0.0311225103432869
 40
0.0311225103432869
 40
0.0311225103432869
 10
-152.4423196806679
 20
547.7654654546064
 30
576.2997197120512
 41
1.0
 10
-152.1651935961731
 20
548.047295802509
 30
576.2997197120512
 41
0.9999999999976651
 10
-151.8880674196498
 20
548.3291260599186
 30
576.2997197120512
 41
0.9999999999953569
  0
SPLINE
  5
2CA
330
1F
100
AcDbEntity
  8
Default
100
AcDbSpline
210
0.0
220
0.0
230
1.0
 70
     8
 71
     3
 72
     9
 73
     5
 74
     0
 42
0.000000001
 43
0.0000000001
 40
-2.0
 40
-2.0
 40
-2.0
 40
-2.0
 40
-1.0
 40
0.0
 40
0.0
 40
0.0
 40
0.0
 10
-163.5952324354407
 20
831.9041169020657
 30
576.2997197120512
 10
-177.5501127429857
 20
846.0921254911532
 30
576.2997197120512
 10
-205.4597255181404
 20
874.4682947113959
 30
576.2997197120512
 10
-233.3716775229009
 20
902.842157299931
 30
576.2997197120512
 10
-247.3255946561405
 20
917.0311137388452
 30
576.2997197120512
  0
SPLINE
  5
2CB
330
1F
100
AcDbEntity
  8
Default
100
AcDbSpline
210
0.0
220
0.0
230
1.0
 70
     8
 71
     3
 72
    20
 73
    16
 74
     0
 42
0.000000001
 43
0.0000000001
 40
-13.0
 40
-13.0
 40
-13.0
 40
-13.0
 40
-12.0
 40
-11.0
 40
-10.0
 40
-9.0
 40
-8.0
 40
-7.0
 40
-6.0
 40
-5.0
 40
-4.0
 40
-3.0
 40
-2.0
 40
-1.0
 40
0.0
 40
0.0
 40
0.0
 40
0.0
 10
-247.3255946561405
 20
917.0311137388452
 30
576.2997197120512
 10
-248.5679612935192
 20
918.2944067576153
 30
576.2997197120512
 10
-252.3380154281554
 20
922.0940830214019
 30
576.2997197120512
 10
-256.1308037257465
 20
925.8159998732727
 30
576.2997197120512
 10
-259.8647878565985
 20
929.6098791808903
 30
576.2997197120512
 10
-262.800038763168
 20
934.0888836518585
 30
576.2997197120512
 10
-264.7555959205324
 20
939.0333444142951
 30
576.2997197120512
 10
-265.0382770443973
 20
944.5914001554273
 30
576.2997197120512
 10
-261.2906255556004
 20
948.9726072156949
 30
576.2997197120512
 10
-255.6523061564387
 20
949.1015648503992
 30
576.2997197120512
 10
-250.637247194526
 20
947.3431133225796
 30
576.2997197120512
 10
-246.0736358380327
 20
944.5326269488518
 30
576.2997197120512
 10
-242.2018631572028
 20
940.8792843876009
 30
576.2997197120512
 10
-238.4989973694175
 20
937.0666721110252
 30
576.2997197120512
 10
-234.129840586209
 20
932.7325638274134
 30
576.2997197120512
 10
-232.8665291895911
 20
931.4901792053827
 30
576.2997197120512
  0
SPLINE
  5
2CC
330
1F
100
AcDbEntity
  8
Default
100
AcDbSpline
210
0.0
220
0.0
230
1.0
 70
     8
 71
     3
 72
     9
 73
     5
 74
     0
 42
0.000000001
 43
0.0000000001
 40
0.0
 40
0.0
 40
0.0
 40
0.0
 40
1.0
 40
2.0
 40
2.0
 40
2.0
 40
2.0
 10
-232.8665291895911
 20
931.4901792053827
 30
576.2997197120512
 10
-218.6775721125828
 20
917.5362624416122
 30
576.2997197120512
 10
-190.3037107099737
 20
889.624310217624
 30
576.2997197120512
 10
-161.9275408827698
 20
861.7146971945912
 30
576.2997197120512
 10
-147.7395323317132
 20
847.7598170018197
 30
576.2997197120512
  0
SPLINE
  5
2CD
330
1F
100
AcDbEntity
  8
Default
100
AcDbSpline
210
0.0
220
0.0
230
1.0
 70
     8
 71
     3
 72
     9
 73
     5
 74
     0
 42
0.000000001
 43
0.0000000001
 40
-2.0
 40
-2.0
 40
-2.0
 40
-2.0
 40
-1.0
 40
0.0
 40
0.0
 40
0.0
 40
0.0
 10
163.5953711392408
 20
831.9041169020657
 30
576.2997197120512
 10
177.5502514467857
 20
846.0921254911532
 30
576.2997197120512
 10
205.4598642219403
 20
874.4682947113959
 30
576.2997197120512
 10
233.371816226701
 20
902.842157299931
 30
576.2997197120512
 10
247.3257333599404
 20
917.0311137388452
 30
576.2997197120512
  0
SPLINE
  5
2CE
330
1F
100
AcDbEntity
  8
Default
100
AcDbSpline
210
0.0
220
0.0
230
1.0
 70
     8
 71
     3
 72
    20
 73
    16
 74
     0
 42
0.000000001
 43
0.0000000001
 40
-13.0
 40
-13.0
 40
-13.0
 40
-13.0
 40
-12.0
 40
-11.0
 40
-10.0
 40
-9.0
 40
-8.0
 40
-7.0
 40
-6.0
 40
-5.0
 40
-4.0
 40
-3.0
 40
-2.0
 40
-1.0
 40
0.0
 40
0.0
 40
0.0
 40
0.0
 10
247.3257333599404
 20
917.0311137388452
 30
576.2997197120512
 10
248.5680999973192
 20
918.2944067576153
 30
576.2997197120512
 10
252.3381541319555
 20
922.0940830214019
 30
576.2997197120512
 10
256.1309424295469
 20
925.8159998732727
 30
576.2997197120512
 10
259.8649265603985
 20
929.6098791808903
 30
576.2997197120512
 10
262.8001774669683
 20
934.0888836518585
 30
576.2997197120512
 10
264.7557346243325
 20
939.0333444142951
 30
576.2997197120512
 10
265.0384157481972
 20
944.5914001554273
 30
576.2997197120512
 10
261.2907642594005
 20
948.9726072156949
 30
576.2997197120512
 10
255.652444860239
 20
949.1015648503992
 30
576.2997197120512
 10
250.6373858983261
 20
947.3431133225796
 30
576.2997197120512
 10
246.0737745418328
 20
944.5326269488518
 30
576.2997197120512
 10
242.2020018610028
 20
940.8792843876009
 30
576.2997197120512
 10
238.4991360732174
 20
937.0666721110252
 30
576.2997197120512
 10
234.129979290009
 20
932.7325638274134
 30
576.2997197120512
 10
232.8666678933914
 20
931.4901792053827
 30
576.2997197120512
  0
SPLINE
  5
2CF
330
1F
100
AcDbEntity
  8
Default
100
AcDbSpline
210
0.0
220
0.0
230
1.0
 70
     8
 71
     3
 72
     9
 73
     5
 74
     0
 42
0.000000001
 43
0.0000000001
 40
0.0
 40
0.0
 40
0.0
 40
0.0
 40
1.0
 40
2.0
 40
2.0
 40
2.0
 40
2.0
 10
232.8666678933914
 20
931.4901792053827
 30
576.2997197120512
 10
218.6777108163828
 20
917.5362624416122
 30
576.2997197120512
 10
190.3038494137736
 20
889.624310217624
 30
576.2997197120512
 10
161.9276795865698
 20
861.7146971945912
 30
576.2997197120512
 10
147.7396710355133
 20
847.7598170018197
 30
576.2997197120512
  0
SPLINE
  5
2D0
330
1F
100
AcDbEntity
  8
Default
100
AcDbSpline
210
0.0
220
0.0
230
1.0
 70
     8
 71
     3
 72
     9
 73
     5
 74
     0
 42
0.000000001
 43
0.0000000001
 40
-2.0
 40
-2.0
 40
-2.0
 40
-2.0
 40
-1.0
 40
0.0
 40
0.0
 40
0.0
 40
0.0
 10
163.5953711392408
 20
536.4249134925838
 30
576.2997197120512
 10
177.5502514467857
 20
522.2369049034965
 30
576.2997197120512
 10
205.4598642219403
 20
493.8607356832541
 30
576.2997197120512
 10
233.371816226701
 20
465.4868730947186
 30
576.2997197120512
 10
247.3257333599404
 20
451.297916655805
 30
576.2997197120512
  0
SPLINE
  5
2D1
330
1F
100
AcDbEntity
  8
Default
100
AcDbSpline
210
0.0
220
0.0
230
1.0
 70
     8
 71
     3
 72
    20
 73
    16
 74
     0
 42
0.000000001
 43
0.0000000001
 40
-13.0
 40
-13.0
 40
-13.0
 40
-13.0
 40
-12.0
 40
-11.0
 40
-10.0
 40
-9.0
 40
-8.0
 40
-7.0
 40
-6.0
 40
-5.0
 40
-4.0
 40
-3.0
 40
-2.0
 40
-1.0
 40
0.0
 40
0.0
 40
0.0
 40
0.0
 10
247.3257333599404
 20
451.297916655805
 30
576.2997197120512
 10
248.5680999973192
 20
450.0346236370344
 30
576.2997197120512
 10
252.3381541319555
 20
446.234947373248
 30
576.2997197120512
 10
256.1309424295469
 20
442.513030521377
 30
576.2997197120512
 10
259.8649265603985
 20
438.7191512137596
 30
576.2997197120512
 10
262.8001774669683
 20
434.2401467427913
 30
576.2997197120512
 10
264.7557346243325
 20
429.2956859803545
 30
576.2997197120512
 10
265.0384157481972
 20
423.7376302392226
 30
576.2997197120512
 10
261.2907642594005
 20
419.3564231789548
 30
576.2997197120512
 10
255.652444860239
 20
419.2274655442505
 30
576.2997197120512
 10
250.6373858983261
 20
420.9859170720704
 30
576.2997197120512
 10
246.0737745418328
 20
423.7964034457978
 30
576.2997197120512
 10
242.2020018610028
 20
427.449746007049
 30
576.2997197120512
 10
238.4991360732174
 20
431.2623582836249
 30
576.2997197120512
 10
234.129979290009
 20
435.5964665672364
 30
576.2997197120512
 10
232.8666678933914
 20
436.838851189267
 30
576.2997197120512
  0
SPLINE
  5
2D2
330
1F
100
AcDbEntity
  8
Default
100
AcDbSpline
210
0.0
220
0.0
230
1.0
 70
     8
 71
     3
 72
     9
 73
     5
 74
     0
 42
0.000000001
 43
0.0000000001
 40
0.0
 40
0.0
 40
0.0
 40
0.0
 40
1.0
 40
2.0
 40
2.0
 40
2.0
 40
2.0
 10
232.8666678933914
 20
436.838851189267
 30
576.2997197120512
 10
218.6777108163828
 20
450.7927679530378
 30
576.2997197120512
 10
190.3038494137736
 20
478.7047201770255
 30
576.2997197120512
 10
161.9276795865698
 20
506.6143332000587
 30
576.2997197120512
 10
147.7396710355133
 20
520.5692133928303
 30
576.2997197120512
  0
SPLINE
  5
2D3
330
1F
100
AcDbEntity
  8
Default
100
AcDbSpline
210
0.0
220
0.0
230
1.0
 70
     8
 71
     3
 72
     9
 73
     5
 74
     0
 42
0.000000001
 43
0.0000000001
 40
-2.0
 40
-2.0
 40
-2.0
 40
-2.0
 40
-1.0
 40
0.0
 40
0.0
 40
0.0
 40
0.0
 10
-163.5952324354407
 20
536.4249134925838
 30
576.2997197120512
 10
-177.5501127429857
 20
522.2369049034965
 30
576.2997197120512
 10
-205.4597255181404
 20
493.8607356832541
 30
576.2997197120512
 10
-233.3716775229009
 20
465.4868730947186
 30
576.2997197120512
 10
-247.3255946561405
 20
451.297916655805
 30
576.2997197120512
  0
SPLINE
  5
2D4
330
1F
100
AcDbEntity
  8
Default
100
AcDbSpline
210
0.0
220
0.0
230
1.0
 70
     8
 71
     3
 72
    20
 73
    16
 74
     0
 42
0.000000001
 43
0.0000000001
 40
-13.0
 40
-13.0
 40
-13.0
 40
-13.0
 40
-12.0
 40
-11.0
 40
-10.0
 40
-9.0
 40
-8.0
 40
-7.0
 40
-6.0
 40
-5.0
 40
-4.0
 40
-3.0
 40
-2.0
 40
-1.0
 40
0.0
 40
0.0
 40
0.0
 40
0.0
 10
-247.3255946561405
 20
451.297916655805
 30
576.2997197120512
 10
-248.5679612935192
 20
450.0346236370344
 30
576.2997197120512
 10
-252.3380154281554
 20
446.234947373248
 30
576.2997197120512
 10
-256.1308037257465
 20
442.513030521377
 30
576.2997197120512
 10
-259.8647878565985
 20
438.7191512137596
 30
576.2997197120512
 10
-262.800038763168
 20
434.2401467427913
 30
576.2997197120512
 10
-264.7555959205324
 20
429.2956859803545
 30
576.2997197120512
 10
-265.0382770443973
 20
423.7376302392226
 30
576.2997197120512
 10
-261.2906255556004
 20
419.3564231789548
 30
576.2997197120512
 10
-255.6523061564387
 20
419.2274655442505
 30
576.2997197120512
 10
-250.637247194526
 20
420.9859170720704
 30
576.2997197120512
 10
-246.0736358380327
 20
423.7964034457978
 30
576.2997197120512
 10
-242.2018631572028
 20
427.449746007049
 30
576.2997197120512
 10
-238.4989973694175
 20
431.2623582836249
 30
576.2997197120512
 10
-234.129840586209
 20
435.5964665672364
 30
576.2997197120512
 10
-232.8665291895911
 20
436.838851189267
 30
576.2997197120512
  0
SPLINE
  5
2D5
330
1F
100
AcDbEntity
  8
Default
100
AcDbSpline
210
0.0
220
0.0
230
1.0
 70
     8
 71
     3
 72
     9
 73
     5
 74
     0
 42
0.000000001
 43
0.0000000001
 40
0.0
 40
0.0
 40
0.0
 40
0.0
 40
1.0
 40
2.0
 40
2.0
 40
2.0
 40
2.0
 10
-232.8665291895911
 20
436.838851189267
 30
576.2997197120512
 10
-218.6775721125828
 20
450.7927679530378
 30
576.2997197120512
 10
-190.3037107099737
 20
478.7047201770255
 30
576.2997197120512
 10
-161.9275408827698
 20
506.6143332000587
 30
576.2997197120512
 10
-147.7395323317132
 20
520.5692133928303
 30
576.2997197120512
  0
SPLINE
  5
2D6
330
1F
100
AcDbEntity
  8
Default
100
AcDbSpline
210
0.0
220
0.0
230
1.0
 70
    28
 71
     2
 72
     6
 73
     3
 74
     0
 42
0.000000001
 43
0.0000000001
 40
4.761170663444152
 40
4.761170663444152
 40
4.761170663444152
 40
4.792292789997686
 40
4.792292789997686
 40
4.792292789997686
 10
-151.8880358663636
 20
819.999939616912
 30
576.2997197120512
 41
0.9999999999962923
 10
-152.165175273858
 20
820.2817500275186
 30
576.2997197120512
 41
0.9999999999979724
 10
-152.4423150137154
 20
820.56356011127
 30
576.2997197120512
 41
1.0
  0
SPLINE
  5
2D7
330
1F
100
AcDbEntity
  8
Default
100
AcDbSpline
210
0.0
220
0.0
230
1.0
 70
    28
 71
     2
 72
     6
 73
     3
 74
     0
 42
0.000000001
 43
0.0000000001
 40
0.0
 40
0.0
 40
0.0
 40
0.0311222733603082
 40
0.0311222733603082
 40
0.0311222733603082
 10
-136.3989782254998
 20
836.6069021462475
 30
576.2997197120512
 41
1.0
 10
-136.1171666930431
 20
836.3297612204808
 30
576.2997197120512
 41
0.9999999999961511
 10
-135.8353548521745
 20
836.0526206083239
 30
576.2997197120512
 41
0.9999999999926119
  0
SPLINE
  5
2D8
330
1F
100
AcDbEntity
  8
Default
100
AcDbSpline
210
0.0
220
0.0
230
1.0
 70
    28
 71
     2
 72
     6
 73
     3
 74
     0
 42
0.000000001
 43
0.0000000001
 40
0.0
 40
0.0
 40
0.0
 40
0.0311223369417638
 40
0.0311223369417638
 40
0.0311223369417638
 10
-136.3989773296366
 20
531.7221293209303
 30
576.2997197120512
 41
1.0
 10
-136.1171485634418
 20
531.9992538730613
 30
576.2997197120512
 41
0.9999999999976727
 10
-135.8353198875938
 20
532.2763785170733
 30
576.2997197120512
 41
0.999999999995372
  0
SPLINE
  5
2D9
330
1F
100
AcDbEntity
  8
Default
100
AcDbSpline
210
0.0
220
0.0
230
1.0
 70
    12
 71
     2
 72
     8
 73
     5
 74
     0
 42
0.000000001
 43
0.0000000001
 40
0.0
 40
0.0
 40
0.0
 40
13.63205890972085
 40
13.63205890972085
 40
27.26411781944171
 40
27.26411781944171
 40
27.26411781944171
 10
0.0000693519532433
 20
463.732183901123
 30
576.2997197120512
 41
1.0
 10
220.4324006481552
 20
463.7321839011757
 30
576.2997197120512
 41
0.7071067811865471
 10
220.432400648102
 20
684.1645151973779
 30
576.2997197120512
 41
1.0
 10
220.4324006480493
 20
904.5968464935794
 30
576.2997197120512
 41
0.7071067811865467
 10
0.0000693518472872
 20
904.5968464935269
 30
576.2997197120512
 41
1.0
  0
SPLINE
  5
2DA
330
1F
100
AcDbEntity
  8
Default
100
AcDbSpline
210
0.0
220
0.0
230
1.0
 70
    12
 71
     2
 72
     8
 73
     5
 74
     0
 42
0.000000001
 43
0.0000000001
 40
0.0
 40
0.0
 40
0.0
 40
13.63205890972085
 40
13.63205890972085
 40
27.2641178194417
 40
27.2641178194417
 40
27.2641178194417
 10
0.0000693518472872
 20
904.5968464935269
 30
576.2997197120512
 41
1.0
 10
-220.4322619443548
 20
904.5968464934736
 30
576.2997197120512
 41
0.7071067811865478
 10
-220.4322619443019
 20
684.1645151972719
 30
576.2997197120512
 41
1.0
 10
-220.4322619442491
 20
463.7321839010701
 30
576.2997197120512
 41
0.7071067811865478
 10
0.0000693519532433
 20
463.732183901123
 30
576.2997197120512
 41
1.0
  0
SPLINE
  5
2DB
330
1F
100
AcDbEntity
  8
Default
100
AcDbSpline
210
0.0
220
0.0
230
1.0
 70
    15
 71
     2
 72
    12
 73
     9
 74
     0
 42
0.000000001
 43
0.0000000001
 40
0.0
 40
0.0
 40
0.0
 40
12.60147602241891
 40
12.60147602241891
 40
25.20295204483783
 40
25.20295204483783
 40
37.80442806725675
 40
37.80442806725675
 40
50.40590408967564
 40
50.40590408967564
 40
50.40590408967564
 10
-0.0000961430660027
 20
887.9321746382094
 30
576.2997197120512
 41
1.0
 10
203.7675632978185
 20
887.9323401331754
 30
576.2997197120512
 41
0.7071067811865476
 10
203.7677287927845
 20
684.1646806922909
 30
576.2997197120512
 41
1.0
 10
203.7678942877505
 20
480.3970212514065
 30
576.2997197120512
 41
0.7071067811865476
 10
0.0002348468660784
 20
480.3968557564407
 30
576.2997197120512
 41
1.0
 10
-203.7674245940184
 20
480.3966902614743
 30
576.2997197120512
 41
0.7071067811865476
 10
-203.7675900889844
 20
684.1643497023588
 30
576.2997197120512
 41
1.0
 10
-203.7677555839505
 20
887.9320091432436
 30
576.2997197120512
 41
0.7071067811865476
 10
-0.0000961430660027
 20
887.9321746382094
 30
576.2997197120512
 41
1.0
  0
SPLINE
  5
2DC
330
1F
100
AcDbEntity
  8
Default
100
AcDbSpline
210
0.0
220
0.0
230
1.0
 70
    15
 71
     2
 72
    12
 73
     9
 74
     0
 42
0.000000001
 43
0.0000000001
 40
0.0
 40
0.0
 40
0.0
 40
11.78097476525765
 40
11.78097476525765
 40
23.56194953051529
 40
23.56194953051529
 40
35.34292429577294
 40
35.34292429577294
 40
47.12389906103058
 40
47.12389906103058
 40
47.12389906103058
 10
-0.0000961432870099
 20
874.6645532971474
 30
576.2997197120512
 41
1.0
 10
190.499941279123
 20
874.6647321532261
 30
576.2997197120512
 41
0.7071067811865476
 10
190.5001201352015
 20
684.1646947308155
 30
576.2997197120512
 41
1.0
 10
190.5002989912805
 20
493.6646573084057
 30
576.2997197120512
 41
0.7071067811865476
 10
0.0002615688699734
 20
493.6644784523269
 30
576.2997197120512
 41
1.0
 10
-190.4997758535403
 20
493.6642995962483
 30
576.2997197120512
 41
0.7071067811865476
 10
-190.4999547096188
 20
684.1643370186585
 30
576.2997197120512
 41
1.0
 10
-190.5001335656977
 20
874.6643744410686
 30
576.2997197120512
 41
0.7071067811865476
 10
-0.0000961432870099
 20
874.6645532971474
 30
576.2997197120512
 41
1.0
  0
SPLINE
  5
2DD
330
1F
100
AcDbEntity
  8
Default
100
AcDbSpline
210
0.0
220
0.0
230
1.0
 70
    12
 71
     2
 72
     6
 73
     3
 74
     0
 42
0.000000001
 43
0.0000000001
 40
0.0117686935156192
 40
0.0117686935156192
 40
0.0117686935156192
 40
0.1338965989858833
 40
0.1338965989858833
 40
0.1338965989858833
 10
-181.8280667408394
 20
776.1416208219389
 30
576.2997197120512
 41
0.9928050207437479
 10
-183.1648858026951
 20
775.2753556051458
 30
576.2997197120512
 41
0.9590700849288174
 10
-183.8529770340883
 20
773.8386819862443
 30
576.2997197120512
 41
1.0
  0
SPLINE
  5
2DE
330
1F
100
AcDbEntity
  8
Default
100
AcDbSpline
210
0.0
220
0.0
230
1.0
 70
    12
 71
     2
 72
     8
 73
     5
 74
     0
 42
0.000000001
 43
0.0000000001
 40
0.0
 40
0.0
 40
0.0
 40
7.870388937238172
 40
7.870388937238172
 40
15.74077787447417
 40
15.74077787447417
 40
15.74077787447417
 10
-183.8529770340883
 20
773.8386819862443
 30
576.2997197120512
 41
1.0
 10
-231.5272331556255
 20
676.0952672613403
 30
576.2997197120512
 41
0.8829734150930072
 10
-177.1637368951146
 20
581.908112653295
 30
576.2997197120512
 41
1.0
 10
-122.8002406346027
 20
487.7209580452705
 30
576.2997197120512
 41
0.8829734150928628
 10
-14.31670597231368
 20
480.1096161137528
 30
576.2997197120512
 41
1.0
  0
SPLINE
  5
2DF
330
1F
100
AcDbEntity
  8
Default
100
AcDbSpline
210
-0.000000000000011
220
-0.000000000000134
230
1.0
 70
    12
 71
     2
 72
     6
 73
     3
 74
     0
 42
0.000000001
 43
0.0000000001
 40
0.0
 40
0.0
 40
0.0
 40
0.1222860980901102
 40
0.1222860980901102
 40
0.1222860980901102
 10
-14.31670597231368
 20
480.1096161137528
 30
576.2997197120512
 41
1.0
 10
-12.72244340272573
 20
479.9787785600559
 30
576.2997197120512
 41
0.9443660915446896
 10
-11.29994854953793
 20
480.7104205482595
 30
576.2997197120513
 41
0.9647222903891885
  0
SPLINE
  5
2E0
330
1F
100
AcDbEntity
  8
Default
100
AcDbSpline
210
0.0
220
0.0
230
1.0
 70
    12
 71
     2
 72
     6
 73
     3
 74
     0
 42
0.000000001
 43
0.0000000001
 40
0.013283267876232
 40
0.013283267876232
 40
0.013283267876232
 40
0.1362421782741509
 40
0.1362421782741509
 40
0.1362421782741509
 10
11.32749774787316
 20
480.7119448031963
 30
576.2997197120512
 41
0.9919353035868196
 10
12.75753178534614
 20
479.9854573870469
 30
576.2997197120512
 41
0.9586415098796043
 10
14.3564956288501
 20
480.1123271680133
 30
576.2997197120512
 41
1.0
  0
SPLINE
  5
2E1
330
1F
100
AcDbEntity
  8
Default
100
AcDbSpline
210
0.0
220
0.0
230
1.0
 70
    12
 71
     2
 72
     8
 73
     5
 74
     0
 42
0.000000001
 43
0.0000000001
 40
0.0
 40
0.0
 40
0.0
 40
7.868615559496922
 40
7.868615559496922
 40
15.73723111899384
 40
15.73723111899384
 40
15.73723111899384
 10
14.3564956288501
 20
480.1123271680133
 30
576.2997197120512
 41
1.0
 10
122.8097310933385
 20
487.7427430244532
 30
576.2997197120512
 41
0.8830251182217258
 10
177.1612152145885
 20
581.9034763620583
 30
576.2997197120512
 41
1.0
 10
231.5126993358376
 20
676.0642096996631
 30
576.2997197120512
 41
0.8830251182217264
 10
183.8751568400821
 20
773.7933868875587
 30
576.2997197120512
 41
1.0
  0
SPLINE
  5
2E2
330
1F
100
AcDbEntity
  8
Default
100
AcDbSpline
210
0.0
220
0.0
230
1.0
 70
    12
 71
     2
 72
     6
 73
     3
 74
     0
 42
0.000000001
 43
0.0000000001
 40
0.0
 40
0.0
 40
0.0
 40
0.1225959064184418
 40
0.1225959064184418
 40
0.1225959064184418
 10
183.8751568400821
 20
773.7933868875587
 30
576.2997197120512
 41
1.0
 10
183.1836448774756
 20
775.2337858544584
 30
576.2997197120512
 41
0.9609699793776979
 10
181.8456527344142
 20
776.1071214161871
 30
576.2997197120512
 41
0.9955579475786183
  0
SPLINE
  5
2E3
330
1F
100
AcDbEntity
  8
Default
100
AcDbSpline
210
0.0
220
0.0
230
1.0
 70
    12
 71
     2
 72
     6
 73
     3
 74
     0
 42
0.000000001
 43
0.0000000001
 40
0.0
 40
0.0
 40
0.0
 40
0.0094211670328261
 40
0.0094211670328261
 40
0.0094211670328261
 10
170.5397136061883
 20
795.4648047900565
 30
576.2997197120512
 41
1.0
 10
170.5378148397603
 20
795.5831062269459
 30
576.2997197120512
 41
0.9969965108799083
 10
170.5310643270231
 20
795.7012301697424
 30
576.2997197120512
 41
0.9944206388810783
  0
SPLINE
  5
2E4
330
1F
100
AcDbEntity
  8
Default
100
AcDbSpline
210
0.0
220
0.0
230
1.0
 70
    12
 71
     2
 72
     6
 73
     3
 74
     0
 42
0.000000001
 43
0.0000000001
 40
0.0094211670328261
 40
0.0094211670328261
 40
0.0094211670328261
 40
0.1323444327869086
 40
0.1323444327869086
 40
0.1323444327869086
 10
170.5310643270231
 20
795.7012301697424
 30
576.2997197120512
 41
0.9944206388810783
 10
170.4396695320438
 20
797.3005032848273
 30
576.2997197120512
 41
0.9608117879651095
 10
169.5363852587379
 20
798.6234186361554
 30
576.2997197120512
 41
1.0
  0
SPLINE
  5
2E5
330
1F
100
AcDbEntity
  8
Default
100
AcDbSpline
210
0.0
220
0.0
230
1.0
 70
    12
 71
     2
 72
     8
 73
     5
 74
     0
 42
0.000000001
 43
0.0000000001
 40
0.0
 40
0.0
 40
0.0
 40
7.86861959126793
 40
7.86861959126793
 40
15.73723918253356
 40
15.73723918253356
 40
15.73723918253356
 10
169.5363852587379
 20
798.6234186361554
 30
576.2997197120512
 41
1.0
 10
108.7017174781017
 20
888.731605102312
 30
576.2997197120512
 41
0.8830249864055181
 10
-0.0196785837015341
 20
888.7210897536112
 30
576.2997197120512
 41
1.0
 10
-108.7410746454857
 20
888.7105744048984
 30
576.2997197120512
 41
0.8830249864053662
 10
-169.5583110666716
 20
798.590621973234
 30
576.2997197120512
 41
1.0
  0
SPLINE
  5
2E6
330
1F
100
AcDbEntity
  8
Default
100
AcDbSpline
210
0.0
220
0.0
230
1.0
 70
    12
 71
     2
 72
     6
 73
     3
 74
     0
 42
0.000000001
 43
0.0000000001
 40
0.0
 40
0.0
 40
0.0
 40
0.1225327071870427
 40
0.1225327071870427
 40
0.1225327071870427
 10
-169.5583110666716
 20
798.590621973234
 30
576.2997197120512
 41
1.0
 10
-170.4551032162198
 20
797.2703260244988
 30
576.2997197120512
 41
0.9618249334825435
 10
-170.5468356476735
 20
795.6769011869993
 30
576.2997197120512
 41
0.9957312157002915
  0
SPLINE
  5
2E7
330
1F
100
AcDbEntity
  8
Default
100
AcDbSpline
210
0.0
220
0.0
230
1.0
 70
    28
 71
     2
 72
     6
 73
     3
 74
     0
 42
0.000000001
 43
0.0000000001
 40
5.420481043178389
 40
5.420481043178389
 40
5.420481043178389
 40
5.451604536017915
 40
5.451604536017915
 40
5.451604536017915
 10
151.8881745701724
 20
548.3290907777472
 30
576.2997197120512
 41
0.9999999999962922
 10
152.1653261443084
 20
548.0472679954435
 30
576.2997197120512
 41
0.9999999999979721
 10
152.4424780508379
 20
547.7654455400248
 30
576.2997197120512
 41
1.0
  0
SPLINE
  5
2E8
330
1F
100
AcDbEntity
  8
Default
100
AcDbSpline
210
0.0
220
0.0
230
1.0
 70
    28
 71
     2
 72
     6
 73
     3
 74
     0
 42
0.000000001
 43
0.0000000001
 40
0.0
 40
0.0
 40
0.0
 40
0.0311237416119354
 40
0.0311237416119354
 40
0.0311237416119354
 10
136.3991413925901
 20
531.7221042360216
 30
576.2997197120512
 41
1.0
 10
136.1172998949282
 20
531.9992412841915
 30
576.2997197120512
 41
0.9999999999976651
 10
135.8354584877656
 20
532.2763784243969
 30
576.2997197120512
 41
0.9999999999953567
  0
SPLINE
  5
2E9
330
1F
100
AcDbEntity
  8
Default
100
AcDbSpline
210
0.0
220
0.0
230
1.0
 70
    28
 71
     2
 72
     6
 73
     3
 74
     0
 42
0.000000001
 43
0.0000000001
 40
0.0
 40
0.0
 40
0.0
 40
0.0311243604747063
 40
0.0311243604747063
 40
0.0311243604747063
 10
152.4424918268119
 20
820.5635989445765
 30
576.2997197120512
 41
1.0
 10
152.1653453436015
 20
820.2817557017327
 30
576.2997197120512
 41
0.999999999999898
 10
151.8881988398798
 20
819.9999124790583
 30
576.2997197120512
 41
0.9999999999997973
  0
SPLINE
  5
2EA
330
1F
100
AcDbEntity
  8
Default
100
AcDbSpline
210
0.0
220
0.0
230
1.0
 70
    28
 71
     2
 72
     6
 73
     3
 74
     0
 42
0.000000001
 43
0.0000000001
 40
0.0
 40
0.0
 40
0.0
 40
0.0311243086895068
 40
0.0311243086895068
 40
0.0311243086895068
 10
136.3991517415425
 20
836.6069361900654
 30
576.2997197120512
 41
1.0
 10
136.1173051201754
 20
836.3297940807637
 30
576.2997197120512
 41
0.9999999999976726
 10
135.8354585891661
 20
836.0526518795692
 30
576.2997197120512
 41
0.9999999999953718
  0
CIRCLE
  5
47A
330
1F
100
AcDbEntity
  8
Default
100
AcDbCircle
 10
0.0
 20
0.0
 30
0.0
 40
381.0
  0
SPLINE
  5
47B
330
1F
100
AcDbEntity
  8
Default
100
AcDbSpline
210
0.0
220
0.0
230
1.0
 70
    28
 71
     2
 72
     6
 73
     3
 74
     0
 42
0.000000001
 43
0.0000000001
 40
0.0
 40
0.0
 40
0.0
 40
0.0311225103432869
 40
0.0311225103432869
 40
0.0311225103432869
 10
-152.4423196806679
 20
-547.7654654546064
 30
576.2997197120512
 41
1.0
 10
-152.1651935961731
 20
-548.047295802509
 30
576.2997197120512
 41
0.9999999999976651
 10
-151.8880674196498
 20
-548.3291260599186
 30
576.2997197120512
 41
0.9999999999953569
  0
SPLINE
  5
47C
330
1F
100
AcDbEntity
  8
Default
100
AcDbSpline
210
0.0
220
0.0
230
1.0
 70
     8
 71
     3
 72
     9
 73
     5
 74
     0
 42
0.000000001
 43
0.0000000001
 40
-2.0
 40
-2.0
 40
-2.0
 40
-2.0
 40
-1.0
 40
0.0
 40
0.0
 40
0.0
 40
0.0
 10
-163.5952324354407
 20
-831.9041169020657
 30
576.2997197120512
 10
-177.5501127429857
 20
-846.0921254911532
 30
576.2997197120512
 10
-205.4597255181404
 20
-874.4682947113959
 30
576.2997197120512
 10
-233.3716775229009
 20
-902.842157299931
 30
576.2997197120512
 10
-247.3255946561405
 20
-917.0311137388452
 30
576.2997197120512
  0
SPLINE
  5
47D
330
1F
100
AcDbEntity
  8
Default
100
AcDbSpline
210
0.0
220
0.0
230
1.0
 70
     8
 71
     3
 72
    20
 73
    16
 74
     0
 42
0.000000001
 43
0.0000000001
 40
-13.0
 40
-13.0
 40
-13.0
 40
-13.0
 40
-12.0
 40
-11.0
 40
-10.0
 40
-9.0
 40
-8.0
 40
-7.0
 40
-6.0
 40
-5.0
 40
-4.0
 40
-3.0
 40
-2.0
 40
-1.0
 40
0.0
 40
0.0
 40
0.0
 40
0.0
 10
-247.3255946561405
 20
-917.0311137388452
 30
576.2997197120512
 10
-248.5679612935192
 20
-918.2944067576153
 30
576.2997197120512
 10
-252.3380154281554
 20
-922.0940830214019
 30
576.2997197120512
 10
-256.1308037257465
 20
-925.8159998732727
 30
576.2997197120512
 10
-259.8647878565985
 20
-929.6098791808903
 30
576.2997197120512
 10
-262.800038763168
 20
-934.0888836518585
 30
576.2997197120512
 10
-264.7555959205324
 20
-939.0333444142951
 30
576.2997197120512
 10
-265.0382770443973
 20
-944.5914001554273
 30
576.2997197120512
 10
-261.2906255556004
 20
-948.9726072156949
 30
576.2997197120512
 10
-255.6523061564387
 20
-949.1015648503992
 30
576.2997197120512
 10
-250.637247194526
 20
-947.3431133225796
 30
576.2997197120512
 10
-246.0736358380327
 20
-944.5326269488518
 30
576.2997197120512
 10
-242.2018631572028
 20
-940.8792843876009
 30
576.2997197120512
 10
-238.4989973694175
 20
-937.0666721110252
 30
576.2997197120512
 10
-234.129840586209
 20
-932.7325638274134
 30
576.2997197120512
 10
-232.8665291895911
 20
-931.4901792053827
 30
576.2997197120512
  0
SPLINE
  5
47E
330
1F
100
AcDbEntity
  8
Default
100
AcDbSpline
210
0.0
220
0.0
230
1.0
 70
     8
 71
     3
 72
     9
 73
     5
 74
     0
 42
0.000000001
 43
0.0000000001
 40
0.0
 40
0.0
 40
0.0
 40
0.0
 40
1.0
 40
2.0
 40
2.0
 40
2.0
 40
2.0
 10
-232.8665291895911
 20
-931.4901792053827
 30
576.2997197120512
 10
-218.6775721125828
 20
-917.5362624416122
 30
576.2997197120512
 10
-190.3037107099737
 20
-889.624310217624
 30
576.2997197120512
 10
-161.9275408827698
 20
-861.7146971945912
 30
576.2997197120512
 10
-147.7395323317132
 20
-847.7598170018197
 30
576.2997197120512
  0
SPLINE
  5
47F
330
1F
100
AcDbEntity
  8
Default
100
AcDbSpline
210
0.0
220
0.0
230
1.0
 70
     8
 71
     3
 72
     9
 73
     5
 74
     0
 42
0.000000001
 43
0.0000000001
 40
-2.0
 40
-2.0
 40
-2.0
 40
-2.0
 40
-1.0
 40
0.0
 40
0.0
 40
0.0
 40
0.0
 10
163.5953711392408
 20
-831.9041169020657
 30
576.2997197120512
 10
177.5502514467857
 20
-846.0921254911532
 30
576.2997197120512
 10
205.4598642219403
 20
-874.4682947113959
 30
576.2997197120512
 10
233.371816226701
 20
-902.842157299931
 30
576.2997197120512
 10
247.3257333599404
 20
-917.0311137388452
 30
576.2997197120512
  0
SPLINE
  5
480
330
1F
100
AcDbEntity
  8
Default
100
AcDbSpline
210
0.0
220
0.0
230
1.0
 70
     8
 71
     3
 72
    20
 73
    16
 74
     0
 42
0.000000001
 43
0.0000000001
 40
-13.0
 40
-13.0
 40
-13.0
 40
-13.0
 40
-12.0
 40
-11.0
 40
-10.0
 40
-9.0
 40
-8.0
 40
-7.0
 40
-6.0
 40
-5.0
 40
-4.0
 40
-3.0
 40
-2.0
 40
-1.0
 40
0.0
 40
0.0
 40
0.0
 40
0.0
 10
247.3257333599404
 20
-917.0311137388452
 30
576.2997197120512
 10
248.5680999973192
 20
-918.2944067576153
 30
576.2997197120512
 10
252.3381541319555
 20
-922.0940830214019
 30
576.2997197120512
 10
256.1309424295469
 20
-925.8159998732727
 30
576.2997197120512
 10
259.8649265603985
 20
-929.6098791808903
 30
576.2997197120512
 10
262.8001774669683
 20
-934.0888836518585
 30
576.2997197120512
 10
264.7557346243325
 20
-939.0333444142951
 30
576.2997197120512
 10
265.0384157481972
 20
-944.5914001554273
 30
576.2997197120512
 10
261.2907642594005
 20
-948.9726072156949
 30
576.2997197120512
 10
255.652444860239
 20
-949.1015648503992
 30
576.2997197120512
 10
250.6373858983261
 20
-947.3431133225796
 30
576.2997197120512
 10
246.0737745418328
 20
-944.5326269488518
 30
576.2997197120512
 10
242.2020018610028
 20
-940.8792843876009
 30
576.2997197120512
 10
238.4991360732174
 20
-937.0666721110252
 30
576.2997197120512
 10
234.129979290009
 20
-932.7325638274134
 30
576.2997197120512
 10
232.8666678933914
 20
-931.4901792053827
 30
576.2997197120512
  0
SPLINE
  5
481
330
1F
100
AcDbEntity
  8
Default
100
AcDbSpline
210
0.0
220
0.0
230
1.0
 70
     8
 71
     3
 72
     9
 73
     5
 74
     0
 42
0.000000001
 43
0.0000000001
 40
0.0
 40
0.0
 40
0.0
 40
0.0
 40
1.0
 40
2.0
 40
2.0
 40
2.0
 40
2.0
 10
232.8666678933914
 20
-931.4901792053827
 30
576.2997197120512
 10
218.6777108163828
 20
-917.5362624416122
 30
576.2997197120512
 10
190.3038494137736
 20
-889.624310217624
 30
576.2997197120512
 10
161.9276795865698
 20
-861.7146971945912
 30
576.2997197120512
 10
147.7396710355133
 20
-847.7598170018197
 30
576.2997197120512
  0
SPLINE
  5
482
330
1F
100
AcDbEntity
  8
Default
100
AcDbSpline
210
0.0
220
0.0
230
1.0
 70
     8
 71
     3
 72
     9
 73
     5
 74
     0
 42
0.000000001
 43
0.0000000001
 40
-2.0
 40
-2.0
 40
-2.0
 40
-2.0
 40
-1.0
 40
0.0
 40
0.0
 40
0.0
 40
0.0
 10
163.5953711392408
 20
-536.4249134925838
 30
576.2997197120512
 10
177.5502514467857
 20
-522.2369049034965
 30
576.2997197120512
 10
205.4598642219403
 20
-493.8607356832541
 30
576.2997197120512
 10
233.371816226701
 20
-465.4868730947186
 30
576.2997197120512
 10
247.3257333599404
 20
-451.297916655805
 30
576.2997197120512
  0
SPLINE
  5
483
330
1F
100
AcDbEntity
  8
Default
100
AcDbSpline
210
0.0
220
0.0
230
1.0
 70
     8
 71
     3
 72
    20
 73
    16
 74
     0
 42
0.000000001
 43
0.0000000001
 40
-13.0
 40
-13.0
 40
-13.0
 40
-13.0
 40
-12.0
 40
-11.0
 40
-10.0
 40
-9.0
 40
-8.0
 40
-7.0
 40
-6.0
 40
-5.0
 40
-4.0
 40
-3.0
 40
-2.0
 40
-1.0
 40
0.0
 40
0.0
 40
0.0
 40
0.0
 10
247.3257333599404
 20
-451.297916655805
 30
576.2997197120512
 10
248.5680999973192
 20
-450.0346236370344
 30
576.2997197120512
 10
252.3381541319555
 20
-446.234947373248
 30
576.2997197120512
 10
256.1309424295469
 20
-442.513030521377
 30
576.2997197120512
 10
259.8649265603985
 20
-438.7191512137596
 30
576.2997197120512
 10
262.8001774669683
 20
-434.2401467427913
 30
576.2997197120512
 10
264.7557346243325
 20
-429.2956859803545
 30
576.2997197120512
 10
265.0384157481972
 20
-423.7376302392226
 30
576.2997197120512
 10
261.2907642594005
 20
-419.3564231789548
 30
576.2997197120512
 10
255.652444860239
 20
-419.2274655442505
 30
576.2997197120512
 10
250.6373858983261
 20
-420.9859170720704
 30
576.2997197120512
 10
246.0737745418328
 20
-423.7964034457978
 30
576.2997197120512
 10
242.2020018610028
 20
-427.449746007049
 30
576.2997197120512
 10
238.4991360732174
 20
-431.2623582836249
 30
576.2997197120512
 10
234.129979290009
 20
-435.5964665672364
 30
576.2997197120512
 10
232.8666678933914
 20
-436.838851189267
 30
576.2997197120512
  0
SPLINE
  5
484
330
1F
100
AcDbEntity
  8
Default
100
AcDbSpline
210
0.0
220
0.0
230
1.0
 70
     8
 71
     3
 72
     9
 73
     5
 74
     0
 42
0.000000001
 43
0.0000000001
 40
0.0
 40
0.0
 40
0.0
 40
0.0
 40
1.0
 40
2.0
 40
2.0
 40
2.0
 40
2.0
 10
232.8666678933914
 20
-436.838851189267
 30
576.2997197120512
 10
218.6777108163828
 20
-450.7927679530378
 30
576.2997197120512
 10
190.3038494137736
 20
-478.7047201770255
 30
576.2997197120512
 10
161.9276795865698
 20
-506.6143332000587
 30
576.2997197120512
 10
147.7396710355133
 20
-520.5692133928303
 30
576.2997197120512
  0
SPLINE
  5
485
330
1F
100
AcDbEntity
  8
Default
100
AcDbSpline
210
0.0
220
0.0
230
1.0
 70
     8
 71
     3
 72
     9
 73
     5
 74
     0
 42
0.000000001
 43
0.0000000001
 40
-2.0
 40
-2.0
 40
-2.0
 40
-2.0
 40
-1.0
 40
0.0
 40
0.0
 40
0.0
 40
0.0
 10
-163.5952324354407
 20
-536.4249134925838
 30
576.2997197120512
 10
-177.5501127429857
 20
-522.2369049034965
 30
576.2997197120512
 10
-205.4597255181404
 20
-493.8607356832541
 30
576.2997197120512
 10
-233.3716775229009
 20
-465.4868730947186
 30
576.2997197120512
 10
-247.3255946561405
 20
-451.297916655805
 30
576.2997197120512
  0
SPLINE
  5
486
330
1F
100
AcDbEntity
  8
Default
100
AcDbSpline
210
0.0
220
0.0
230
1.0
 70
     8
 71
     3
 72
    20
 73
    16
 74
     0
 42
0.000000001
 43
0.0000000001
 40
-13.0
 40
-13.0
 40
-13.0
 40
-13.0
 40
-12.0
 40
-11.0
 40
-10.0
 40
-9.0
 40
-8.0
 40
-7.0
 40
-6.0
 40
-5.0
 40
-4.0
 40
-3.0
 40
-2.0
 40
-1.0
 40
0.0
 40
0.0
 40
0.0
 40
0.0
 10
-247.3255946561405
 20
-451.297916655805
 30
576.2997197120512
 10
-248.5679612935192
 20
-450.0346236370344
 30
576.2997197120512
 10
-252.3380154281554
 20
-446.234947373248
 30
576.2997197120512
 10
-256.1308037257465
 20
-442.513030521377
 30
576.2997197120512
 10
-259.8647878565985
 20
-438.7191512137596
 30
576.2997197120512
 10
-262.800038763168
 20
-434.2401467427913
 30
576.2997197120512
 10
-264.7555959205324
 20
-429.2956859803545
 30
576.2997197120512
 10
-265.0382770443973
 20
-423.7376302392226
 30
576.2997197120512
 10
-261.2906255556004
 20
-419.3564231789548
 30
576.2997197120512
 10
-255.6523061564387
 20
-419.2274655442505
 30
576.2997197120512
 10
-250.637247194526
 20
-420.9859170720704
 30
576.2997197120512
 10
-246.0736358380327
 20
-423.7964034457978
 30
576.2997197120512
 10
-242.2018631572028
 20
-427.449746007049
 30
576.2997197120512
 10
-238.4989973694175
 20
-431.2623582836249
 30
576.2997197120512
 10
-234.129840586209
 20
-435.5964665672364
 30
576.2997197120512
 10
-232.8665291895911
 20
-436.838851189267
 30
576.2997197120512
  0
SPLINE
  5
487
330
1F
100
AcDbEntity
  8
Default
100
AcDbSpline
210
0.0
220
0.0
230
1.0
 70
     8
 71
     3
 72
     9
 73
     5
 74
     0
 42
0.000000001
 43
0.0000000001
 40
0.0
 40
0.0
 40
0.0
 40
0.0
 40
1.0
 40
2.0
 40
2.0
 40
2.0
 40
2.0
 10
-232.8665291895911
 20
-436.838851189267
 30
576.2997197120512
 10
-218.6775721125828
 20
-450.7927679530378
 30
576.2997197120512
 10
-190.3037107099737
 20
-478.7047201770255
 30
576.2997197120512
 10
-161.9275408827698
 20
-506.6143332000587
 30
576.2997197120512
 10
-147.7395323317132
 20
-520.5692133928303
 30
576.2997197120512
  0
SPLINE
  5
488
330
1F
100
AcDbEntity
  8
Default
100
AcDbSpline
210
0.0
220
0.0
230
1.0
 70
    28
 71
     2
 72
     6
 73
     3
 74
     0
 42
0.000000001
 43
0.0000000001
 40
4.761170663444152
 40
4.761170663444152
 40
4.761170663444152
 40
4.792292789997686
 40
4.792292789997686
 40
4.792292789997686
 10
-151.8880358663636
 20
-819.999939616912
 30
576.2997197120512
 41
0.9999999999962923
 10
-152.165175273858
 20
-820.2817500275186
 30
576.2997197120512
 41
0.9999999999979724
 10
-152.4423150137154
 20
-820.56356011127
 30
576.2997197120512
 41
1.0
  0
SPLINE
  5
489
330
1F
100
AcDbEntity
  8
Default
100
AcDbSpline
210
0.0
220
0.0
230
1.0
 70
    28
 71
     2
 72
     6
 73
     3
 74
     0
 42
0.000000001
 43
0.0000000001
 40
0.0
 40
0.0
 40
0.0
 40
0.0311222733603082
 40
0.0311222733603082
 40
0.0311222733603082
 10
-136.3989782254998
 20
-836.6069021462475
 30
576.2997197120512
 41
1.0
 10
-136.1171666930431
 20
-836.3297612204808
 30
576.2997197120512
 41
0.9999999999961511
 10
-135.8353548521745
 20
-836.0526206083239
 30
576.2997197120512
 41
0.9999999999926119
  0
SPLINE
  5
48A
330
1F
100
AcDbEntity
  8
Default
100
AcDbSpline
210
0.0
220
0.0
230
1.0
 70
    28
 71
     2
 72
     6
 73
     3
 74
     0
 42
0.000000001
 43
0.0000000001
 40
0.0
 40
0.0
 40
0.0
 40
0.0311223369417638
 40
0.0311223369417638
 40
0.0311223369417638
 10
-136.3989773296366
 20
-531.7221293209303
 30
576.2997197120512
 41
1.0
 10
-136.1171485634418
 20
-531.9992538730613
 30
576.2997197120512
 41
0.9999999999976727
 10
-135.8353198875938
 20
-532.2763785170733
 30
576.2997197120512
 41
0.999999999995372
  0
SPLINE
  5
48B
330
1F
100
AcDbEntity
  8
Default
100
AcDbSpline
210
0.0
220
0.0
230
1.0
 70
    12
 71
     2
 72
     8
 73
     5
 74
     0
 42
0.000000001
 43
0.0000000001
 40
0.0
 40
0.0
 40
0.0
 40
13.63205890972085
 40
13.63205890972085
 40
27.26411781944171
 40
27.26411781944171
 40
27.26411781944171
 10
0.0000693519532433
 20
-463.732183901123
 30
576.2997197120512
 41
1.0
 10
220.4324006481552
 20
-463.7321839011757
 30
576.2997197120512
 41
0.7071067811865471
 10
220.432400648102
 20
-684.1645151973779
 30
576.2997197120512
 41
1.0
 10
220.4324006480493
 20
-904.5968464935794
 30
576.2997197120512
 41
0.7071067811865467
 10
0.0000693518472872
 20
-904.5968464935269
 30
576.2997197120512
 41
1.0
  0
SPLINE
  5
48C
330
1F
100
AcDbEntity
  8
Default
100
AcDbSpline
210
0.0
220
0.0
230
1.0
 70
    12
 71
     2
 72
     8
 73
     5
 74
     0
 42
0.000000001
 43
0.0000000001
 40
0.0
 40
0.0
 40
0.0
 40
13.63205890972085
 40
13.63205890972085
 40
27.2641178194417
 40
27.2641178194417
 40
27.2641178194417
 10
0.0000693518472872
 20
-904.5968464935269
 30
576.2997197120512
 41
1.0
 10
-220.4322619443548
 20
-904.5968464934736
 30
576.2997197120512
 41
0.7071067811865478
 10
-220.4322619443019
 20
-684.1645151972719
 30
576.2997197120512
 41
1.0
 10
-220.4322619442491
 20
-463.7321839010701
 30
576.2997197120512
 41
0.7071067811865478
 10
0.0000693519532433
 20
-463.732183901123
 30
576.2997197120512
 41
1.0
  0
SPLINE
  5
48D
330
1F
100
AcDbEntity
  8
Default
100
AcDbSpline
210
0.0
220
0.0
230
1.0
 70
    15
 71
     2
 72
    12
 73
     9
 74
     0
 42
0.000000001
 43
0.0000000001
 40
0.0
 40
0.0
 40
0.0
 40
12.60147602241891
 40
12.60147602241891
 40
25.20295204483783
 40
25.20295204483783
 40
37.80442806725675
 40
37.80442806725675
 40
50.40590408967564
 40
50.40590408967564
 40
50.40590408967564
 10
-0.0000961430660027
 20
-887.9321746382094
 30
576.2997197120512
 41
1.0
 10
203.7675632978185
 20
-887.9323401331754
 30
576.2997197120512
 41
0.7071067811865476
 10
203.7677287927845
 20
-684.1646806922909
 30
576.2997197120512
 41
1.0
 10
203.7678942877505
 20
-480.3970212514065
 30
576.2997197120512
 41
0.7071067811865476
 10
0.0002348468660784
 20
-480.3968557564407
 30
576.2997197120512
 41
1.0
 10
-203.7674245940184
 20
-480.3966902614743
 30
576.2997197120512
 41
0.7071067811865476
 10
-203.7675900889844
 20
-684.1643497023588
 30
576.2997197120512
 41
1.0
 10
-203.7677555839505
 20
-887.9320091432436
 30
576.2997197120512
 41
0.7071067811865476
 10
-0.0000961430660027
 20
-887.9321746382094
 30
576.2997197120512
 41
1.0
  0
SPLINE
  5
48E
330
1F
100
AcDbEntity
  8
Default
100
AcDbSpline
210
0.0
220
0.0
230
1.0
 70
    15
 71
     2
 72
    12
 73
     9
 74
     0
 42
0.000000001
 43
0.0000000001
 40
0.0
 40
0.0
 40
0.0
 40
11.78097476525765
 40
11.78097476525765
 40
23.56194953051529
 40
23.56194953051529
 40
35.34292429577294
 40
35.34292429577294
 40
47.12389906103058
 40
47.12389906103058
 40
47.12389906103058
 10
-0.0000961432870099
 20
-874.6645532971474
 30
576.2997197120512
 41
1.0
 10
190.499941279123
 20
-874.6647321532261
 30
576.2997197120512
 41
0.7071067811865476
 10
190.5001201352015
 20
-684.1646947308155
 30
576.2997197120512
 41
1.0
 10
190.5002989912805
 20
-493.6646573084057
 30
576.2997197120512
 41
0.7071067811865476
 10
0.0002615688699734
 20
-493.6644784523269
 30
576.2997197120512
 41
1.0
 10
-190.4997758535403
 20
-493.6642995962483
 30
576.2997197120512
 41
0.7071067811865476
 10
-190.4999547096188
 20
-684.1643370186585
 30
576.2997197120512
 41
1.0
 10
-190.5001335656977
 20
-874.6643744410686
 30
576.2997197120512
 41
0.7071067811865476
 10
-0.0000961432870099
 20
-874.6645532971474
 30
576.2997197120512
 41
1.0
  0
SPLINE
  5
48F
330
1F
100
AcDbEntity
  8
Default
100
AcDbSpline
210
0.0
220
0.0
230
1.0
 70
    12
 71
     2
 72
     6
 73
     3
 74
     0
 42
0.000000001
 43
0.0000000001
 40
0.0117686935156192
 40
0.0117686935156192
 40
0.0117686935156192
 40
0.1338965989858833
 40
0.1338965989858833
 40
0.1338965989858833
 10
-181.8280667408394
 20
-776.1416208219389
 30
576.2997197120512
 41
0.9928050207437479
 10
-183.1648858026951
 20
-775.2753556051458
 30
576.2997197120512
 41
0.9590700849288174
 10
-183.8529770340883
 20
-773.8386819862443
 30
576.2997197120512
 41
1.0
  0
SPLINE
  5
490
330
1F
100
AcDbEntity
  8
Default
100
AcDbSpline
210
0.0
220
0.0
230
1.0
 70
    12
 71
     2
 72
     8
 73
     5
 74
     0
 42
0.000000001
 43
0.0000000001
 40
0.0
 40
0.0
 40
0.0
 40
7.870388937238172
 40
7.870388937238172
 40
15.74077787447417
 40
15.74077787447417
 40
15.74077787447417
 10
-183.8529770340883
 20
-773.8386819862443
 30
576.2997197120512
 41
1.0
 10
-231.5272331556255
 20
-676.0952672613403
 30
576.2997197120512
 41
0.8829734150930072
 10
-177.1637368951146
 20
-581.908112653295
 30
576.2997197120512
 41
1.0
 10
-122.8002406346027
 20
-487.7209580452705
 30
576.2997197120512
 41
0.8829734150928628
 10
-14.31670597231368
 20
-480.1096161137528
 30
576.2997197120512
 41
1.0
  0
SPLINE
  5
491
330
1F
100
AcDbEntity
  8
Default
100
AcDbSpline
210
-0.000000000000011
220
0.000000000000134
230
1.0
 70
    12
 71
     2
 72
     6
 73
     3
 74
     0
 42
0.000000001
 43
0.0000000001
 40
0.0
 40
0.0
 40
0.0
 40
0.1222860980901102
 40
0.1222860980901102
 40
0.1222860980901102
 10
-14.31670597231368
 20
-480.1096161137528
 30
576.2997197120512
 41
1.0
 10
-12.72244340272573
 20
-479.9787785600559
 30
576.2997197120512
 41
0.9443660915446896
 10
-11.29994854953793
 20
-480.7104205482595
 30
576.2997197120513
 41
0.9647222903891885
  0
SPLINE
  5
492
330
1F
100
AcDbEntity
  8
Default
100
AcDbSpline
210
0.0
220
0.0
230
1.0
 70
    12
 71
     2
 72
     6
 73
     3
 74
     0
 42
0.000000001
 43
0.0000000001
 40
0.013283267876232
 40
0.013283267876232
 40
0.013283267876232
 40
0.1362421782741509
 40
0.1362421782741509
 40
0.1362421782741509
 10
11.32749774787316
 20
-480.7119448031963
 30
576.2997197120512
 41
0.9919353035868196
 10
12.75753178534614
 20
-479.9854573870469
 30
576.2997197120512
 41
0.9586415098796043
 10
14.3564956288501
 20
-480.1123271680133
 30
576.2997197120512
 41
1.0
  0
SPLINE
  5
493
330
1F
100
AcDbEntity
  8
Default
100
AcDbSpline
210
0.0
220
0.0
230
1.0
 70
    12
 71
     2
 72
     8
 73
     5
 74
     0
 42
0.000000001
 43
0.0000000001
 40
0.0
 40
0.0
 40
0.0
 40
7.868615559496922
 40
7.868615559496922
 40
15.73723111899384
 40
15.73723111899384
 40
15.73723111899384
 10
14.3564956288501
 20
-480.1123271680133
 30
576.2997197120512
 41
1.0
 10
122.8097310933385
 20
-487.7427430244532
 30
576.2997197120512
 41
0.8830251182217258
 10
177.1612152145885
 20
-581.9034763620583
 30
576.2997197120512
 41
1.0
 10
231.5126993358376
 20
-676.0642096996631
 30
576.2997197120512
 41
0.8830251182217264
 10
183.8751568400821
 20
-773.7933868875587
 30
576.2997197120512
 41
1.0
  0
SPLINE
  5
494
330
1F
100
AcDbEntity
  8
Default
100
AcDbSpline
210
0.0
220
0.0
230
1.0
 70
    12
 71
     2
 72
     6
 73
     3
 74
     0
 42
0.000000001
 43
0.0000000001
 40
0.0
 40
0.0
 40
0.0
 40
0.1225959064184418
 40
0.1225959064184418
 40
0.1225959064184418
 10
183.8751568400821
 20
-773.7933868875587
 30
576.2997197120512
 41
1.0
 10
183.1836448774756
 20
-775.2337858544584
 30
576.2997197120512
 41
0.9609699793776979
 10
181.8456527344142
 20
-776.1071214161871
 30
576.2997197120512
 41
0.9955579475786183
  0
SPLINE
  5
495
330
1F
100
AcDbEntity
  8
Default
100
AcDbSpline
210
0.0
220
0.0
230
1.0
 70
    12
 71
     2
 72
     6
 73
     3
 74
     0
 42
0.000000001
 43
0.0000000001
 40
0.0
 40
0.0
 40
0.0
 40
0.0094211670328261
 40
0.0094211670328261
 40
0.0094211670328261
 10
170.5397136061883
 20
-795.4648047900565
 30
576.2997197120512
 41
1.0
 10
170.5378148397603
 20
-795.5831062269459
 30
576.2997197120512
 41
0.9969965108799083
 10
170.5310643270231
 20
-795.7012301697424
 30
576.2997197120512
 41
0.9944206388810783
  0
SPLINE
  5
496
330
1F
100
AcDbEntity
  8
Default
100
AcDbSpline
210
0.0
220
0.0
230
1.0
 70
    12
 71
     2
 72
     6
 73
     3
 74
     0
 42
0.000000001
 43
0.0000000001
 40
0.0094211670328261
 40
0.0094211670328261
 40
0.0094211670328261
 40
0.1323444327869086
 40
0.1323444327869086
 40
0.1323444327869086
 10
170.5310643270231
 20
-795.7012301697424
 30
576.2997197120512
 41
0.9944206388810783
 10
170.4396695320438
 20
-797.3005032848273
 30
576.2997197120512
 41
0.9608117879651095
 10
169.5363852587379
 20
-798.6234186361554
 30
576.2997197120512
 41
1.0
  0
SPLINE
  5
497
330
1F
100
AcDbEntity
  8
Default
100
AcDbSpline
210
0.0
220
0.0
230
1.0
 70
    12
 71
     2
 72
     8
 73
     5
 74
     0
 42
0.000000001
 43
0.0000000001
 40
0.0
 40
0.0
 40
0.0
 40
7.86861959126793
 40
7.86861959126793
 40
15.73723918253356
 40
15.73723918253356
 40
15.73723918253356
 10
169.5363852587379
 20
-798.6234186361554
 30
576.2997197120512
 41
1.0
 10
108.7017174781017
 20
-888.731605102312
 30
576.2997197120512
 41
0.8830249864055181
 10
-0.0196785837015341
 20
-888.7210897536112
 30
576.2997197120512
 41
1.0
 10
-108.7410746454857
 20
-888.7105744048984
 30
576.2997197120512
 41
0.8830249864053662
 10
-169.5583110666716
 20
-798.590621973234
 30
576.2997197120512
 41
1.0
  0
SPLINE
  5
498
330
1F
100
AcDbEntity
  8
Default
100
AcDbSpline
210
0.0
220
0.0
230
1.0
 70
    12
 71
     2
 72
     6
 73
     3
 74
     0
 42
0.000000001
 43
0.0000000001
 40
0.0
 40
0.0
 40
0.0
 40
0.1225327071870427
 40
0.1225327071870427
 40
0.1225327071870427
 10
-169.5583110666716
 20
-798.590621973234
 30
576.2997197120512
 41
1.0
 10
-170.4551032162198
 20
-797.2703260244988
 30
576.2997197120512
 41
0.9618249334825435
 10
-170.5468356476735
 20
-795.6769011869993
 30
576.2997197120512
 41
0.9957312157002915
  0
SPLINE
  5
499
330
1F
100
AcDbEntity
  8
Default
100
AcDbSpline
210
0.0
220
0.0
230
1.0
 70
    28
 71
     2
 72
     6
 73
     3
 74
     0
 42
0.000000001
 43
0.0000000001
 40
5.420481043178389
 40
5.420481043178389
 40
5.420481043178389
 40
5.451604536017915
 40
5.451604536017915
 40
5.451604536017915
 10
151.8881745701724
 20
-548.3290907777472
 30
576.2997197120512
 41
0.9999999999962922
 10
152.1653261443084
 20
-548.0472679954435
 30
576.2997197120512
 41
0.9999999999979721
 10
152.4424780508379
 20
-547.7654455400248
 30
576.2997197120512
 41
1.0
  0
SPLINE
  5
49A
330
1F
100
AcDbEntity
  8
Default
100
AcDbSpline
210
0.0
220
0.0
230
1.0
 70
    28
 71
     2
 72
     6
 73
     3
 74
     0
 42
0.000000001
 43
0.0000000001
 40
0.0
 40
0.0
 40
0.0
 40
0.0311237416119354
 40
0.0311237416119354
 40
0.0311237416119354
 10
136.3991413925901
 20
-531.7221042360216
 30
576.2997197120512
 41
1.0
 10
136.1172998949282
 20
-531.9992412841915
 30
576.2997197120512
 41
0.9999999999976651
 10
135.8354584877656
 20
-532.2763784243969
 30
576.2997197120512
 41
0.9999999999953567
  0
SPLINE
  5
49B
330
1F
100
AcDbEntity
  8
Default
100
AcDbSpline
210
0.0
220
0.0
230
1.0
 70
    28
 71
     2
 72
     6
 73
     3
 74
     0
 42
0.000000001
 43
0.0000000001
 40
0.0
 40
0.0
 40
0.0
 40
0.0311243604747063
 40
0.0311243604747063
 40
0.0311243604747063
 10
152.4424918268119
 20
-820.5635989445765
 30
576.2997197120512
 41
1.0
 10
152.1653453436015
 20
-820.2817557017327
 30
576.2997197120512
 41
0.999999999999898
 10
151.8881988398798
 20
-819.9999124790583
 30
576.2997197120512
 41
0.9999999999997973
  0
SPLINE
  5
49C
330
1F
100
AcDbEntity
  8
Default
100
AcDbSpline
210
0.0
220
0.0
230
1.0
 70
    28
 71
     2
 72
     6
 73
     3
 74
     0
 42
0.000000001
 43
0.0000000001
 40
0.0
 40
0.0
 40
0.0
 40
0.0311243086895068
 40
0.0311243086895068
 40
0.0311243086895068
 10
136.3991517415425
 20
-836.6069361900654
 30
576.2997197120512
 41
1.0
 10
136.1173051201754
 20
-836.3297940807637
 30
576.2997197120512
 41
0.9999999999976726
 10
135.8354585891661
 20
-836.0526518795692
 30
576.2997197120512
 41
0.9999999999953718
  0
SPLINE
  5
49D
330
1F
100
AcDbEntity
  8
Default
100
AcDbSpline
210
0.0
220
0.0
230
1.0
 70
    28
 71
     2
 72
     6
 73
     3
 74
     0
 42
0.000000001
 43
0.0000000001
 40
0.0
 40
0.0
 40
0.0
 40
0.0311225103432869
 40
0.0311225103432869
 40
0.0311225103432869
 10
547.7654654546064
 20
-152.442319680668
 30
576.2997197120512
 41
1.0
 10
548.047295802509
 20
-152.1651935961732
 30
576.2997197120512
 41
0.9999999999976651
 10
548.3291260599186
 20
-151.8880674196499
 30
576.2997197120512
 41
0.9999999999953569
  0
SPLINE
  5
49E
330
1F
100
AcDbEntity
  8
Default
100
AcDbSpline
210
0.0
220
0.0
230
1.0
 70
     8
 71
     3
 72
     9
 73
     5
 74
     0
 42
0.000000001
 43
0.0000000001
 40
-2.0
 40
-2.0
 40
-2.0
 40
-2.0
 40
-1.0
 40
0.0
 40
0.0
 40
0.0
 40
0.0
 10
831.9041169020657
 20
-163.5952324354409
 30
576.2997197120512
 10
846.0921254911532
 20
-177.5501127429859
 30
576.2997197120512
 10
874.4682947113959
 20
-205.4597255181406
 30
576.2997197120512
 10
902.842157299931
 20
-233.3716775229011
 30
576.2997197120512
 10
917.0311137388452
 20
-247.3255946561407
 30
576.2997197120512
  0
SPLINE
  5
49F
330
1F
100
AcDbEntity
  8
Default
100
AcDbSpline
210
0.0
220
0.0
230
1.0
 70
     8
 71
     3
 72
    20
 73
    16
 74
     0
 42
0.000000001
 43
0.0000000001
 40
-13.0
 40
-13.0
 40
-13.0
 40
-13.0
 40
-12.0
 40
-11.0
 40
-10.0
 40
-9.0
 40
-8.0
 40
-7.0
 40
-6.0
 40
-5.0
 40
-4.0
 40
-3.0
 40
-2.0
 40
-1.0
 40
0.0
 40
0.0
 40
0.0
 40
0.0
 10
917.0311137388452
 20
-247.3255946561407
 30
576.2997197120512
 10
918.2944067576153
 20
-248.5679612935193
 30
576.2997197120512
 10
922.0940830214019
 20
-252.3380154281555
 30
576.2997197120512
 10
925.8159998732725
 20
-256.1308037257468
 30
576.2997197120512
 10
929.6098791808901
 20
-259.8647878565987
 30
576.2997197120512
 10
934.0888836518583
 20
-262.8000387631682
 30
576.2997197120512
 10
939.033344414295
 20
-264.7555959205326
 30
576.2997197120512
 10
944.5914001554271
 20
-265.0382770443975
 30
576.2997197120512
 10
948.9726072156948
 20
-261.2906255556006
 30
576.2997197120512
 10
949.1015648503992
 20
-255.6523061564389
 30
576.2997197120512
 10
947.3431133225796
 20
-250.6372471945262
 30
576.2997197120512
 10
944.5326269488518
 20
-246.0736358380329
 30
576.2997197120512
 10
940.8792843876009
 20
-242.2018631572029
 30
576.2997197120512
 10
937.0666721110252
 20
-238.4989973694178
 30
576.2997197120512
 10
932.7325638274134
 20
-234.1298405862092
 30
576.2997197120512
 10
931.4901792053827
 20
-232.8665291895913
 30
576.2997197120512
  0
SPLINE
  5
4A0
330
1F
100
AcDbEntity
  8
Default
100
AcDbSpline
210
0.0
220
0.0
230
1.0
 70
     8
 71
     3
 72
     9
 73
     5
 74
     0
 42
0.000000001
 43
0.0000000001
 40
0.0
 40
0.0
 40
0.0
 40
0.0
 40
1.0
 40
2.0
 40
2.0
 40
2.0
 40
2.0
 10
931.4901792053827
 20
-232.8665291895913
 30
576.2997197120512
 10
917.5362624416122
 20
-218.677572112583
 30
576.2997197120512
 10
889.624310217624
 20
-190.3037107099739
 30
576.2997197120512
 10
861.7146971945912
 20
-161.92754088277
 30
576.2997197120512
 10
847.7598170018197
 20
-147.7395323317134
 30
576.2997197120512
  0
SPLINE
  5
4A1
330
1F
100
AcDbEntity
  8
Default
100
AcDbSpline
210
0.0
220
0.0
230
1.0
 70
     8
 71
     3
 72
     9
 73
     5
 74
     0
 42
0.000000001
 43
0.0000000001
 40
-2.0
 40
-2.0
 40
-2.0
 40
-2.0
 40
-1.0
 40
0.0
 40
0.0
 40
0.0
 40
0.0
 10
831.9041169020657
 20
163.5953711392406
 30
576.2997197120512
 10
846.0921254911532
 20
177.5502514467855
 30
576.2997197120512
 10
874.4682947113959
 20
205.4598642219401
 30
576.2997197120512
 10
902.842157299931
 20
233.3718162267008
 30
576.2997197120512
 10
917.0311137388452
 20
247.3257333599402
 30
576.2997197120512
  0
SPLINE
  5
4A2
330
1F
100
AcDbEntity
  8
Default
100
AcDbSpline
210
0.0
220
0.0
230
1.0
 70
     8
 71
     3
 72
    20
 73
    16
 74
     0
 42
0.000000001
 43
0.0000000001
 40
-13.0
 40
-13.0
 40
-13.0
 40
-13.0
 40
-12.0
 40
-11.0
 40
-10.0
 40
-9.0
 40
-8.0
 40
-7.0
 40
-6.0
 40
-5.0
 40
-4.0
 40
-3.0
 40
-2.0
 40
-1.0
 40
0.0
 40
0.0
 40
0.0
 40
0.0
 10
917.0311137388452
 20
247.3257333599402
 30
576.2997197120512
 10
918.2944067576153
 20
248.568099997319
 30
576.2997197120512
 10
922.0940830214019
 20
252.3381541319552
 30
576.2997197120512
 10
925.8159998732729
 20
256.1309424295466
 30
576.2997197120512
 10
929.6098791808903
 20
259.8649265603983
 30
576.2997197120512
 10
934.0888836518585
 20
262.8001774669681
 30
576.2997197120512
 10
939.0333444142951
 20
264.7557346243323
 30
576.2997197120512
 10
944.5914001554275
 20
265.0384157481969
 30
576.2997197120512
 10
948.9726072156949
 20
261.2907642594002
 30
576.2997197120512
 10
949.1015648503992
 20
255.6524448602388
 30
576.2997197120512
 10
947.3431133225796
 20
250.6373858983259
 30
576.2997197120512
 10
944.5326269488518
 20
246.0737745418326
 30
576.2997197120512
 10
940.8792843876009
 20
242.2020018610026
 30
576.2997197120512
 10
937.0666721110252
 20
238.4991360732172
 30
576.2997197120512
 10
932.7325638274134
 20
234.1299792900088
 30
576.2997197120512
 10
931.4901792053827
 20
232.8666678933912
 30
576.2997197120512
  0
SPLINE
  5
4A3
330
1F
100
AcDbEntity
  8
Default
100
AcDbSpline
210
0.0
220
0.0
230
1.0
 70
     8
 71
     3
 72
     9
 73
     5
 74
     0
 42
0.000000001
 43
0.0000000001
 40
0.0
 40
0.0
 40
0.0
 40
0.0
 40
1.0
 40
2.0
 40
2.0
 40
2.0
 40
2.0
 10
931.4901792053827
 20
232.8666678933912
 30
576.2997197120512
 10
917.5362624416122
 20
218.6777108163826
 30
576.2997197120512
 10
889.624310217624
 20
190.3038494137734
 30
576.2997197120512
 10
861.7146971945912
 20
161.9276795865696
 30
576.2997197120512
 10
847.7598170018197
 20
147.7396710355131
 30
576.2997197120512
  0
SPLINE
  5
4A4
330
1F
100
AcDbEntity
  8
Default
100
AcDbSpline
210
0.0
220
0.0
230
1.0
 70
     8
 71
     3
 72
     9
 73
     5
 74
     0
 42
0.000000001
 43
0.0000000001
 40
-2.0
 40
-2.0
 40
-2.0
 40
-2.0
 40
-1.0
 40
0.0
 40
0.0
 40
0.0
 40
0.0
 10
536.4249134925838
 20
163.5953711392407
 30
576.2997197120512
 10
522.2369049034965
 20
177.5502514467856
 30
576.2997197120512
 10
493.8607356832541
 20
205.4598642219402
 30
576.2997197120512
 10
465.4868730947187
 20
233.3718162267008
 30
576.2997197120512
 10
451.297916655805
 20
247.3257333599403
 30
576.2997197120512
  0
SPLINE
  5
4A5
330
1F
100
AcDbEntity
  8
Default
100
AcDbSpline
210
0.0
220
0.0
230
1.0
 70
     8
 71
     3
 72
    20
 73
    16
 74
     0
 42
0.000000001
 43
0.0000000001
 40
-13.0
 40
-13.0
 40
-13.0
 40
-13.0
 40
-12.0
 40
-11.0
 40
-10.0
 40
-9.0
 40
-8.0
 40
-7.0
 40
-6.0
 40
-5.0
 40
-4.0
 40
-3.0
 40
-2.0
 40
-1.0
 40
0.0
 40
0.0
 40
0.0
 40
0.0
 10
451.297916655805
 20
247.3257333599403
 30
576.2997197120512
 10
450.0346236370345
 20
248.5680999973191
 30
576.2997197120512
 10
446.234947373248
 20
252.3381541319554
 30
576.2997197120512
 10
442.5130305213771
 20
256.1309424295467
 30
576.2997197120512
 10
438.7191512137597
 20
259.8649265603985
 30
576.2997197120512
 10
434.2401467427913
 20
262.8001774669682
 30
576.2997197120512
 10
429.2956859803546
 20
264.7557346243324
 30
576.2997197120512
 10
423.7376302392227
 20
265.038415748197
 30
576.2997197120512
 10
419.3564231789549
 20
261.2907642594004
 30
576.2997197120512
 10
419.2274655442505
 20
255.6524448602389
 30
576.2997197120512
 10
420.9859170720705
 20
250.637385898326
 30
576.2997197120512
 10
423.7964034457979
 20
246.0737745418327
 30
576.2997197120512
 10
427.4497460070491
 20
242.2020018610028
 30
576.2997197120512
 10
431.262358283625
 20
238.4991360732173
 30
576.2997197120512
 10
435.5964665672365
 20
234.1299792900089
 30
576.2997197120512
 10
436.8388511892671
 20
232.8666678933913
 30
576.2997197120512
  0
SPLINE
  5
4A6
330
1F
100
AcDbEntity
  8
Default
100
AcDbSpline
210
0.0
220
0.0
230
1.0
 70
     8
 71
     3
 72
     9
 73
     5
 74
     0
 42
0.000000001
 43
0.0000000001
 40
0.0
 40
0.0
 40
0.0
 40
0.0
 40
1.0
 40
2.0
 40
2.0
 40
2.0
 40
2.0
 10
436.8388511892671
 20
232.8666678933913
 30
576.2997197120512
 10
450.7927679530379
 20
218.6777108163827
 30
576.2997197120512
 10
478.7047201770255
 20
190.3038494137735
 30
576.2997197120512
 10
506.6143332000587
 20
161.9276795865697
 30
576.2997197120512
 10
520.5692133928303
 20
147.7396710355132
 30
576.2997197120512
  0
SPLINE
  5
4A7
330
1F
100
AcDbEntity
  8
Default
100
AcDbSpline
210
0.0
220
0.0
230
1.0
 70
     8
 71
     3
 72
     9
 73
     5
 74
     0
 42
0.000000001
 43
0.0000000001
 40
-2.0
 40
-2.0
 40
-2.0
 40
-2.0
 40
-1.0
 40
0.0
 40
0.0
 40
0.0
 40
0.0
 10
536.4249134925838
 20
-163.5952324354408
 30
576.2997197120512
 10
522.2369049034965
 20
-177.5501127429858
 30
576.2997197120512
 10
493.860735683254
 20
-205.4597255181406
 30
576.2997197120512
 10
465.4868730947186
 20
-233.371677522901
 30
576.2997197120512
 10
451.2979166558049
 20
-247.3255946561407
 30
576.2997197120512
  0
SPLINE
  5
4A8
330
1F
100
AcDbEntity
  8
Default
100
AcDbSpline
210
0.0
220
0.0
230
1.0
 70
     8
 71
     3
 72
    20
 73
    16
 74
     0
 42
0.000000001
 43
0.0000000001
 40
-13.0
 40
-13.0
 40
-13.0
 40
-13.0
 40
-12.0
 40
-11.0
 40
-10.0
 40
-9.0
 40
-8.0
 40
-7.0
 40
-6.0
 40
-5.0
 40
-4.0
 40
-3.0
 40
-2.0
 40
-1.0
 40
0.0
 40
0.0
 40
0.0
 40
0.0
 10
451.2979166558049
 20
-247.3255946561407
 30
576.2997197120512
 10
450.0346236370344
 20
-248.5679612935193
 30
576.2997197120512
 10
446.2349473732479
 20
-252.3380154281555
 30
576.2997197120512
 10
442.513030521377
 20
-256.1308037257467
 30
576.2997197120512
 10
438.7191512137596
 20
-259.8647878565986
 30
576.2997197120512
 10
434.2401467427912
 20
-262.8000387631681
 30
576.2997197120512
 10
429.2956859803545
 20
-264.7555959205325
 30
576.2997197120512
 10
423.7376302392226
 20
-265.0382770443974
 30
576.2997197120512
 10
419.3564231789547
 20
-261.2906255556005
 30
576.2997197120512
 10
419.2274655442504
 20
-255.6523061564388
 30
576.2997197120512
 10
420.9859170720704
 20
-250.6372471945261
 30
576.2997197120512
 10
423.7964034457978
 20
-246.0736358380328
 30
576.2997197120512
 10
427.449746007049
 20
-242.2018631572028
 30
576.2997197120512
 10
431.2623582836248
 20
-238.4989973694176
 30
576.2997197120512
 10
435.5964665672364
 20
-234.129840586209
 30
576.2997197120512
 10
436.8388511892669
 20
-232.8665291895912
 30
576.2997197120512
  0
SPLINE
  5
4A9
330
1F
100
AcDbEntity
  8
Default
100
AcDbSpline
210
0.0
220
0.0
230
1.0
 70
     8
 71
     3
 72
     9
 73
     5
 74
     0
 42
0.000000001
 43
0.0000000001
 40
0.0
 40
0.0
 40
0.0
 40
0.0
 40
1.0
 40
2.0
 40
2.0
 40
2.0
 40
2.0
 10
436.8388511892669
 20
-232.8665291895912
 30
576.2997197120512
 10
450.7927679530377
 20
-218.6775721125829
 30
576.2997197120512
 10
478.7047201770254
 20
-190.3037107099738
 30
576.2997197120512
 10
506.6143332000586
 20
-161.9275408827699
 30
576.2997197120512
 10
520.5692133928303
 20
-147.7395323317133
 30
576.2997197120512
  0
SPLINE
  5
4AA
330
1F
100
AcDbEntity
  8
Default
100
AcDbSpline
210
0.0
220
0.0
230
1.0
 70
    28
 71
     2
 72
     6
 73
     3
 74
     0
 42
0.000000001
 43
0.0000000001
 40
4.761170663444152
 40
4.761170663444152
 40
4.761170663444152
 40
4.792292789997686
 40
4.792292789997686
 40
4.792292789997686
 10
819.999939616912
 20
-151.8880358663638
 30
576.2997197120512
 41
0.9999999999962923
 10
820.2817500275186
 20
-152.1651752738582
 30
576.2997197120512
 41
0.9999999999979724
 10
820.56356011127
 20
-152.4423150137156
 30
576.2997197120512
 41
1.0
  0
SPLINE
  5
4AB
330
1F
100
AcDbEntity
  8
Default
100
AcDbSpline
210
0.0
220
0.0
230
1.0
 70
    28
 71
     2
 72
     6
 73
     3
 74
     0
 42
0.000000001
 43
0.0000000001
 40
0.0
 40
0.0
 40
0.0
 40
0.0311222733603082
 40
0.0311222733603082
 40
0.0311222733603082
 10
836.6069021462475
 20
-136.3989782255
 30
576.2997197120512
 41
1.0
 10
836.3297612204808
 20
-136.1171666930433
 30
576.2997197120512
 41
0.9999999999961511
 10
836.0526206083239
 20
-135.8353548521747
 30
576.2997197120512
 41
0.9999999999926119
  0
SPLINE
  5
4AC
330
1F
100
AcDbEntity
  8
Default
100
AcDbSpline
210
0.0
220
0.0
230
1.0
 70
    28
 71
     2
 72
     6
 73
     3
 74
     0
 42
0.000000001
 43
0.0000000001
 40
0.0
 40
0.0
 40
0.0
 40
0.0311223369417638
 40
0.0311223369417638
 40
0.0311223369417638
 10
531.7221293209303
 20
-136.3989773296367
 30
576.2997197120512
 41
1.0
 10
531.9992538730613
 20
-136.1171485634419
 30
576.2997197120512
 41
0.9999999999976727
 10
532.2763785170733
 20
-135.835319887594
 30
576.2997197120512
 41
0.999999999995372
  0
SPLINE
  5
4AD
330
1F
100
AcDbEntity
  8
Default
100
AcDbSpline
210
0.0
220
0.0
230
1.0
 70
    12
 71
     2
 72
     8
 73
     5
 74
     0
 42
0.000000001
 43
0.0000000001
 40
0.0
 40
0.0
 40
0.0
 40
13.63205890972085
 40
13.63205890972085
 40
27.26411781944171
 40
27.26411781944171
 40
27.26411781944171
 10
463.732183901123
 20
0.0000693519531403
 30
576.2997197120512
 41
1.0
 10
463.7321839011758
 20
220.4324006481551
 30
576.2997197120512
 41
0.7071067811865471
 10
684.1645151973779
 20
220.4324006481019
 30
576.2997197120512
 41
1.0
 10
904.5968464935794
 20
220.432400648049
 30
576.2997197120512
 41
0.7071067811865467
 10
904.5968464935269
 20
0.0000693518470863
 30
576.2997197120512
 41
1.0
  0
SPLINE
  5
4AE
330
1F
100
AcDbEntity
  8
Default
100
AcDbSpline
210
0.0
220
0.0
230
1.0
 70
    12
 71
     2
 72
     8
 73
     5
 74
     0
 42
0.000000001
 43
0.0000000001
 40
0.0
 40
0.0
 40
0.0
 40
13.63205890972085
 40
13.63205890972085
 40
27.2641178194417
 40
27.2641178194417
 40
27.2641178194417
 10
904.5968464935269
 20
0.0000693518470863
 30
576.2997197120512
 41
1.0
 10
904.5968464934736
 20
-220.4322619443551
 30
576.2997197120512
 41
0.7071067811865478
 10
684.1645151972719
 20
-220.432261944302
 30
576.2997197120512
 41
1.0
 10
463.7321839010701
 20
-220.4322619442493
 30
576.2997197120512
 41
0.7071067811865478
 10
463.732183901123
 20
0.0000693519531403
 30
576.2997197120512
 41
1.0
  0
SPLINE
  5
4AF
330
1F
100
AcDbEntity
  8
Default
100
AcDbSpline
210
0.0
220
0.0
230
1.0
 70
    15
 71
     2
 72
    12
 73
     9
 74
     0
 42
0.000000001
 43
0.0000000001
 40
0.0
 40
0.0
 40
0.0
 40
12.60147602241891
 40
12.60147602241891
 40
25.20295204483783
 40
25.20295204483783
 40
37.80442806725675
 40
37.80442806725675
 40
50.40590408967564
 40
50.40590408967564
 40
50.40590408967564
 10
887.9321746382094
 20
-0.0000961430661999
 30
576.2997197120512
 41
1.0
 10
887.9323401331754
 20
203.7675632978183
 30
576.2997197120512
 41
0.7071067811865476
 10
684.1646806922909
 20
203.7677287927844
 30
576.2997197120512
 41
1.0
 10
480.3970212514065
 20
203.7678942877505
 30
576.2997197120512
 41
0.7071067811865476
 10
480.3968557564407
 20
0.0002348468659718
 30
576.2997197120512
 41
1.0
 10
480.3966902614742
 20
-203.7674245940185
 30
576.2997197120512
 41
0.7071067811865476
 10
684.1643497023588
 20
-203.7675900889846
 30
576.2997197120512
 41
1.0
 10
887.9320091432436
 20
-203.7677555839507
 30
576.2997197120512
 41
0.7071067811865476
 10
887.9321746382094
 20
-0.0000961430661999
 30
576.2997197120512
 41
1.0
  0
SPLINE
  5
4B0
330
1F
100
AcDbEntity
  8
Default
100
AcDbSpline
210
0.0
220
0.0
230
1.0
 70
    15
 71
     2
 72
    12
 73
     9
 74
     0
 42
0.000000001
 43
0.0000000001
 40
0.0
 40
0.0
 40
0.0
 40
11.78097476525765
 40
11.78097476525765
 40
23.56194953051529
 40
23.56194953051529
 40
35.34292429577294
 40
35.34292429577294
 40
47.12389906103058
 40
47.12389906103058
 40
47.12389906103058
 10
874.6645532971474
 20
-0.0000961432872041
 30
576.2997197120512
 41
1.0
 10
874.6647321532261
 20
190.4999412791228
 30
576.2997197120512
 41
0.7071067811865476
 10
684.1646947308155
 20
190.5001201352014
 30
576.2997197120512
 41
1.0
 10
493.6646573084057
 20
190.5002989912803
 30
576.2997197120512
 41
0.7071067811865476
 10
493.6644784523269
 20
0.0002615688698638
 30
576.2997197120512
 41
1.0
 10
493.6642995962482
 20
-190.4997758535404
 30
576.2997197120512
 41
0.7071067811865476
 10
684.1643370186585
 20
-190.4999547096189
 30
576.2997197120512
 41
1.0
 10
874.6643744410686
 20
-190.5001335656979
 30
576.2997197120512
 41
0.7071067811865476
 10
874.6645532971474
 20
-0.0000961432872041
 30
576.2997197120512
 41
1.0
  0
SPLINE
  5
4B1
330
1F
100
AcDbEntity
  8
Default
100
AcDbSpline
210
0.0
220
0.0
230
1.0
 70
    12
 71
     2
 72
     6
 73
     3
 74
     0
 42
0.000000001
 43
0.0000000001
 40
0.0117686935156192
 40
0.0117686935156192
 40
0.0117686935156192
 40
0.1338965989858833
 40
0.1338965989858833
 40
0.1338965989858833
 10
776.1416208219389
 20
-181.8280667408395
 30
576.2997197120512
 41
0.9928050207437479
 10
775.2753556051458
 20
-183.1648858026953
 30
576.2997197120512
 41
0.9590700849288174
 10
773.8386819862443
 20
-183.8529770340885
 30
576.2997197120512
 41
1.0
  0
SPLINE
  5
4B2
330
1F
100
AcDbEntity
  8
Default
100
AcDbSpline
210
0.0
220
0.0
230
1.0
 70
    12
 71
     2
 72
     8
 73
     5
 74
     0
 42
0.000000001
 43
0.0000000001
 40
0.0
 40
0.0
 40
0.0
 40
7.870388937238172
 40
7.870388937238172
 40
15.74077787447417
 40
15.74077787447417
 40
15.74077787447417
 10
773.8386819862443
 20
-183.8529770340885
 30
576.2997197120512
 41
1.0
 10
676.0952672613403
 20
-231.5272331556256
 30
576.2997197120512
 41
0.8829734150930072
 10
581.908112653295
 20
-177.1637368951148
 30
576.2997197120512
 41
1.0
 10
487.7209580452705
 20
-122.8002406346028
 30
576.2997197120512
 41
0.8829734150928628
 10
480.1096161137528
 20
-14.31670597231379
 30
576.2997197120512
 41
1.0
  0
SPLINE
  5
4B3
330
1F
100
AcDbEntity
  8
Default
100
AcDbSpline
210
-0.000000000000134
220
-0.000000000000011
230
1.0
 70
    12
 71
     2
 72
     6
 73
     3
 74
     0
 42
0.000000001
 43
0.0000000001
 40
0.0
 40
0.0
 40
0.0
 40
0.1222860980901102
 40
0.1222860980901102
 40
0.1222860980901102
 10
480.1096161137528
 20
-14.31670597231379
 30
576.2997197120512
 41
1.0
 10
479.9787785600559
 20
-12.72244340272584
 30
576.2997197120512
 41
0.9443660915446896
 10
480.7104205482595
 20
-11.29994854953803
 30
576.2997197120513
 41
0.9647222903891885
  0
SPLINE
  5
4B4
330
1F
100
AcDbEntity
  8
Default
100
AcDbSpline
210
0.0
220
0.0
230
1.0
 70
    12
 71
     2
 72
     6
 73
     3
 74
     0
 42
0.000000001
 43
0.0000000001
 40
0.013283267876232
 40
0.013283267876232
 40
0.013283267876232
 40
0.1362421782741509
 40
0.1362421782741509
 40
0.1362421782741509
 10
480.7119448031963
 20
11.32749774787306
 30
576.2997197120512
 41
0.9919353035868196
 10
479.9854573870469
 20
12.75753178534604
 30
576.2997197120512
 41
0.9586415098796043
 10
480.1123271680133
 20
14.35649562884999
 30
576.2997197120512
 41
1.0
  0
SPLINE
  5
4B5
330
1F
100
AcDbEntity
  8
Default
100
AcDbSpline
210
0.0
220
0.0
230
1.0
 70
    12
 71
     2
 72
     8
 73
     5
 74
     0
 42
0.000000001
 43
0.0000000001
 40
0.0
 40
0.0
 40
0.0
 40
7.868615559496922
 40
7.868615559496922
 40
15.73723111899384
 40
15.73723111899384
 40
15.73723111899384
 10
480.1123271680133
 20
14.35649562884999
 30
576.2997197120512
 41
1.0
 10
487.7427430244532
 20
122.8097310933384
 30
576.2997197120512
 41
0.8830251182217258
 10
581.9034763620583
 20
177.1612152145884
 30
576.2997197120512
 41
1.0
 10
676.0642096996631
 20
231.5126993358374
 30
576.2997197120512
 41
0.8830251182217264
 10
773.7933868875587
 20
183.8751568400819
 30
576.2997197120512
 41
1.0
  0
SPLINE
  5
4B6
330
1F
100
AcDbEntity
  8
Default
100
AcDbSpline
210
0.0
220
0.0
230
1.0
 70
    12
 71
     2
 72
     6
 73
     3
 74
     0
 42
0.000000001
 43
0.0000000001
 40
0.0
 40
0.0
 40
0.0
 40
0.1225959064184418
 40
0.1225959064184418
 40
0.1225959064184418
 10
773.7933868875587
 20
183.8751568400819
 30
576.2997197120512
 41
1.0
 10
775.2337858544584
 20
183.1836448774755
 30
576.2997197120512
 41
0.9609699793776979
 10
776.1071214161871
 20
181.845652734414
 30
576.2997197120512
 41
0.9955579475786183
  0
SPLINE
  5
4B7
330
1F
100
AcDbEntity
  8
Default
100
AcDbSpline
210
0.0
220
0.0
230
1.0
 70
    12
 71
     2
 72
     6
 73
     3
 74
     0
 42
0.000000001
 43
0.0000000001
 40
0.0
 40
0.0
 40
0.0
 40
0.0094211670328261
 40
0.0094211670328261
 40
0.0094211670328261
 10
795.4648047900565
 20
170.5397136061882
 30
576.2997197120512
 41
1.0
 10
795.5831062269459
 20
170.5378148397602
 30
576.2997197120512
 41
0.9969965108799083
 10
795.7012301697424
 20
170.531064327023
 30
576.2997197120512
 41
0.9944206388810783
  0
SPLINE
  5
4B8
330
1F
100
AcDbEntity
  8
Default
100
AcDbSpline
210
0.0
220
0.0
230
1.0
 70
    12
 71
     2
 72
     6
 73
     3
 74
     0
 42
0.000000001
 43
0.0000000001
 40
0.0094211670328261
 40
0.0094211670328261
 40
0.0094211670328261
 40
0.1323444327869086
 40
0.1323444327869086
 40
0.1323444327869086
 10
795.7012301697424
 20
170.531064327023
 30
576.2997197120512
 41
0.9944206388810783
 10
797.3005032848273
 20
170.4396695320436
 30
576.2997197120512
 41
0.9608117879651095
 10
798.6234186361554
 20
169.5363852587377
 30
576.2997197120512
 41
1.0
  0
SPLINE
  5
4B9
330
1F
100
AcDbEntity
  8
Default
100
AcDbSpline
210
0.0
220
0.0
230
1.0
 70
    12
 71
     2
 72
     8
 73
     5
 74
     0
 42
0.000000001
 43
0.0000000001
 40
0.0
 40
0.0
 40
0.0
 40
7.86861959126793
 40
7.86861959126793
 40
15.73723918253356
 40
15.73723918253356
 40
15.73723918253356
 10
798.6234186361554
 20
169.5363852587377
 30
576.2997197120512
 41
1.0
 10
888.731605102312
 20
108.7017174781015
 30
576.2997197120512
 41
0.8830249864055181
 10
888.7210897536112
 20
-0.0196785837017314
 30
576.2997197120512
 41
1.0
 10
888.7105744048984
 20
-108.7410746454859
 30
576.2997197120512
 41
0.8830249864053662
 10
798.590621973234
 20
-169.5583110666718
 30
576.2997197120512
 41
1.0
  0
SPLINE
  5
4BA
330
1F
100
AcDbEntity
  8
Default
100
AcDbSpline
210
0.0
220
0.0
230
1.0
 70
    12
 71
     2
 72
     6
 73
     3
 74
     0
 42
0.000000001
 43
0.0000000001
 40
0.0
 40
0.0
 40
0.0
 40
0.1225327071870427
 40
0.1225327071870427
 40
0.1225327071870427
 10
798.590621973234
 20
-169.5583110666718
 30
576.2997197120512
 41
1.0
 10
797.2703260244988
 20
-170.45510321622
 30
576.2997197120512
 41
0.9618249334825435
 10
795.6769011869993
 20
-170.5468356476737
 30
576.2997197120512
 41
0.9957312157002915
  0
SPLINE
  5
4BB
330
1F
100
AcDbEntity
  8
Default
100
AcDbSpline
210
0.0
220
0.0
230
1.0
 70
    28
 71
     2
 72
     6
 73
     3
 74
     0
 42
0.000000001
 43
0.0000000001
 40
5.420481043178389
 40
5.420481043178389
 40
5.420481043178389
 40
5.451604536017915
 40
5.451604536017915
 40
5.451604536017915
 10
548.3290907777472
 20
151.8881745701723
 30
576.2997197120512
 41
0.9999999999962922
 10
548.0472679954435
 20
152.1653261443083
 30
576.2997197120512
 41
0.9999999999979721
 10
547.7654455400248
 20
152.4424780508378
 30
576.2997197120512
 41
1.0
  0
SPLINE
  5
4BC
330
1F
100
AcDbEntity
  8
Default
100
AcDbSpline
210
0.0
220
0.0
230
1.0
 70
    28
 71
     2
 72
     6
 73
     3
 74
     0
 42
0.000000001
 43
0.0000000001
 40
0.0
 40
0.0
 40
0.0
 40
0.0311237416119354
 40
0.0311237416119354
 40
0.0311237416119354
 10
531.7221042360216
 20
136.3991413925899
 30
576.2997197120512
 41
1.0
 10
531.9992412841915
 20
136.1172998949281
 30
576.2997197120512
 41
0.9999999999976651
 10
532.2763784243969
 20
135.8354584877655
 30
576.2997197120512
 41
0.9999999999953567
  0
SPLINE
  5
4BD
330
1F
100
AcDbEntity
  8
Default
100
AcDbSpline
210
0.0
220
0.0
230
1.0
 70
    28
 71
     2
 72
     6
 73
     3
 74
     0
 42
0.000000001
 43
0.0000000001
 40
0.0
 40
0.0
 40
0.0
 40
0.0311243604747063
 40
0.0311243604747063
 40
0.0311243604747063
 10
820.5635989445765
 20
152.4424918268117
 30
576.2997197120512
 41
1.0
 10
820.2817557017327
 20
152.1653453436013
 30
576.2997197120512
 41
0.999999999999898
 10
819.9999124790583
 20
151.8881988398796
 30
576.2997197120512
 41
0.9999999999997973
  0
SPLINE
  5
4BE
330
1F
100
AcDbEntity
  8
Default
100
AcDbSpline
210
0.0
220
0.0
230
1.0
 70
    28
 71
     2
 72
     6
 73
     3
 74
     0
 42
0.000000001
 43
0.0000000001
 40
0.0
 40
0.0
 40
0.0
 40
0.0311243086895068
 40
0.0311243086895068
 40
0.0311243086895068
 10
836.6069361900654
 20
136.3991517415423
 30
576.2997197120512
 41
1.0
 10
836.3297940807637
 20
136.1173051201752
 30
576.2997197120512
 41
0.9999999999976726
 10
836.0526518795692
 20
135.8354585891659
 30
576.2997197120512
 41
0.9999999999953718
  0
SPLINE
  5
4BF
330
1F
100
AcDbEntity
  8
Default
100
AcDbSpline
210
0.0
220
0.0
230
1.0
 70
    28
 71
     2
 72
     6
 73
     3
 74
     0
 42
0.000000001
 43
0.0000000001
 40
0.0
 40
0.0
 40
0.0
 40
0.0311225103432869
 40
0.0311225103432869
 40
0.0311225103432869
 10
-547.7654654546064
 20
-152.4423196806677
 30
576.2997197120512
 41
1.0
 10
-548.047295802509
 20
-152.165193596173
 30
576.2997197120512
 41
0.9999999999976651
 10
-548.3291260599186
 20
-151.8880674196497
 30
576.2997197120512
 41
0.9999999999953569
  0
SPLINE
  5
4C0
330
1F
100
AcDbEntity
  8
Default
100
AcDbSpline
210
0.0
220
0.0
230
1.0
 70
     8
 71
     3
 72
     9
 73
     5
 74
     0
 42
0.000000001
 43
0.0000000001
 40
-2.0
 40
-2.0
 40
-2.0
 40
-2.0
 40
-1.0
 40
0.0
 40
0.0
 40
0.0
 40
0.0
 10
-831.9041169020657
 20
-163.5952324354405
 30
576.2997197120512
 10
-846.0921254911532
 20
-177.5501127429855
 30
576.2997197120512
 10
-874.4682947113959
 20
-205.4597255181402
 30
576.2997197120512
 10
-902.842157299931
 20
-233.3716775229007
 30
576.2997197120512
 10
-917.0311137388452
 20
-247.3255946561403
 30
576.2997197120512
  0
SPLINE
  5
4C1
330
1F
100
AcDbEntity
  8
Default
100
AcDbSpline
210
0.0
220
0.0
230
1.0
 70
     8
 71
     3
 72
    20
 73
    16
 74
     0
 42
0.000000001
 43
0.0000000001
 40
-13.0
 40
-13.0
 40
-13.0
 40
-13.0
 40
-12.0
 40
-11.0
 40
-10.0
 40
-9.0
 40
-8.0
 40
-7.0
 40
-6.0
 40
-5.0
 40
-4.0
 40
-3.0
 40
-2.0
 40
-1.0
 40
0.0
 40
0.0
 40
0.0
 40
0.0
 10
-917.0311137388452
 20
-247.3255946561403
 30
576.2997197120512
 10
-918.2944067576153
 20
-248.5679612935189
 30
576.2997197120512
 10
-922.0940830214019
 20
-252.3380154281551
 30
576.2997197120512
 10
-925.8159998732729
 20
-256.1308037257463
 30
576.2997197120512
 10
-929.6098791808903
 20
-259.8647878565982
 30
576.2997197120512
 10
-934.0888836518585
 20
-262.8000387631678
 30
576.2997197120512
 10
-939.0333444142951
 20
-264.7555959205322
 30
576.2997197120512
 10
-944.5914001554275
 20
-265.0382770443971
 30
576.2997197120512
 10
-948.9726072156949
 20
-261.2906255556002
 30
576.2997197120512
 10
-949.1015648503992
 20
-255.6523061564385
 30
576.2997197120512
 10
-947.3431133225796
 20
-250.6372471945258
 30
576.2997197120512
 10
-944.5326269488518
 20
-246.0736358380325
 30
576.2997197120512
 10
-940.8792843876009
 20
-242.2018631572026
 30
576.2997197120512
 10
-937.0666721110252
 20
-238.4989973694174
 30
576.2997197120512
 10
-932.7325638274134
 20
-234.1298405862088
 30
576.2997197120512
 10
-931.4901792053827
 20
-232.8665291895909
 30
576.2997197120512
  0
SPLINE
  5
4C2
330
1F
100
AcDbEntity
  8
Default
100
AcDbSpline
210
0.0
220
0.0
230
1.0
 70
     8
 71
     3
 72
     9
 73
     5
 74
     0
 42
0.000000001
 43
0.0000000001
 40
0.0
 40
0.0
 40
0.0
 40
0.0
 40
1.0
 40
2.0
 40
2.0
 40
2.0
 40
2.0
 10
-931.4901792053827
 20
-232.8665291895909
 30
576.2997197120512
 10
-917.5362624416122
 20
-218.6775721125826
 30
576.2997197120512
 10
-889.624310217624
 20
-190.3037107099735
 30
576.2997197120512
 10
-861.7146971945912
 20
-161.9275408827696
 30
576.2997197120512
 10
-847.7598170018197
 20
-147.739532331713
 30
576.2997197120512
  0
SPLINE
  5
4C3
330
1F
100
AcDbEntity
  8
Default
100
AcDbSpline
210
0.0
220
0.0
230
1.0
 70
     8
 71
     3
 72
     9
 73
     5
 74
     0
 42
0.000000001
 43
0.0000000001
 40
-2.0
 40
-2.0
 40
-2.0
 40
-2.0
 40
-1.0
 40
0.0
 40
0.0
 40
0.0
 40
0.0
 10
-831.9041169020657
 20
163.5953711392409
 30
576.2997197120512
 10
-846.0921254911532
 20
177.5502514467859
 30
576.2997197120512
 10
-874.4682947113959
 20
205.4598642219405
 30
576.2997197120512
 10
-902.842157299931
 20
233.3718162267012
 30
576.2997197120512
 10
-917.0311137388452
 20
247.3257333599406
 30
576.2997197120512
  0
SPLINE
  5
4C4
330
1F
100
AcDbEntity
  8
Default
100
AcDbSpline
210
0.0
220
0.0
230
1.0
 70
     8
 71
     3
 72
    20
 73
    16
 74
     0
 42
0.000000001
 43
0.0000000001
 40
-13.0
 40
-13.0
 40
-13.0
 40
-13.0
 40
-12.0
 40
-11.0
 40
-10.0
 40
-9.0
 40
-8.0
 40
-7.0
 40
-6.0
 40
-5.0
 40
-4.0
 40
-3.0
 40
-2.0
 40
-1.0
 40
0.0
 40
0.0
 40
0.0
 40
0.0
 10
-917.0311137388452
 20
247.3257333599406
 30
576.2997197120512
 10
-918.2944067576153
 20
248.5680999973194
 30
576.2997197120512
 10
-922.0940830214019
 20
252.3381541319556
 30
576.2997197120512
 10
-925.8159998732725
 20
256.1309424295471
 30
576.2997197120512
 10
-929.6098791808901
 20
259.8649265603988
 30
576.2997197120512
 10
-934.0888836518583
 20
262.8001774669685
 30
576.2997197120512
 10
-939.033344414295
 20
264.7557346243327
 30
576.2997197120512
 10
-944.5914001554271
 20
265.0384157481974
 30
576.2997197120512
 10
-948.9726072156948
 20
261.2907642594007
 30
576.2997197120512
 10
-949.1015648503992
 20
255.6524448602392
 30
576.2997197120512
 10
-947.3431133225796
 20
250.6373858983263
 30
576.2997197120512
 10
-944.5326269488518
 20
246.073774541833
 30
576.2997197120512
 10
-940.8792843876009
 20
242.202001861003
 30
576.2997197120512
 10
-937.0666721110252
 20
238.4991360732176
 30
576.2997197120512
 10
-932.7325638274134
 20
234.1299792900092
 30
576.2997197120512
 10
-931.4901792053827
 20
232.8666678933916
 30
576.2997197120512
  0
SPLINE
  5
4C5
330
1F
100
AcDbEntity
  8
Default
100
AcDbSpline
210
0.0
220
0.0
230
1.0
 70
     8
 71
     3
 72
     9
 73
     5
 74
     0
 42
0.000000001
 43
0.0000000001
 40
0.0
 40
0.0
 40
0.0
 40
0.0
 40
1.0
 40
2.0
 40
2.0
 40
2.0
 40
2.0
 10
-931.4901792053827
 20
232.8666678933916
 30
576.2997197120512
 10
-917.5362624416122
 20
218.677710816383
 30
576.2997197120512
 10
-889.624310217624
 20
190.3038494137738
 30
576.2997197120512
 10
-861.7146971945912
 20
161.92767958657
 30
576.2997197120512
 10
-847.7598170018197
 20
147.7396710355135
 30
576.2997197120512
  0
SPLINE
  5
4C6
330
1F
100
AcDbEntity
  8
Default
100
AcDbSpline
210
0.0
220
0.0
230
1.0
 70
     8
 71
     3
 72
     9
 73
     5
 74
     0
 42
0.000000001
 43
0.0000000001
 40
-2.0
 40
-2.0
 40
-2.0
 40
-2.0
 40
-1.0
 40
0.0
 40
0.0
 40
0.0
 40
0.0
 10
-536.4249134925838
 20
163.5953711392409
 30
576.2997197120512
 10
-522.2369049034965
 20
177.5502514467858
 30
576.2997197120512
 10
-493.860735683254
 20
205.4598642219404
 30
576.2997197120512
 10
-465.4868730947186
 20
233.3718162267011
 30
576.2997197120512
 10
-451.2979166558049
 20
247.3257333599405
 30
576.2997197120512
  0
SPLINE
  5
4C7
330
1F
100
AcDbEntity
  8
Default
100
AcDbSpline
210
0.0
220
0.0
230
1.0
 70
     8
 71
     3
 72
    20
 73
    16
 74
     0
 42
0.000000001
 43
0.0000000001
 40
-13.0
 40
-13.0
 40
-13.0
 40
-13.0
 40
-12.0
 40
-11.0
 40
-10.0
 40
-9.0
 40
-8.0
 40
-7.0
 40
-6.0
 40
-5.0
 40
-4.0
 40
-3.0
 40
-2.0
 40
-1.0
 40
0.0
 40
0.0
 40
0.0
 40
0.0
 10
-451.2979166558049
 20
247.3257333599405
 30
576.2997197120512
 10
-450.0346236370344
 20
248.5680999973193
 30
576.2997197120512
 10
-446.2349473732479
 20
252.3381541319555
 30
576.2997197120512
 10
-442.513030521377
 20
256.1309424295469
 30
576.2997197120512
 10
-438.7191512137596
 20
259.8649265603987
 30
576.2997197120512
 10
-434.2401467427912
 20
262.8001774669684
 30
576.2997197120512
 10
-429.2956859803545
 20
264.7557346243326
 30
576.2997197120512
 10
-423.7376302392226
 20
265.0384157481973
 30
576.2997197120512
 10
-419.3564231789547
 20
261.2907642594006
 30
576.2997197120512
 10
-419.2274655442504
 20
255.6524448602391
 30
576.2997197120512
 10
-420.9859170720704
 20
250.6373858983262
 30
576.2997197120512
 10
-423.7964034457978
 20
246.0737745418329
 30
576.2997197120512
 10
-427.449746007049
 20
242.2020018610029
 30
576.2997197120512
 10
-431.2623582836248
 20
238.4991360732175
 30
576.2997197120512
 10
-435.5964665672364
 20
234.1299792900091
 30
576.2997197120512
 10
-436.8388511892669
 20
232.8666678933915
 30
576.2997197120512
  0
SPLINE
  5
4C8
330
1F
100
AcDbEntity
  8
Default
100
AcDbSpline
210
0.0
220
0.0
230
1.0
 70
     8
 71
     3
 72
     9
 73
     5
 74
     0
 42
0.000000001
 43
0.0000000001
 40
0.0
 40
0.0
 40
0.0
 40
0.0
 40
1.0
 40
2.0
 40
2.0
 40
2.0
 40
2.0
 10
-436.8388511892669
 20
232.8666678933915
 30
576.2997197120512
 10
-450.7927679530377
 20
218.677710816383
 30
576.2997197120512
 10
-478.7047201770254
 20
190.3038494137737
 30
576.2997197120512
 10
-506.6143332000586
 20
161.9276795865699
 30
576.2997197120512
 10
-520.5692133928303
 20
147.7396710355134
 30
576.2997197120512
  0
SPLINE
  5
4C9
330
1F
100
AcDbEntity
  8
Default
100
AcDbSpline
210
0.0
220
0.0
230
1.0
 70
     8
 71
     3
 72
     9
 73
     5
 74
     0
 42
0.000000001
 43
0.0000000001
 40
-2.0
 40
-2.0
 40
-2.0
 40
-2.0
 40
-1.0
 40
0.0
 40
0.0
 40
0.0
 40
0.0
 10
-536.4249134925838
 20
-163.5952324354406
 30
576.2997197120512
 10
-522.2369049034965
 20
-177.5501127429855
 30
576.2997197120512
 10
-493.8607356832541
 20
-205.4597255181403
 30
576.2997197120512
 10
-465.4868730947187
 20
-233.3716775229008
 30
576.2997197120512
 10
-451.297916655805
 20
-247.3255946561404
 30
576.2997197120512
  0
SPLINE
  5
4CA
330
1F
100
AcDbEntity
  8
Default
100
AcDbSpline
210
0.0
220
0.0
230
1.0
 70
     8
 71
     3
 72
    20
 73
    16
 74
     0
 42
0.000000001
 43
0.0000000001
 40
-13.0
 40
-13.0
 40
-13.0
 40
-13.0
 40
-12.0
 40
-11.0
 40
-10.0
 40
-9.0
 40
-8.0
 40
-7.0
 40
-6.0
 40
-5.0
 40
-4.0
 40
-3.0
 40
-2.0
 40
-1.0
 40
0.0
 40
0.0
 40
0.0
 40
0.0
 10
-451.297916655805
 20
-247.3255946561404
 30
576.2997197120512
 10
-450.0346236370345
 20
-248.567961293519
 30
576.2997197120512
 10
-446.234947373248
 20
-252.3380154281553
 30
576.2997197120512
 10
-442.5130305213771
 20
-256.1308037257465
 30
576.2997197120512
 10
-438.7191512137597
 20
-259.8647878565984
 30
576.2997197120512
 10
-434.2401467427913
 20
-262.8000387631679
 30
576.2997197120512
 10
-429.2956859803546
 20
-264.7555959205323
 30
576.2997197120512
 10
-423.7376302392227
 20
-265.0382770443972
 30
576.2997197120512
 10
-419.3564231789549
 20
-261.2906255556003
 30
576.2997197120512
 10
-419.2274655442505
 20
-255.6523061564386
 30
576.2997197120512
 10
-420.9859170720705
 20
-250.637247194526
 30
576.2997197120512
 10
-423.7964034457979
 20
-246.0736358380327
 30
576.2997197120512
 10
-427.4497460070491
 20
-242.2018631572027
 30
576.2997197120512
 10
-431.262358283625
 20
-238.4989973694175
 30
576.2997197120512
 10
-435.5964665672365
 20
-234.1298405862089
 30
576.2997197120512
 10
-436.8388511892671
 20
-232.866529189591
 30
576.2997197120512
  0
SPLINE
  5
4CB
330
1F
100
AcDbEntity
  8
Default
100
AcDbSpline
210
0.0
220
0.0
230
1.0
 70
     8
 71
     3
 72
     9
 73
     5
 74
     0
 42
0.000000001
 43
0.0000000001
 40
0.0
 40
0.0
 40
0.0
 40
0.0
 40
1.0
 40
2.0
 40
2.0
 40
2.0
 40
2.0
 10
-436.8388511892671
 20
-232.866529189591
 30
576.2997197120512
 10
-450.7927679530379
 20
-218.6775721125826
 30
576.2997197120512
 10
-478.7047201770255
 20
-190.3037107099736
 30
576.2997197120512
 10
-506.6143332000587
 20
-161.9275408827697
 30
576.2997197120512
 10
-520.5692133928303
 20
-147.7395323317131
 30
576.2997197120512
  0
SPLINE
  5
4CC
330
1F
100
AcDbEntity
  8
Default
100
AcDbSpline
210
0.0
220
0.0
230
1.0
 70
    28
 71
     2
 72
     6
 73
     3
 74
     0
 42
0.000000001
 43
0.0000000001
 40
4.761170663444152
 40
4.761170663444152
 40
4.761170663444152
 40
4.792292789997686
 40
4.792292789997686
 40
4.792292789997686
 10
-819.999939616912
 20
-151.8880358663635
 30
576.2997197120512
 41
0.9999999999962923
 10
-820.2817500275186
 20
-152.1651752738578
 30
576.2997197120512
 41
0.9999999999979724
 10
-820.56356011127
 20
-152.4423150137152
 30
576.2997197120512
 41
1.0
  0
SPLINE
  5
4CD
330
1F
100
AcDbEntity
  8
Default
100
AcDbSpline
210
0.0
220
0.0
230
1.0
 70
    28
 71
     2
 72
     6
 73
     3
 74
     0
 42
0.000000001
 43
0.0000000001
 40
0.0
 40
0.0
 40
0.0
 40
0.0311222733603082
 40
0.0311222733603082
 40
0.0311222733603082
 10
-836.6069021462475
 20
-136.3989782254996
 30
576.2997197120512
 41
1.0
 10
-836.3297612204808
 20
-136.1171666930429
 30
576.2997197120512
 41
0.9999999999961511
 10
-836.0526206083239
 20
-135.8353548521743
 30
576.2997197120512
 41
0.9999999999926119
  0
SPLINE
  5
4CE
330
1F
100
AcDbEntity
  8
Default
100
AcDbSpline
210
0.0
220
0.0
230
1.0
 70
    28
 71
     2
 72
     6
 73
     3
 74
     0
 42
0.000000001
 43
0.0000000001
 40
0.0
 40
0.0
 40
0.0
 40
0.0311223369417638
 40
0.0311223369417638
 40
0.0311223369417638
 10
-531.7221293209303
 20
-136.3989773296365
 30
576.2997197120512
 41
1.0
 10
-531.9992538730613
 20
-136.1171485634417
 30
576.2997197120512
 41
0.9999999999976727
 10
-532.2763785170733
 20
-135.8353198875937
 30
576.2997197120512
 41
0.999999999995372
  0
SPLINE
  5
4CF
330
1F
100
AcDbEntity
  8
Default
100
AcDbSpline
210
0.0
220
0.0
230
1.0
 70
    12
 71
     2
 72
     8
 73
     5
 74
     0
 42
0.000000001
 43
0.0000000001
 40
0.0
 40
0.0
 40
0.0
 40
13.63205890972085
 40
13.63205890972085
 40
27.26411781944171
 40
27.26411781944171
 40
27.26411781944171
 10
-463.732183901123
 20
0.0000693519533463
 30
576.2997197120512
 41
1.0
 10
-463.7321839011757
 20
220.4324006481553
 30
576.2997197120512
 41
0.7071067811865471
 10
-684.1645151973779
 20
220.4324006481021
 30
576.2997197120512
 41
1.0
 10
-904.5968464935794
 20
220.4324006480494
 30
576.2997197120512
 41
0.7071067811865467
 10
-904.5968464935269
 20
0.000069351847488
 30
576.2997197120512
 41
1.0
  0
SPLINE
  5
4D0
330
1F
100
AcDbEntity
  8
Default
100
AcDbSpline
210
0.0
220
0.0
230
1.0
 70
    12
 71
     2
 72
     8
 73
     5
 74
     0
 42
0.000000001
 43
0.0000000001
 40
0.0
 40
0.0
 40
0.0
 40
13.63205890972085
 40
13.63205890972085
 40
27.2641178194417
 40
27.2641178194417
 40
27.2641178194417
 10
-904.5968464935269
 20
0.000069351847488
 30
576.2997197120512
 41
1.0
 10
-904.5968464934736
 20
-220.4322619443547
 30
576.2997197120512
 41
0.7071067811865478
 10
-684.1645151972719
 20
-220.4322619443018
 30
576.2997197120512
 41
1.0
 10
-463.7321839010701
 20
-220.432261944249
 30
576.2997197120512
 41
0.7071067811865478
 10
-463.732183901123
 20
0.0000693519533463
 30
576.2997197120512
 41
1.0
  0
SPLINE
  5
4D1
330
1F
100
AcDbEntity
  8
Default
100
AcDbSpline
210
0.0
220
0.0
230
1.0
 70
    15
 71
     2
 72
    12
 73
     9
 74
     0
 42
0.000000001
 43
0.0000000001
 40
0.0
 40
0.0
 40
0.0
 40
12.60147602241891
 40
12.60147602241891
 40
25.20295204483783
 40
25.20295204483783
 40
37.80442806725675
 40
37.80442806725675
 40
50.40590408967564
 40
50.40590408967564
 40
50.40590408967564
 10
-887.9321746382094
 20
-0.0000961430658055
 30
576.2997197120512
 41
1.0
 10
-887.9323401331754
 20
203.7675632978187
 30
576.2997197120512
 41
0.7071067811865476
 10
-684.1646806922909
 20
203.7677287927846
 30
576.2997197120512
 41
1.0
 10
-480.3970212514064
 20
203.7678942877507
 30
576.2997197120512
 41
0.7071067811865476
 10
-480.3968557564407
 20
0.0002348468661851
 30
576.2997197120512
 41
1.0
 10
-480.3966902614744
 20
-203.7674245940183
 30
576.2997197120512
 41
0.7071067811865476
 10
-684.1643497023588
 20
-203.7675900889843
 30
576.2997197120512
 41
1.0
 10
-887.9320091432436
 20
-203.7677555839502
 30
576.2997197120512
 41
0.7071067811865476
 10
-887.9321746382094
 20
-0.0000961430658055
 30
576.2997197120512
 41
1.0
  0
SPLINE
  5
4D2
330
1F
100
AcDbEntity
  8
Default
100
AcDbSpline
210
0.0
220
0.0
230
1.0
 70
    15
 71
     2
 72
    12
 73
     9
 74
     0
 42
0.000000001
 43
0.0000000001
 40
0.0
 40
0.0
 40
0.0
 40
11.78097476525765
 40
11.78097476525765
 40
23.56194953051529
 40
23.56194953051529
 40
35.34292429577294
 40
35.34292429577294
 40
47.12389906103058
 40
47.12389906103058
 40
47.12389906103058
 10
-874.6645532971474
 20
-0.0000961432868157
 30
576.2997197120512
 41
1.0
 10
-874.6647321532261
 20
190.4999412791232
 30
576.2997197120512
 41
0.7071067811865476
 10
-684.1646947308155
 20
190.5001201352017
 30
576.2997197120512
 41
1.0
 10
-493.6646573084056
 20
190.5002989912806
 30
576.2997197120512
 41
0.7071067811865476
 10
-493.6644784523269
 20
0.000261568870083
 30
576.2997197120512
 41
1.0
 10
-493.6642995962483
 20
-190.4997758535401
 30
576.2997197120512
 41
0.7071067811865476
 10
-684.1643370186585
 20
-190.4999547096186
 30
576.2997197120512
 41
1.0
 10
-874.6643744410686
 20
-190.5001335656975
 30
576.2997197120512
 41
0.7071067811865476
 10
-874.6645532971474
 20
-0.0000961432868157
 30
576.2997197120512
 41
1.0
  0
SPLINE
  5
4D3
330
1F
100
AcDbEntity
  8
Default
100
AcDbSpline
210
0.0
220
0.0
230
1.0
 70
    12
 71
     2
 72
     6
 73
     3
 74
     0
 42
0.000000001
 43
0.0000000001
 40
0.0117686935156192
 40
0.0117686935156192
 40
0.0117686935156192
 40
0.1338965989858833
 40
0.1338965989858833
 40
0.1338965989858833
 10
-776.1416208219389
 20
-181.8280667408392
 30
576.2997197120512
 41
0.9928050207437479
 10
-775.2753556051458
 20
-183.164885802695
 30
576.2997197120512
 41
0.9590700849288174
 10
-773.8386819862443
 20
-183.8529770340881
 30
576.2997197120512
 41
1.0
  0
SPLINE
  5
4D4
330
1F
100
AcDbEntity
  8
Default
100
AcDbSpline
210
0.0
220
0.0
230
1.0
 70
    12
 71
     2
 72
     8
 73
     5
 74
     0
 42
0.000000001
 43
0.0000000001
 40
0.0
 40
0.0
 40
0.0
 40
7.870388937238172
 40
7.870388937238172
 40
15.74077787447417
 40
15.74077787447417
 40
15.74077787447417
 10
-773.8386819862443
 20
-183.8529770340881
 30
576.2997197120512
 41
1.0
 10
-676.0952672613403
 20
-231.5272331556253
 30
576.2997197120512
 41
0.8829734150930072
 10
-581.908112653295
 20
-177.1637368951145
 30
576.2997197120512
 41
1.0
 10
-487.7209580452705
 20
-122.8002406346025
 30
576.2997197120512
 41
0.8829734150928628
 10
-480.1096161137528
 20
-14.31670597231358
 30
576.2997197120512
 41
1.0
  0
SPLINE
  5
4D5
330
1F
100
AcDbEntity
  8
Default
100
AcDbSpline
210
0.000000000000134
220
-0.000000000000011
230
1.0
 70
    12
 71
     2
 72
     6
 73
     3
 74
     0
 42
0.000000001
 43
0.0000000001
 40
0.0
 40
0.0
 40
0.0
 40
0.1222860980901102
 40
0.1222860980901102
 40
0.1222860980901102
 10
-480.1096161137528
 20
-14.31670597231358
 30
576.2997197120512
 41
1.0
 10
-479.9787785600559
 20
-12.72244340272562
 30
576.2997197120512
 41
0.9443660915446896
 10
-480.7104205482595
 20
-11.29994854953782
 30
576.2997197120513
 41
0.9647222903891885
  0
SPLINE
  5
4D6
330
1F
100
AcDbEntity
  8
Default
100
AcDbSpline
210
0.0
220
0.0
230
1.0
 70
    12
 71
     2
 72
     6
 73
     3
 74
     0
 42
0.000000001
 43
0.0000000001
 40
0.013283267876232
 40
0.013283267876232
 40
0.013283267876232
 40
0.1362421782741509
 40
0.1362421782741509
 40
0.1362421782741509
 10
-480.7119448031963
 20
11.32749774787327
 30
576.2997197120512
 41
0.9919353035868196
 10
-479.9854573870469
 20
12.75753178534625
 30
576.2997197120512
 41
0.9586415098796043
 10
-480.1123271680133
 20
14.3564956288502
 30
576.2997197120512
 41
1.0
  0
SPLINE
  5
4D7
330
1F
100
AcDbEntity
  8
Default
100
AcDbSpline
210
0.0
220
0.0
230
1.0
 70
    12
 71
     2
 72
     8
 73
     5
 74
     0
 42
0.000000001
 43
0.0000000001
 40
0.0
 40
0.0
 40
0.0
 40
7.868615559496922
 40
7.868615559496922
 40
15.73723111899384
 40
15.73723111899384
 40
15.73723111899384
 10
-480.1123271680133
 20
14.3564956288502
 30
576.2997197120512
 41
1.0
 10
-487.7427430244532
 20
122.8097310933386
 30
576.2997197120512
 41
0.8830251182217258
 10
-581.9034763620583
 20
177.1612152145887
 30
576.2997197120512
 41
1.0
 10
-676.0642096996631
 20
231.5126993358378
 30
576.2997197120512
 41
0.8830251182217264
 10
-773.7933868875587
 20
183.8751568400823
 30
576.2997197120512
 41
1.0
  0
SPLINE
  5
4D8
330
1F
100
AcDbEntity
  8
Default
100
AcDbSpline
210
0.0
220
0.0
230
1.0
 70
    12
 71
     2
 72
     6
 73
     3
 74
     0
 42
0.000000001
 43
0.0000000001
 40
0.0
 40
0.0
 40
0.0
 40
0.1225959064184418
 40
0.1225959064184418
 40
0.1225959064184418
 10
-773.7933868875587
 20
183.8751568400823
 30
576.2997197120512
 41
1.0
 10
-775.2337858544584
 20
183.1836448774758
 30
576.2997197120512
 41
0.9609699793776979
 10
-776.1071214161871
 20
181.8456527344144
 30
576.2997197120512
 41
0.9955579475786183
  0
SPLINE
  5
4D9
330
1F
100
AcDbEntity
  8
Default
100
AcDbSpline
210
0.0
220
0.0
230
1.0
 70
    12
 71
     2
 72
     6
 73
     3
 74
     0
 42
0.000000001
 43
0.0000000001
 40
0.0
 40
0.0
 40
0.0
 40
0.0094211670328261
 40
0.0094211670328261
 40
0.0094211670328261
 10
-795.4648047900565
 20
170.5397136061885
 30
576.2997197120512
 41
1.0
 10
-795.5831062269459
 20
170.5378148397605
 30
576.2997197120512
 41
0.9969965108799083
 10
-795.7012301697424
 20
170.5310643270233
 30
576.2997197120512
 41
0.9944206388810783
  0
SPLINE
  5
4DA
330
1F
100
AcDbEntity
  8
Default
100
AcDbSpline
210
0.0
220
0.0
230
1.0
 70
    12
 71
     2
 72
     6
 73
     3
 74
     0
 42
0.000000001
 43
0.0000000001
 40
0.0094211670328261
 40
0.0094211670328261
 40
0.0094211670328261
 40
0.1323444327869086
 40
0.1323444327869086
 40
0.1323444327869086
 10
-795.7012301697424
 20
170.5310643270233
 30
576.2997197120512
 41
0.9944206388810783
 10
-797.3005032848273
 20
170.439669532044
 30
576.2997197120512
 41
0.9608117879651095
 10
-798.6234186361554
 20
169.5363852587381
 30
576.2997197120512
 41
1.0
  0
SPLINE
  5
4DB
330
1F
100
AcDbEntity
  8
Default
100
AcDbSpline
210
0.0
220
0.0
230
1.0
 70
    12
 71
     2
 72
     8
 73
     5
 74
     0
 42
0.000000001
 43
0.0000000001
 40
0.0
 40
0.0
 40
0.0
 40
7.86861959126793
 40
7.86861959126793
 40
15.73723918253356
 40
15.73723918253356
 40
15.73723918253356
 10
-798.6234186361554
 20
169.5363852587381
 30
576.2997197120512
 41
1.0
 10
-888.731605102312
 20
108.7017174781019
 30
576.2997197120512
 41
0.8830249864055181
 10
-888.7210897536112
 20
-0.0196785837013368
 30
576.2997197120512
 41
1.0
 10
-888.7105744048984
 20
-108.7410746454855
 30
576.2997197120512
 41
0.8830249864053662
 10
-798.590621973234
 20
-169.5583110666714
 30
576.2997197120512
 41
1.0
  0
SPLINE
  5
4DC
330
1F
100
AcDbEntity
  8
Default
100
AcDbSpline
210
0.0
220
0.0
230
1.0
 70
    12
 71
     2
 72
     6
 73
     3
 74
     0
 42
0.000000001
 43
0.0000000001
 40
0.0
 40
0.0
 40
0.0
 40
0.1225327071870427
 40
0.1225327071870427
 40
0.1225327071870427
 10
-798.590621973234
 20
-169.5583110666714
 30
576.2997197120512
 41
1.0
 10
-797.2703260244988
 20
-170.4551032162197
 30
576.2997197120512
 41
0.9618249334825435
 10
-795.6769011869993
 20
-170.5468356476734
 30
576.2997197120512
 41
0.9957312157002915
  0
SPLINE
  5
4DD
330
1F
100
AcDbEntity
  8
Default
100
AcDbSpline
210
0.0
220
0.0
230
1.0
 70
    28
 71
     2
 72
     6
 73
     3
 74
     0
 42
0.000000001
 43
0.0000000001
 40
5.420481043178389
 40
5.420481043178389
 40
5.420481043178389
 40
5.451604536017915
 40
5.451604536017915
 40
5.451604536017915
 10
-548.3290907777472
 20
151.8881745701725
 30
576.2997197120512
 41
0.9999999999962922
 10
-548.0472679954435
 20
152.1653261443085
 30
576.2997197120512
 41
0.9999999999979721
 10
-547.7654455400248
 20
152.4424780508381
 30
576.2997197120512
 41
1.0
  0
SPLINE
  5
4DE
330
1F
100
AcDbEntity
  8
Default
100
AcDbSpline
210
0.0
220
0.0
230
1.0
 70
    28
 71
     2
 72
     6
 73
     3
 74
     0
 42
0.000000001
 43
0.0000000001
 40
0.0
 40
0.0
 40
0.0
 40
0.0311237416119354
 40
0.0311237416119354
 40
0.0311237416119354
 10
-531.7221042360216
 20
136.3991413925902
 30
576.2997197120512
 41
1.0
 10
-531.9992412841915
 20
136.1172998949283
 30
576.2997197120512
 41
0.9999999999976651
 10
-532.2763784243969
 20
135.8354584877657
 30
576.2997197120512
 41
0.9999999999953567
  0
SPLINE
  5
4DF
330
1F
100
AcDbEntity
  8
Default
100
AcDbSpline
210
0.0
220
0.0
230
1.0
 70
    28
 71
     2
 72
     6
 73
     3
 74
     0
 42
0.000000001
 43
0.0000000001
 40
0.0
 40
0.0
 40
0.0
 40
0.0311243604747063
 40
0.0311243604747063
 40
0.0311243604747063
 10
-820.5635989445765
 20
152.442491826812
 30
576.2997197120512
 41
1.0
 10
-820.2817557017327
 20
152.1653453436017
 30
576.2997197120512
 41
0.999999999999898
 10
-819.9999124790583
 20
151.88819883988
 30
576.2997197120512
 41
0.9999999999997973
  0
SPLINE
  5
4E0
330
1F
100
AcDbEntity
  8
Default
100
AcDbSpline
210
0.0
220
0.0
230
1.0
 70
    28
 71
     2
 72
     6
 73
     3
 74
     0
 42
0.000000001
 43
0.0000000001
 40
0.0
 40
0.0
 40
0.0
 40
0.0311243086895068
 40
0.0311243086895068
 40
0.0311243086895068
 10
-836.6069361900654
 20
136.3991517415427
 30
576.2997197120512
 41
1.0
 10
-836.3297940807637
 20
136.1173051201756
 30
576.2997197120512
 41
0.9999999999976726
 10
-836.0526518795692
 20
135.8354585891663
 30
576.2997197120512
 41
0.9999999999953718
  0
ENDSEC
  0
SECTION
  2
OBJECTS
  0
DICTIONARY
  5
C
330
0
100
AcDbDictionary
281
     1
  3
ACAD_BACKGROUND
350
13B
  3
ACAD_CIP_PREVIOUS_PRODUCT_INFO
350
11E
  3
ACAD_COLOR
350
116
  3
ACAD_DETAILVIEWSTYLE
350
113
  3
ACAD_GROUP
350
D
  3
ACAD_LAYOUT
350
1A
  3
ACAD_MATERIAL
350
43
  3
ACAD_MLEADERSTYLE
350
112
  3
ACAD_MLINESTYLE
350
17
  3
ACAD_PLOTSETTINGS
350
19
  3
ACAD_PLOTSTYLENAME
350
E
  3
ACAD_SCALELIST
350
47
  3
ACAD_SECTIONVIEWSTYLE
350
114
  3
ACAD_TABLESTYLE
350
111
  3
ACAD_VISUALSTYLE
350
2A
  3
ACDB_RECOMPOSE_DATA
350
549
  3
AcDbVariableDictionary
350
D8
  0
DICTIONARY
  5
D6
330
8
100
AcDbDictionary
280
     1
281
     1
  0
SUN
  5
69
330
29
100
AcDbSun
 90
        1
290
     0
 63
     7
421
 16777215
 40
1.0
291
     1
 91
  2455826
 92
 54000000
292
     0
 70
     0
 71
   256
280
     1
  0
DICTIONARY
  5
128
330
2
100
AcDbDictionary
280
     1
281
     1
  3
ACAD_LAYERSTATES
360
129
  0
DICTIONARY
  5
11F
330
10
100
AcDbDictionary
280
     1
281
     1
  3
ADSK_XREC_LAYER_RECONCILED
360
120
  0
DICTIONARY
  5
15A
330
159
100
AcDbDictionary
280
     1
281
     1
  0
DICTIONARY
  5
3B7
330
1F
100
AcDbDictionary
280
     1
281
     1
  3
ACAD_SORTENTS
360
3B8
  0
DICTIONARY
  5
13B
102
{ACAD_REACTORS
330
C
102
}
330
C
100
AcDbDictionary
281
     1
  0
XRECORD
  5
11E
102
{ACAD_REACTORS
330
C
102
}
330
C
100
AcDbXrecord
280
     1
300
ACD
300
2016
300
ACD_F_S
  0
DICTIONARY
  5
116
102
{ACAD_REACTORS
330
C
102
}
330
C
100
AcDbDictionary
281
     1
  0
DICTIONARY
  5
113
102
{ACAD_REACTORS
330
C
102
}
330
C
100
AcDbDictionary
281
     1
  3
Imperial24
350
11A
  0
DICTIONARY
  5
D
102
{ACAD_REACTORS
330
C
102
}
330
C
100
AcDbDictionary
281
     1
  0
DICTIONARY
  5
1A
102
{ACAD_REACTORS
330
C
102
}
330
C
100
AcDbDictionary
281
     1
  3
Layout1
350
1E
  3
Layout2
350
26
  3
Model
350
22
  0
DICTIONARY
  5
43
102
{ACAD_REACTORS
330
C
102
}
330
C
100
AcDbDictionary
281
     1
  3
ByBlock
350
45
  3
ByLayer
350
44
  3
Global
350
46
  0
DICTIONARY
  5
112
102
{ACAD_REACTORS
330
C
102
}
330
C
100
AcDbDictionary
281
     1
  3
Standard
350
118
  0
DICTIONARY
  5
17
102
{ACAD_REACTORS
330
C
102
}
330
C
100
AcDbDictionary
281
     1
  3
Standard
350
18
  0
DICTIONARY
  5
19
102
{ACAD_REACTORS
330
C
102
}
330
C
100
AcDbDictionary
281
     1
  0
ACDBDICTIONARYWDFLT
  5
E
102
{ACAD_REACTORS
330
C
102
}
330
C
100
AcDbDictionary
281
     1
  3
Normal
350
F
100
AcDbDictionaryWithDefault
340
F
  0
DICTIONARY
  5
47
102
{ACAD_REACTORS
330
C
102
}
330
C
100
AcDbDictionary
281
     1
  3
A0
350
48
  3
A1
350
49
  3
A2
350
4A
  3
A3
350
4B
  3
A4
350
4C
  3
A5
350
4D
  3
A6
350
4E
  3
A7
350
4F
  3
A8
350
50
  3
A9
350
51
  3
B0
350
52
  3
B1
350
53
  3
B2
350
54
  3
B3
350
55
  3
B4
350
56
  3
B5
350
57
  3
B6
350
58
  3
B7
350
59
  3
B8
350
5A
  3
B9
350
5B
  3
C0
350
5C
  3
C1
350
5D
  3
C2
350
5E
  3
C3
350
5F
  3
C4
350
60
  3
C5
350
61
  3
C6
350
62
  3
C7
350
63
  3
C8
350
64
  3
C9
350
65
  3
D0
350
66
  3
D1
350
67
  3
D2
350
68
  0
DICTIONARY
  5
114
102
{ACAD_REACTORS
330
C
102
}
330
C
100
AcDbDictionary
281
     1
  3
Imperial24
350
119
  0
DICTIONARY
  5
111
102
{ACAD_REACTORS
330
C
102
}
330
C
100
AcDbDictionary
281
     1
  3
Standard
350
117
  0
DICTIONARY
  5
2A
102
{ACAD_REACTORS
330
C
102
}
330
C
100
AcDbDictionary
281
     1
  3
2dWireframe
350
2F
  3
3D Hidden
350
15B
  3
3dWireframe
350
15C
  3
Basic
350
32
  3
Brighten
350
36
  3
ColorChange
350
3A
  3
Conceptual
350
34
  3
Dim
350
35
  3
EdgeColorOff
350
3D
  3
Facepattern
350
39
  3
Flat
350
2B
  3
FlatWithEdges
350
2C
  3
Gouraud
350
2D
  3
GouraudWithEdges
350
2E
  3
Hidden
350
31
  3
JitterOff
350
3B
  3
Linepattern
350
38
  3
OverhangOff
350
3C
  3
Realistic
350
33
  3
Shaded
350
42
  3
Shaded with edges
350
41
  3
Shades of Gray
350
3E
  3
Sketchy
350
3F
  3
Thicken
350
37
  3
Wireframe
350
30
  3
X-Ray
350
40
  0
XRECORD
  5
549
102
{ACAD_REACTORS
330
C
102
}
330
C
100
AcDbXrecord
280
     1
 90
        1
330
117
330
119
330
11A
  0
DICTIONARY
  5
D8
102
{ACAD_REACTORS
330
C
102
}
330
C
100
AcDbDictionary
281
     1
  3
CANNOSCALE
350
D9
  3
CMLEADERSTYLE
350
527
  3
CTABLESTYLE
350
526
  3
CVIEWDETAILSTYLE
350
528
  3
CVIEWSECTIONSTYLE
350
529
  3
LAYEREVAL
350
52B
  3
LAYERNOTIFY
350
52C
  3
LIGHTINGUNITS
350
52A
  3
MSLTSCALE
350
DA
  0
DICTIONARY
  5
129
102
{ACAD_REACTORS
330
128
102
}
330
128
100
AcDbDictionary
281
     1
  0
XRECORD
  5
120
102
{ACAD_REACTORS
330
11F
102
}
330
11F
100
AcDbXrecord
280
     1
290
     1
  0
SORTENTSTABLE
  5
3B8
102
{ACAD_REACTORS
330
3B7
102
}
330
3B7
100
AcDbSortentsTable
330
1F
331
2D3
  5
2D3
331
2E4
  5
2E4
331
2D5
  5
2D5
331
2E6
  5
2E6
331
2D7
  5
2D7
331
2E8
  5
2E8
331
2D9
  5
2D9
331
2EA
  5
2EA
331
2CA
  5
2CA
331
2DB
  5
2DB
331
2DD
  5
2DD
331
2CC
  5
2CC
331
2CE
  5
2CE
331
2DF
  5
2DF
331
2E1
  5
2E1
331
2D0
  5
2D0
331
2D2
  5
2D2
331
2E3
  5
2E3
331
2E5
  5
2E5
331
2D4
  5
2D4
331
2D6
  5
2D6
331
2E7
  5
2E7
331
2E9
  5
2E9
331
2D8
  5
2D8
331
2C9
  5
2C9
331
2DA
  5
2DA
331
2CB
  5
2CB
331
2DC
  5
2DC
331
2CD
  5
2CD
331
2DE
  5
2DE
331
2CF
  5
2CF
331
2E0
  5
2E0
331
2D1
  5
2D1
331
2E2
  5
2E2
  0
ACDBDETAILVIEWSTYLE
  5
11A
102
{ACAD_XDICTIONARY
360
523
102
}
102
{ACAD_REACTORS
330
113
102
}
330
113
100
AcDbModelDocViewStyle
 70
     0
  3
Imperial24
290
     0
100
AcDbDetailViewStyle
 70
     0
 71
     0
 90
        3
 71
     1
340
11
 62
   256
 40
0.24
340
0
 62
   256
 40
0.24
300

 40
0.36
280
     3
 71
     2
340
16
 90
       25
 62
   256
 71
     3
340
11
 62
   256
 40
0.24
 90
        1
 40
0.75
 90
        1
300
%<\AcVar ViewType \f "%tc1">% %<\AcVar ViewDetailId>%\PSCALE %<\AcVar ViewScale \f "%sn">%
 71
     4
340
16
 90
       25
 62
   256
340
16
 90
       25
 62
   256
280
     0
  0
LAYOUT
  5
1E
102
{ACAD_REACTORS
330
1A
102
}
330
1A
100
AcDbPlotSettings
  1

  2
none_device
  4

  6

 40
0.0
 41
0.0
 42
0.0
 43
0.0
 44
0.0
 45
0.0
 46
0.0
 47
0.0
 48
0.0
 49
0.0
140
0.0
141
0.0
142
1.0
143
1.0
 70
   688
 72
     0
 73
     0
 74
     5
  7

 75
    16
147
1.0
 76
     0
 77
     2
 78
   300
148
0.0
149
0.0
100
AcDbLayout
  1
Layout1
 70
     1
 71
     1
 10
0.0
 20
0.0
 11
12.0
 21
9.0
 12
0.0
 22
0.0
 32
0.0
 14
1.000000000000000E+20
 24
1.000000000000000E+20
 34
1.000000000000000E+20
 15
-1.000000000000000E+20
 25
-1.000000000000000E+20
 35
-1.000000000000000E+20
146
0.0
 13
0.0
 23
0.0
 33
0.0
 16
1.0
 26
0.0
 36
0.0
 17
0.0
 27
1.0
 37
0.0
 76
     0
330
1B
  0
LAYOUT
  5
26
102
{ACAD_REACTORS
330
1A
102
}
330
1A
100
AcDbPlotSettings
  1

  2
none_device
  4

  6

 40
0.0
 41
0.0
 42
0.0
 43
0.0
 44
0.0
 45
0.0
 46
0.0
 47
0.0
 48
0.0
 49
0.0
140
0.0
141
0.0
142
1.0
143
1.0
 70
   688
 72
     0
 73
     0
 74
     5
  7

 75
    16
147
1.0
 76
     0
 77
     2
 78
   300
148
0.0
149
0.0
100
AcDbLayout
  1
Layout2
 70
     1
 71
     2
 10
0.0
 20
0.0
 11
0.0
 21
0.0
 12
0.0
 22
0.0
 32
0.0
 14
0.0
 24
0.0
 34
0.0
 15
0.0
 25
0.0
 35
0.0
146
0.0
 13
0.0
 23
0.0
 33
0.0
 16
1.0
 26
0.0
 36
0.0
 17
0.0
 27
1.0
 37
0.0
 76
     0
330
23
  0
LAYOUT
  5
22
102
{ACAD_REACTORS
330
1A
102
}
330
1A
100
AcDbPlotSettings
  1

  2
none_device
  4
Letter_(8.50_x_11.00_Inches)
  6

 40
6.349999999999999
 41
6.349999999999999
 42
6.350005079999999
 43
6.350005079999999
 44
215.9
 45
279.4
 46
0.0
 47
0.0
 48
0.0
 49
0.0
140
0.0
141
0.0
142
1.0
143
1.0
 70
  1712
 72
     0
 73
     0
 74
     0
  7

 75
     0
147
1.0
 76
     0
 77
     2
 78
   300
148
0.0
149
0.0
100
AcDbLayout
  1
Model
 70
     1
 71
     0
 10
0.0
 20
0.0
 11
12.0
 21
9.0
 12
0.0
 22
0.0
 32
0.0
 14
-931.0634625997177
 24
-931.0634625997204
 34
-0.0000000000006164
 15
931.0634625997167
 25
931.0634625997142
 35
874.4527628836399
146
0.0
 13
0.0
 23
0.0
 33
0.0
 16
1.0
 26
0.0
 36
0.0
 17
0.0
 27
1.0
 37
0.0
 76
     0
330
1F
331
29
  0
MATERIAL
  5
45
102
{ACAD_REACTORS
330
43
102
}
330
43
100
AcDbMaterial
  1
ByBlock
 73
     1
 78
     1
172
     1
176
     1
270
     1
274
     1
  0
MATERIAL
  5
44
102
{ACAD_REACTORS
330
43
102
}
330
43
100
AcDbMaterial
  1
ByLayer
 73
     1
 78
     1
172
     1
176
     1
270
     1
274
     1
  0
MATERIAL
  5
46
102
{ACAD_REACTORS
330
43
102
}
330
43
100
AcDbMaterial
  1
Global
 73
     1
 78
     1
172
     1
176
     1
270
     1
274
     1
  0
MLEADERSTYLE
  5
118
102
{ACAD_REACTORS
330
112
102
}
330
112
100
AcDbMLeaderStyle
179
     2
170
     2
171
     1
172
     0
 90
        2
 40
0.0
 41
0.0
173
     1
 91
-1056964608
340
14
 92
       -2
290
     1
 42
0.09
291
     1
 43
0.36
  3
Standard
 44
0.18
300

342
11
174
     1
178
     6
175
     1
176
     0
 93
-1056964608
 45
0.18
292
     0
297
     0
 46
0.18
 94
-1056964608
 47
1.0
 49
1.0
140
1.0
293
     1
141
0.0
294
     1
177
     0
142
1.0
295
     1
296
     0
143
0.125
271
     0
272
     9
273
     9
298
     1
  0
MLINESTYLE
  5
18
102
{ACAD_REACTORS
330
17
102
}
330
17
100
AcDbMlineStyle
  2
STANDARD
 70
     0
  3

 62
   256
 51
90.0
 52
90.0
 71
     2
 49
0.5
 62
   256
  6
BYLAYER
 49
-0.5
 62
   256
  6
BYLAYER
  0
ACDBPLACEHOLDER
  5
F
102
{ACAD_REACTORS
330
E
102
}
330
E
  0
SCALE
  5
48
102
{ACAD_REACTORS
330
47
102
}
330
47
100
AcDbScale
 70
     0
300
1:1
140
1.0
141
1.0
290
     1
  0
SCALE
  5
49
102
{ACAD_REACTORS
330
47
102
}
330
47
100
AcDbScale
 70
     0
300
1:2
140
1.0
141
2.0
290
     0
  0
SCALE
  5
4A
102
{ACAD_REACTORS
330
47
102
}
330
47
100
AcDbScale
 70
     0
300
1:4
140
1.0
141
4.0
290
     0
  0
SCALE
  5
4B
102
{ACAD_REACTORS
330
47
102
}
330
47
100
AcDbScale
 70
     0
300
1:5
140
1.0
141
5.0
290
     0
  0
SCALE
  5
4C
102
{ACAD_REACTORS
330
47
102
}
330
47
100
AcDbScale
 70
     0
300
1:8
140
1.0
141
8.0
290
     0
  0
SCALE
  5
4D
102
{ACAD_REACTORS
330
47
102
}
330
47
100
AcDbScale
 70
     0
300
1:10
140
1.0
141
10.0
290
     0
  0
SCALE
  5
4E
102
{ACAD_REACTORS
330
47
102
}
330
47
100
AcDbScale
 70
     0
300
1:16
140
1.0
141
16.0
290
     0
  0
SCALE
  5
4F
102
{ACAD_REACTORS
330
47
102
}
330
47
100
AcDbScale
 70
     0
300
1:20
140
1.0
141
20.0
290
     0
  0
SCALE
  5
50
102
{ACAD_REACTORS
330
47
102
}
330
47
100
AcDbScale
 70
     0
300
1:30
140
1.0
141
30.0
290
     0
  0
SCALE
  5
51
102
{ACAD_REACTORS
330
47
102
}
330
47
100
AcDbScale
 70
     0
300
1:40
140
1.0
141
40.0
290
     0
  0
SCALE
  5
52
102
{ACAD_REACTORS
330
47
102
}
330
47
100
AcDbScale
 70
     0
300
1:50
140
1.0
141
50.0
290
     0
  0
SCALE
  5
53
102
{ACAD_REACTORS
330
47
102
}
330
47
100
AcDbScale
 70
     0
300
1:100
140
1.0
141
100.0
290
     0
  0
SCALE
  5
54
102
{ACAD_REACTORS
330
47
102
}
330
47
100
AcDbScale
 70
     0
300
2:1
140
2.0
141
1.0
290
     0
  0
SCALE
  5
55
102
{ACAD_REACTORS
330
47
102
}
330
47
100
AcDbScale
 70
     0
300
4:1
140
4.0
141
1.0
290
     0
  0
SCALE
  5
56
102
{ACAD_REACTORS
330
47
102
}
330
47
100
AcDbScale
 70
     0
300
8:1
140
8.0
141
1.0
290
     0
  0
SCALE
  5
57
102
{ACAD_REACTORS
330
47
102
}
330
47
100
AcDbScale
 70
     0
300
10:1
140
10.0
141
1.0
290
     0
  0
SCALE
  5
58
102
{ACAD_REACTORS
330
47
102
}
330
47
100
AcDbScale
 70
     0
300
100:1
140
100.0
141
1.0
290
     0
  0
SCALE
  5
59
102
{ACAD_REACTORS
330
47
102
}
330
47
100
AcDbScale
 70
     0
300
1/128" = 1'-0"
140
0.0078125
141
12.0
290
     0
  0
SCALE
  5
5A
102
{ACAD_REACTORS
330
47
102
}
330
47
100
AcDbScale
 70
     0
300
1/64" = 1'-0"
140
0.015625
141
12.0
290
     0
  0
SCALE
  5
5B
102
{ACAD_REACTORS
330
47
102
}
330
47
100
AcDbScale
 70
     0
300
1/32" = 1'-0"
140
0.03125
141
12.0
290
     0
  0
SCALE
  5
5C
102
{ACAD_REACTORS
330
47
102
}
330
47
100
AcDbScale
 70
     0
300
1/16" = 1'-0"
140
0.0625
141
12.0
290
     0
  0
SCALE
  5
5D
102
{ACAD_REACTORS
330
47
102
}
330
47
100
AcDbScale
 70
     0
300
3/32" = 1'-0"
140
0.09375
141
12.0
290
     0
  0
SCALE
  5
5E
102
{ACAD_REACTORS
330
47
102
}
330
47
100
AcDbScale
 70
     0
300
1/8" = 1'-0"
140
0.125
141
12.0
290
     0
  0
SCALE
  5
5F
102
{ACAD_REACTORS
330
47
102
}
330
47
100
AcDbScale
 70
     0
300
3/16" = 1'-0"
140
0.1875
141
12.0
290
     0
  0
SCALE
  5
60
102
{ACAD_REACTORS
330
47
102
}
330
47
100
AcDbScale
 70
     0
300
1/4" = 1'-0"
140
0.25
141
12.0
290
     0
  0
SCALE
  5
61
102
{ACAD_REACTORS
330
47
102
}
330
47
100
AcDbScale
 70
     0
300
3/8" = 1'-0"
140
0.375
141
12.0
290
     0
  0
SCALE
  5
62
102
{ACAD_REACTORS
330
47
102
}
330
47
100
AcDbScale
 70
     0
300
1/2" = 1'-0"
140
0.5
141
12.0
290
     0
  0
SCALE
  5
63
102
{ACAD_REACTORS
330
47
102
}
330
47
100
AcDbScale
 70
     0
300
3/4" = 1'-0"
140
0.75
141
12.0
290
     0
  0
SCALE
  5
64
102
{ACAD_REACTORS
330
47
102
}
330
47
100
AcDbScale
 70
     0
300
1" = 1'-0"
140
1.0
141
12.0
290
     0
  0
SCALE
  5
65
102
{ACAD_REACTORS
330
47
102
}
330
47
100
AcDbScale
 70
     0
300
1-1/2" = 1'-0"
140
1.5
141
12.0
290
     0
  0
SCALE
  5
66
102
{ACAD_REACTORS
330
47
102
}
330
47
100
AcDbScale
 70
     0
300
3" = 1'-0"
140
3.0
141
12.0
290
     0
  0
SCALE
  5
67
102
{ACAD_REACTORS
330
47
102
}
330
47
100
AcDbScale
 70
     0
300
6" = 1'-0"
140
6.0
141
12.0
290
     0
  0
SCALE
  5
68
102
{ACAD_REACTORS
330
47
102
}
330
47
100
AcDbScale
 70
     0
300
1'-0" = 1'-0"
140
12.0
141
12.0
290
     0
  0
ACDBSECTIONVIEWSTYLE
  5
119
102
{ACAD_XDICTIONARY
360
521
102
}
102
{ACAD_REACTORS
330
114
102
}
330
114
100
AcDbModelDocViewStyle
 70
     0
  3
Imperial24
290
     0
100
AcDbSectionViewStyle
 70
     0
 71
     0
 90
       78
 71
     1
340
11
 62
   256
 40
0.24
340
0
340
0
 62
   256
 40
0.24
300
I, O, Q, S, X, Z
 40
0.48
 90
        3
 40
0.18
 90
        1
 71
     2
340
16
 90
       25
 62
   256
340
16
 90
       50
 62
   256
 40
0.24
 40
0.0
 40
0.24
 71
     3
340
11
 62
   256
 40
0.24
 90
        1
 40
0.75
 90
        1
300
%<\AcVar ViewType \f "%tc1">% %<\AcVar ViewSectionStartId>%-%<\AcVar ViewSectionEndId>%\PSCALE %<\AcVar ViewScale \f "%sn">%
 71
     4
 62
   256
 62
   257
300
ANSI31
 40
1.0
 90
        0
290
     0
290
     0
 90
        6
 40
0.0
 40
1.570796326794896
 40
0.2617993877991494
 40
1.308996938995747
 40
-0.2617993877991494
 40
1.832595714594046
  0
TABLESTYLE
  5
117
102
{ACAD_XDICTIONARY
360
545
102
}
102
{ACAD_REACTORS
330
111
102
}
330
111
100
AcDbTableStyle
280
     0
  3
Standard
 70
     0
 71
     0
 40
0.06
 41
0.06
280
     0
281
     0
  7
Standard
140
0.18
170
     2
 62
     0
 63
     7
283
     0
 90
      512
 91
        0
  1

274
    -2
284
     1
 64
     0
275
    -2
285
     1
 65
     0
276
    -2
286
     1
 66
     0
277
    -2
287
     1
 67
     0
278
    -2
288
     1
 68
     0
279
    -2
289
     1
 69
     0
  7
Standard
140
0.25
170
     5
 62
     0
 63
     7
283
     0
 90
      512
 91
        0
  1

274
    -2
284
     1
 64
     0
275
    -2
285
     1
 65
     0
276
    -2
286
     1
 66
     0
277
    -2
287
     1
 67
     0
278
    -2
288
     1
 68
     0
279
    -2
289
     1
 69
     0
  7
Standard
140
0.18
170
     5
 62
     0
 63
     7
283
     0
 90
      512
 91
        0
  1

274
    -2
284
     1
 64
     0
275
    -2
285
     1
 65
     0
276
    -2
286
     1
 66
     0
277
    -2
287
     1
 67
     0
278
    -2
288
     1
 68
     0
279
    -2
289
     1
 69
     0
  0
VISUALSTYLE
  5
2F
102
{ACAD_REACTORS
330
2A
102
}
330
2A
100
AcDbVisualStyle
  2
2dWireframe
 70
     4
177
     3
291
     0
 70
    58
 90
        0
176
     1
 90
        2
176
     1
 90
        0
176
     1
 90
        0
176
     1
 40
0.6
176
     1
 40
30.0
176
     1
 62
     7
420
 16777215
176
     1
 90
        1
176
     1
 90
        4
176
     1
 62
     7
176
     1
 62
   257
176
     1
 90
        1
176
     1
 90
        1
176
     1
 40
1.0
176
     1
 90
        0
176
     1
 62
   257
176
     1
 40
1.0
176
     1
 90
        1
176
     1
 90
        6
176
     1
 90
        2
176
     1
 62
     7
176
     1
 90
        5
176
     1
 90
        0
176
     1
 90
        0
176
     1
290
     0
176
     1
 90
        1
176
     1
 40
0.0
176
     1
 90
        0
176
     1
290
     1
176
     1
290
     1
176
     1
290
     0
176
     1
290
     0
176
     1
290
     0
176
     1
290
     0
176
     1
290
     0
176
     1
290
     0
176
     1
290
     0
176
     1
 90
       50
176
     1
 40
0.0
176
     1
 40
1.0
176
     1
 90
        0
176
     1
 62
    18
420
        0
176
     1
 90
       50
176
     1
 90
        3
176
     1
 62
     5
420
      255
176
     1
290
     0
176
     1
 90
       50
176
     1
 90
       50
176
     1
 90
       50
176
     1
290
     0
176
     1
 90
       50
176
     1
 62
   256
176
     0
 40
1.0
176
     0
 90
        2
176
     1
  1
strokes_ogs.tif
176
     1
290
     0
176
     1
 40
1.0
176
     1
 40
1.0
176
     1
  0
VISUALSTYLE
  5
15B
102
{ACAD_REACTORS
330
2A
102
}
330
2A
100
AcDbVisualStyle
  2

 70
     6
177
     3
291
     0
 70
    58
 90
        1
176
     1
 90
        2
176
     1
 90
        2
176
     1
 90
        0
176
     1
 40
0.6
176
     1
 40
30.0
176
     1
 62
     7
420
 16777215
176
     1
 90
        2
176
     1
 90
        2
176
     1
 62
     7
176
     1
 62
   257
176
     1
 90
        2
176
     1
 90
        1
176
     1
 40
40.0
176
     1
 90
        0
176
     1
 62
   257
176
     1
 40
1.0
176
     1
 90
        1
176
     1
 90
        6
176
     1
 90
        2
176
     1
 62
     7
176
     1
 90
        3
176
     1
 90
        0
176
     1
 90
        0
176
     1
290
     0
176
     1
 90
        1
176
     1
 40
0.0
176
     1
 90
        0
176
     1
290
     0
176
     1
290
     1
176
     1
290
     1
176
     1
290
     0
176
     1
290
     0
176
     1
290
     0
176
     1
290
     0
176
     1
290
     0
176
     1
290
     0
176
     1
 90
       50
176
     1
 40
0.0
176
     1
 40
1.0
176
     1
 90
        0
176
     1
 62
    18
420
        0
176
     1
 90
       50
176
     1
 90
        3
176
     1
 62
     5
420
      255
176
     1
290
     0
176
     1
 90
       50
176
     1
 90
       50
176
     1
 90
       50
176
     1
290
     0
176
     1
 90
       50
176
     1
 62
   256
176
     0
 40
1.0
176
     0
 90
        2
176
     1
  1
strokes_ogs.tif
176
     1
290
     0
176
     1
 40
1.0
176
     1
 40
1.0
176
     1
  0
VISUALSTYLE
  5
15C
102
{ACAD_REACTORS
330
2A
102
}
330
2A
100
AcDbVisualStyle
  2

 70
     5
177
     3
291
     0
 70
    58
 90
        0
176
     1
 90
        2
176
     1
 90
        0
176
     1
 90
        0
176
     1
 40
0.6
176
     1
 40
30.0
176
     1
 62
     7
420
 16777215
176
     1
 90
        1
176
     1
 90
        4
176
     1
 62
     7
176
     1
 62
   257
176
     1
 90
        1
176
     1
 90
        1
176
     1
 40
1.0
176
     1
 90
        0
176
     1
 62
   257
176
     1
 40
1.0
176
     1
 90
        1
176
     1
 90
        6
176
     1
 90
        2
176
     1
 62
     7
176
     1
 90
        5
176
     1
 90
        0
176
     1
 90
        0
176
     1
290
     0
176
     1
 90
        1
176
     1
 40
0.0
176
     1
 90
        0
176
     1
290
     0
176
     1
290
     1
176
     1
290
     1
176
     1
290
     0
176
     1
290
     0
176
     1
290
     0
176
     1
290
     0
176
     1
290
     0
176
     1
290
     0
176
     1
 90
       50
176
     1
 40
0.0
176
     1
 40
1.0
176
     1
 90
        0
176
     1
 62
    18
420
        0
176
     1
 90
       50
176
     1
 90
        3
176
     1
 62
     5
420
      255
176
     1
290
     0
176
     1
 90
       50
176
     1
 90
       50
176
     1
 90
       50
176
     1
290
     0
176
     1
 90
       50
176
     1
 62
   256
176
     0
 40
1.0
176
     0
 90
        2
176
     1
  1
strokes_ogs.tif
176
     1
290
     0
176
     1
 40
1.0
176
     1
 40
1.0
176
     1
  0
VISUALSTYLE
  5
32
102
{ACAD_REACTORS
330
2A
102
}
330
2A
100
AcDbVisualStyle
  2
Basic
 70
     7
177
     3
291
     1
 70
    58
 90
        1
176
     1
 90
        0
176
     1
 90
        1
176
     1
 90
        0
176
     1
 40
0.6
176
     1
 40
30.0
176
     1
 62
     7
420
 16777215
176
     1
 90
        0
176
     1
 90
        4
176
     1
 62
     7
176
     1
 62
   257
176
     1
 90
        1
176
     1
 90
        1
176
     1
 40
1.0
176
     1
 90
        8
176
     1
 62
     7
176
     1
 40
1.0
176
     1
 90
        1
176
     1
 90
        6
176
     1
 90
        2
176
     1
 62
     7
176
     1
 90
        5
176
     1
 90
        0
176
     1
 90
        0
176
     1
290
     0
176
     1
 90
        1
176
     1
 40
0.0
176
     1
 90
        0
176
     1
290
     0
176
     1
290
     1
176
     1
290
     1
176
     1
290
     0
176
     1
290
     0
176
     1
290
     0
176
     1
290
     0
176
     1
290
     0
176
     1
290
     0
176
     1
 90
       50
176
     1
 40
0.0
176
     1
 40
1.0
176
     1
 90
        0
176
     1
 62
    18
420
        0
176
     1
 90
       50
176
     1
 90
        3
176
     1
 62
     5
420
      255
176
     1
290
     0
176
     1
 90
       50
176
     1
 90
       50
176
     1
 90
       50
176
     1
290
     0
176
     1
 90
       50
176
     1
 62
   256
176
     0
 40
1.0
176
     0
 90
        2
176
     1
  1
strokes_ogs.tif
176
     1
290
     0
176
     1
 40
1.0
176
     1
 40
1.0
176
     1
  0
VISUALSTYLE
  5
36
102
{ACAD_REACTORS
330
2A
102
}
330
2A
100
AcDbVisualStyle
  2
Brighten
 70
    12
177
     3
291
     1
 70
    58
 90
        2
176
     1
 90
        2
176
     1
 90
        0
176
     1
 90
        0
176
     1
 40
0.6
176
     1
 40
30.0
176
     1
 62
     7
420
 16777215
176
     1
 90
        1
176
     1
 90
        4
176
     1
 62
     7
176
     1
 62
   257
176
     1
 90
        1
176
     1
 90
        1
176
     1
 40
1.0
176
     1
 90
        8
176
     1
 62
     7
176
     1
 40
1.0
176
     1
 90
        1
176
     1
 90
        6
176
     1
 90
        2
176
     1
 62
     7
176
     1
 90
        5
176
     1
 90
        0
176
     1
 90
        0
176
     1
290
     0
176
     1
 90
        1
176
     1
 40
50.0
176
     1
 90
        0
176
     1
290
     0
176
     1
290
     1
176
     1
290
     1
176
     1
290
     0
176
     1
290
     0
176
     1
290
     0
176
     1
290
     0
176
     1
290
     0
176
     1
290
     0
176
     1
 90
       50
176
     1
 40
0.0
176
     1
 40
1.0
176
     1
 90
        0
176
     1
 62
    18
420
        0
176
     1
 90
       50
176
     1
 90
        3
176
     1
 62
     5
420
      255
176
     1
290
     0
176
     1
 90
       50
176
     1
 90
       50
176
     1
 90
       50
176
     1
290
     0
176
     1
 90
       50
176
     1
 62
   256
176
     0
 40
1.0
176
     0
 90
        2
176
     1
  1
strokes_ogs.tif
176
     1
290
     0
176
     1
 40
1.0
176
     1
 40
1.0
176
     1
  0
VISUALSTYLE
  5
3A
102
{ACAD_REACTORS
330
2A
102
}
330
2A
100
AcDbVisualStyle
  2
ColorChange
 70
    16
177
     3
291
     1
 70
    58
 90
        2
176
     1
 90
        2
176
     1
 90
        3
176
     1
 90
        0
176
     1
 40
0.6
176
     1
 40
30.0
176
     1
 62
     8
420
  8421504
176
     1
 90
        1
176
     1
 90
        4
176
     1
 62
     7
176
     1
 62
   257
176
     1
 90
        1
176
     1
 90
        1
176
     1
 40
1.0
176
     1
 90
        8
176
     1
 62
     8
420
  8421504
176
     1
 40
1.0
176
     1
 90
        1
176
     1
 90
        6
176
     1
 90
        2
176
     1
 62
     7
176
     1
 90
        5
176
     1
 90
        0
176
     1
 90
        0
176
     1
290
     0
176
     1
 90
        1
176
     1
 40
0.0
176
     1
 90
        0
176
     1
290
     0
176
     1
290
     1
176
     1
290
     1
176
     1
290
     0
176
     1
290
     0
176
     1
290
     0
176
     1
290
     0
176
     1
290
     0
176
     1
290
     0
176
     1
 90
       50
176
     1
 40
0.0
176
     1
 40
1.0
176
     1
 90
        0
176
     1
 62
    18
420
        0
176
     1
 90
       50
176
     1
 90
        3
176
     1
 62
     5
420
      255
176
     1
290
     0
176
     1
 90
       50
176
     1
 90
       50
176
     1
 90
       50
176
     1
290
     0
176
     1
 90
       50
176
     1
 62
   256
176
     0
 40
1.0
176
     0
 90
        2
176
     1
  1
strokes_ogs.tif
176
     1
290
     0
176
     1
 40
1.0
176
     1
 40
1.0
176
     1
  0
VISUALSTYLE
  5
34
102
{ACAD_REACTORS
330
2A
102
}
330
2A
100
AcDbVisualStyle
  2
Conceptual
 70
     9
177
     3
291
     0
 70
    58
 90
        3
176
     1
 90
        2
176
     1
 90
        0
176
     1
 90
        0
176
     1
 40
0.6
176
     1
 40
30.0
176
     1
 62
     7
420
 16777215
176
     1
 90
        2
176
     1
 90
        2
176
     1
 62
     7
176
     1
 62
   257
176
     1
 90
        1
176
     1
 90
        1
176
     1
 40
179.0
176
     1
 90
        8
176
     1
 62
     7
176
     1
 40
1.0
176
     1
 90
        1
176
     1
 90
        6
176
     1
 90
        2
176
     1
 62
     7
176
     1
 90
        3
176
     1
 90
        0
176
     1
 90
        0
176
     1
290
     0
176
     1
 90
        1
176
     1
 40
0.0
176
     1
 90
        0
176
     1
290
     0
176
     1
290
     1
176
     1
290
     1
176
     1
290
     0
176
     1
290
     0
176
     1
290
     0
176
     1
290
     0
176
     1
290
     0
176
     1
290
     0
176
     1
 90
       50
176
     1
 40
0.0
176
     1
 40
1.0
176
     1
 90
        0
176
     1
 62
    18
420
        0
176
     1
 90
       50
176
     1
 90
        3
176
     1
 62
     5
420
      255
176
     1
290
     0
176
     1
 90
       50
176
     1
 90
       50
176
     1
 90
       50
176
     1
290
     0
176
     1
 90
       50
176
     1
 62
   256
176
     0
 40
1.0
176
     0
 90
        2
176
     1
  1
strokes_ogs.tif
176
     1
290
     0
176
     1
 40
1.0
176
     1
 40
1.0
176
     1
  0
VISUALSTYLE
  5
35
102
{ACAD_REACTORS
330
2A
102
}
330
2A
100
AcDbVisualStyle
  2
Dim
 70
    11
177
     3
291
     1
 70
    58
 90
        2
176
     1
 90
        2
176
     1
 90
        0
176
     1
 90
        0
176
     1
 40
0.6
176
     1
 40
30.0
176
     1
 62
     7
420
 16777215
176
     1
 90
        1
176
     1
 90
        4
176
     1
 62
     7
176
     1
 62
   257
176
     1
 90
        1
176
     1
 90
        1
176
     1
 40
1.0
176
     1
 90
        8
176
     1
 62
     7
176
     1
 40
1.0
176
     1
 90
        1
176
     1
 90
        6
176
     1
 90
        2
176
     1
 62
     7
176
     1
 90
        5
176
     1
 90
        0
176
     1
 90
        0
176
     1
290
     0
176
     1
 90
        1
176
     1
 40
-50.0
176
     1
 90
        0
176
     1
290
     0
176
     1
290
     1
176
     1
290
     1
176
     1
290
     0
176
     1
290
     0
176
     1
290
     0
176
     1
290
     0
176
     1
290
     0
176
     1
290
     0
176
     1
 90
       50
176
     1
 40
0.0
176
     1
 40
1.0
176
     1
 90
        0
176
     1
 62
    18
420
        0
176
     1
 90
       50
176
     1
 90
        3
176
     1
 62
     5
420
      255
176
     1
290
     0
176
     1
 90
       50
176
     1
 90
       50
176
     1
 90
       50
176
     1
290
     0
176
     1
 90
       50
176
     1
 62
   256
176
     0
 40
1.0
176
     0
 90
        2
176
     1
  1
strokes_ogs.tif
176
     1
290
     0
176
     1
 40
1.0
176
     1
 40
1.0
176
     1
  0
VISUALSTYLE
  5
3D
102
{ACAD_REACTORS
330
2A
102
}
330
2A
100
AcDbVisualStyle
  2
EdgeColorOff
 70
    22
177
     3
291
     1
 70
    58
 90
        2
176
     0
 90
        2
176
     0
 90
        0
176
     0
 90
        0
176
     0
 40
0.6
176
     0
 40
30.0
176
     0
 62
     7
420
 16777215
176
     0
 90
        1
176
     0
 90
        4
176
     0
 62
     7
176
     0
 62
   257
176
     0
 90
        1
176
     0
 90
        1
176
     0
 40
1.0
176
     0
 90
        8
176
     2
 62
     7
176
     0
 40
1.0
176
     0
 90
        1
176
     0
 90
        6
176
     0
 90
        2
176
     0
 62
     7
176
     0
 90
        5
176
     0
 90
        0
176
     0
 90
        0
176
     0
290
     0
176
     0
 90
        1
176
     0
 40
0.0
176
     0
 90
        0
176
     0
290
     0
176
     0
290
     1
176
     0
290
     1
176
     0
290
     0
176
     0
290
     0
176
     0
290
     0
176
     0
290
     0
176
     0
290
     0
176
     0
290
     0
176
     0
 90
       50
176
     0
 40
0.0
176
     0
 40
1.0
176
     0
 90
        0
176
     0
 62
    18
420
        0
176
     0
 90
       50
176
     0
 90
        3
176
     0
 62
     5
420
      255
176
     0
290
     0
176
     0
 90
       50
176
     0
 90
       50
176
     0
 90
       50
176
     0
290
     0
176
     0
 90
       50
176
     0
 62
   256
176
     0
 40
1.0
176
     0
 90
        2
176
     0
  1
strokes_ogs.tif
176
     0
290
     0
176
     0
 40
1.0
176
     0
 40
1.0
176
     0
  0
VISUALSTYLE
  5
39
102
{ACAD_REACTORS
330
2A
102
}
330
2A
100
AcDbVisualStyle
  2
Facepattern
 70
    15
177
     3
291
     1
 70
    58
 90
        2
176
     1
 90
        2
176
     1
 90
        0
176
     1
 90
        0
176
     1
 40
0.6
176
     1
 40
30.0
176
     1
 62
     7
420
 16777215
176
     1
 90
        1
176
     1
 90
        4
176
     1
 62
     7
176
     1
 62
   257
176
     1
 90
        1
176
     1
 90
        1
176
     1
 40
1.0
176
     1
 90
        8
176
     1
 62
     7
176
     1
 40
1.0
176
     1
 90
        1
176
     1
 90
        6
176
     1
 90
        2
176
     1
 62
     7
176
     1
 90
        5
176
     1
 90
        0
176
     1
 90
        0
176
     1
290
     0
176
     1
 90
        1
176
     1
 40
0.0
176
     1
 90
        0
176
     1
290
     0
176
     1
290
     1
176
     1
290
     1
176
     1
290
     0
176
     1
290
     0
176
     1
290
     0
176
     1
290
     0
176
     1
290
     0
176
     1
290
     0
176
     1
 90
       50
176
     1
 40
0.0
176
     1
 40
1.0
176
     1
 90
        0
176
     1
 62
    18
420
        0
176
     1
 90
       50
176
     1
 90
        3
176
     1
 62
     5
420
      255
176
     1
290
     0
176
     1
 90
       50
176
     1
 90
       50
176
     1
 90
       50
176
     1
290
     0
176
     1
 90
       50
176
     1
 62
   256
176
     0
 40
1.0
176
     0
 90
        2
176
     1
  1
strokes_ogs.tif
176
     1
290
     0
176
     1
 40
1.0
176
     1
 40
1.0
176
     1
  0
VISUALSTYLE
  5
2B
102
{ACAD_REACTORS
330
2A
102
}
330
2A
100
AcDbVisualStyle
  2
Flat
 70
     0
177
     3
291
     1
 70
    58
 90
        2
176
     1
 90
        1
176
     1
 90
        1
176
     1
 90
        2
176
     1
 40
0.6
176
     1
 40
30.0
176
     1
 62
     7
420
 16777215
176
     1
 90
        0
176
     1
 90
        0
176
     1
 62
     7
176
     1
 62
   257
176
     1
 90
        1
176
     1
 90
        1
176
     1
 40
1.0
176
     1
 90
        8
176
     1
 62
     7
176
     1
 40
1.0
176
     1
 90
        1
176
     1
 90
        6
176
     1
 90
        2
176
     1
 62
     7
176
     1
 90
        5
176
     1
 90
        0
176
     1
 90
        0
176
     1
290
     0
176
     1
 90
       13
176
     1
 40
0.0
176
     1
 90
        0
176
     1
290
     0
176
     1
290
     1
176
     1
290
     1
176
     1
290
     0
176
     1
290
     0
176
     1
290
     0
176
     1
290
     0
176
     1
290
     0
176
     1
290
     0
176
     1
 90
       50
176
     1
 40
0.0
176
     1
 40
1.0
176
     1
 90
        0
176
     1
 62
    18
420
        0
176
     1
 90
       50
176
     1
 90
        3
176
     1
 62
     5
420
      255
176
     1
290
     0
176
     1
 90
       50
176
     1
 90
       50
176
     1
 90
       50
176
     1
290
     0
176
     1
 90
       50
176
     1
 62
   256
176
     0
 40
1.0
176
     0
 90
        2
176
     1
  1
strokes_ogs.tif
176
     1
290
     0
176
     1
 40
1.0
176
     1
 40
1.0
176
     1
  0
VISUALSTYLE
  5
2C
102
{ACAD_REACTORS
330
2A
102
}
330
2A
100
AcDbVisualStyle
  2
FlatWithEdges
 70
     1
177
     3
291
     1
 70
    58
 90
        2
176
     1
 90
        1
176
     1
 90
        1
176
     1
 90
        2
176
     1
 40
0.6
176
     1
 40
30.0
176
     1
 62
     7
420
 16777215
176
     1
 90
        1
176
     1
 90
        0
176
     1
 62
     7
176
     1
 62
   257
176
     1
 90
        1
176
     1
 90
        1
176
     1
 40
1.0
176
     1
 90
        0
176
     1
 62
   257
176
     1
 40
1.0
176
     1
 90
        1
176
     1
 90
        6
176
     1
 90
        2
176
     1
 62
     7
176
     1
 90
        5
176
     1
 90
        0
176
     1
 90
        0
176
     1
290
     0
176
     1
 90
       13
176
     1
 40
0.0
176
     1
 90
        0
176
     1
290
     0
176
     1
290
     1
176
     1
290
     1
176
     1
290
     0
176
     1
290
     0
176
     1
290
     0
176
     1
290
     0
176
     1
290
     0
176
     1
290
     0
176
     1
 90
       50
176
     1
 40
0.0
176
     1
 40
1.0
176
     1
 90
        0
176
     1
 62
    18
420
        0
176
     1
 90
       50
176
     1
 90
        3
176
     1
 62
     5
420
      255
176
     1
290
     0
176
     1
 90
       50
176
     1
 90
       50
176
     1
 90
       50
176
     1
290
     0
176
     1
 90
       50
176
     1
 62
   256
176
     0
 40
1.0
176
     0
 90
        2
176
     1
  1
strokes_ogs.tif
176
     1
290
     0
176
     1
 40
1.0
176
     1
 40
1.0
176
     1
  0
VISUALSTYLE
  5
2D
102
{ACAD_REACTORS
330
2A
102
}
330
2A
100
AcDbVisualStyle
  2
Gouraud
 70
     2
177
     3
291
     1
 70
    58
 90
        2
176
     1
 90
        2
176
     1
 90
        1
176
     1
 90
        2
176
     1
 40
0.6
176
     1
 40
30.0
176
     1
 62
     7
420
 16777215
176
     1
 90
        0
176
     1
 90
        0
176
     1
 62
     7
176
     1
 62
   257
176
     1
 90
        1
176
     1
 90
        1
176
     1
 40
1.0
176
     1
 90
        0
176
     1
 62
     7
176
     1
 40
1.0
176
     1
 90
        1
176
     1
 90
        6
176
     1
 90
        2
176
     1
 62
     7
176
     1
 90
        5
176
     1
 90
        0
176
     1
 90
        0
176
     1
290
     0
176
     1
 90
       13
176
     1
 40
0.0
176
     1
 90
        0
176
     1
290
     0
176
     1
290
     1
176
     1
290
     1
176
     1
290
     0
176
     1
290
     0
176
     1
290
     0
176
     1
290
     0
176
     1
290
     0
176
     1
290
     0
176
     1
 90
       50
176
     1
 40
0.0
176
     1
 40
1.0
176
     1
 90
        0
176
     1
 62
    18
420
        0
176
     1
 90
       50
176
     1
 90
        3
176
     1
 62
     5
420
      255
176
     1
290
     0
176
     1
 90
       50
176
     1
 90
       50
176
     1
 90
       50
176
     1
290
     0
176
     1
 90
       50
176
     1
 62
   256
176
     0
 40
1.0
176
     0
 90
        2
176
     1
  1
strokes_ogs.tif
176
     1
290
     0
176
     1
 40
1.0
176
     1
 40
1.0
176
     1
  0
VISUALSTYLE
  5
2E
102
{ACAD_REACTORS
330
2A
102
}
330
2A
100
AcDbVisualStyle
  2
GouraudWithEdges
 70
     3
177
     3
291
     1
 70
    58
 90
        2
176
     1
 90
        2
176
     1
 90
        1
176
     1
 90
        2
176
     1
 40
0.6
176
     1
 40
30.0
176
     1
 62
     7
420
 16777215
176
     1
 90
        1
176
     1
 90
        0
176
     1
 62
     7
176
     1
 62
   257
176
     1
 90
        1
176
     1
 90
        1
176
     1
 40
1.0
176
     1
 90
        0
176
     1
 62
   257
176
     1
 40
1.0
176
     1
 90
        1
176
     1
 90
        6
176
     1
 90
        2
176
     1
 62
     7
176
     1
 90
        5
176
     1
 90
        0
176
     1
 90
        0
176
     1
290
     0
176
     1
 90
       13
176
     1
 40
0.0
176
     1
 90
        0
176
     1
290
     0
176
     1
290
     1
176
     1
290
     1
176
     1
290
     0
176
     1
290
     0
176
     1
290
     0
176
     1
290
     0
176
     1
290
     0
176
     1
290
     0
176
     1
 90
       50
176
     1
 40
0.0
176
     1
 40
1.0
176
     1
 90
        0
176
     1
 62
    18
420
        0
176
     1
 90
       50
176
     1
 90
        3
176
     1
 62
     5
420
      255
176
     1
290
     0
176
     1
 90
       50
176
     1
 90
       50
176
     1
 90
       50
176
     1
290
     0
176
     1
 90
       50
176
     1
 62
   256
176
     0
 40
1.0
176
     0
 90
        2
176
     1
  1
strokes_ogs.tif
176
     1
290
     0
176
     1
 40
1.0
176
     1
 40
1.0
176
     1
  0
VISUALSTYLE
  5
31
102
{ACAD_REACTORS
330
2A
102
}
330
2A
100
AcDbVisualStyle
  2
Hidden
 70
     6
177
     3
291
     0
 70
    58
 90
        1
176
     1
 90
        2
176
     1
 90
        2
176
     1
 90
        0
176
     1
 40
0.6
176
     1
 40
30.0
176
     1
 62
     7
420
 16777215
176
     1
 90
        2
176
     1
 90
        2
176
     1
 62
     7
176
     1
 62
   257
176
     1
 90
        2
176
     1
 90
        1
176
     1
 40
40.0
176
     1
 90
        0
176
     1
 62
   257
176
     1
 40
1.0
176
     1
 90
        1
176
     1
 90
        6
176
     1
 90
        2
176
     1
 62
     7
176
     1
 90
        3
176
     1
 90
        0
176
     1
 90
        0
176
     1
290
     0
176
     1
 90
        1
176
     1
 40
0.0
176
     1
 90
        0
176
     1
290
     0
176
     1
290
     1
176
     1
290
     1
176
     1
290
     0
176
     1
290
     0
176
     1
290
     0
176
     1
290
     0
176
     1
290
     0
176
     1
290
     0
176
     1
 90
       50
176
     1
 40
0.0
176
     1
 40
1.0
176
     1
 90
        0
176
     1
 62
    18
420
        0
176
     1
 90
       50
176
     1
 90
        3
176
     1
 62
     5
420
      255
176
     1
290
     0
176
     1
 90
       50
176
     1
 90
       50
176
     1
 90
       50
176
     1
290
     0
176
     1
 90
       50
176
     1
 62
   256
176
     0
 40
1.0
176
     0
 90
        2
176
     1
  1
strokes_ogs.tif
176
     1
290
     0
176
     1
 40
1.0
176
     1
 40
1.0
176
     1
  0
VISUALSTYLE
  5
3B
102
{ACAD_REACTORS
330
2A
102
}
330
2A
100
AcDbVisualStyle
  2
JitterOff
 70
    20
177
     3
291
     1
 70
    58
 90
        2
176
     0
 90
        2
176
     0
 90
        0
176
     0
 90
        0
176
     0
 40
0.6
176
     0
 40
30.0
176
     0
 62
     7
420
 16777215
176
     0
 90
        1
176
     0
 90
        4
176
     0
 62
     7
176
     0
 62
   257
176
     0
 90
        1
176
     0
 90
        1
176
     0
 40
1.0
176
     0
 90
       10
176
     2
 62
     7
176
     0
 40
1.0
176
     0
 90
        1
176
     0
 90
        6
176
     0
 90
        2
176
     0
 62
     7
176
     0
 90
        5
176
     0
 90
        0
176
     0
 90
        0
176
     0
290
     0
176
     0
 90
        1
176
     0
 40
0.0
176
     0
 90
        0
176
     0
290
     0
176
     0
290
     1
176
     0
290
     1
176
     0
290
     0
176
     0
290
     0
176
     0
290
     0
176
     0
290
     0
176
     0
290
     0
176
     0
290
     0
176
     0
 90
       50
176
     0
 40
0.0
176
     0
 40
1.0
176
     0
 90
        0
176
     0
 62
    18
420
        0
176
     0
 90
       50
176
     0
 90
        3
176
     0
 62
     5
420
      255
176
     0
290
     0
176
     0
 90
       50
176
     0
 90
       50
176
     0
 90
       50
176
     0
290
     0
176
     0
 90
       50
176
     0
 62
   256
176
     0
 40
1.0
176
     0
 90
        2
176
     0
  1
strokes_ogs.tif
176
     0
290
     0
176
     0
 40
1.0
176
     0
 40
1.0
176
     0
  0
VISUALSTYLE
  5
38
102
{ACAD_REACTORS
330
2A
102
}
330
2A
100
AcDbVisualStyle
  2
Linepattern
 70
    14
177
     3
291
     1
 70
    58
 90
        2
176
     1
 90
        2
176
     1
 90
        0
176
     1
 90
        0
176
     1
 40
0.6
176
     1
 40
30.0
176
     1
 62
     7
420
 16777215
176
     1
 90
        1
176
     1
 90
        4
176
     1
 62
     7
176
     1
 62
   257
176
     1
 90
        7
176
     1
 90
        7
176
     1
 40
1.0
176
     1
 90
        8
176
     1
 62
     7
176
     1
 40
1.0
176
     1
 90
        1
176
     1
 90
        6
176
     1
 90
        2
176
     1
 62
     7
176
     1
 90
        5
176
     1
 90
        0
176
     1
 90
        0
176
     1
290
     0
176
     1
 90
        1
176
     1
 40
0.0
176
     1
 90
        0
176
     1
290
     0
176
     1
290
     1
176
     1
290
     1
176
     1
290
     0
176
     1
290
     0
176
     1
290
     0
176
     1
290
     0
176
     1
290
     0
176
     1
290
     0
176
     1
 90
       50
176
     1
 40
0.0
176
     1
 40
1.0
176
     1
 90
        0
176
     1
 62
    18
420
        0
176
     1
 90
       50
176
     1
 90
        3
176
     1
 62
     5
420
      255
176
     1
290
     0
176
     1
 90
       50
176
     1
 90
       50
176
     1
 90
       50
176
     1
290
     0
176
     1
 90
       50
176
     1
 62
   256
176
     0
 40
1.0
176
     0
 90
        2
176
     1
  1
strokes_ogs.tif
176
     1
290
     0
176
     1
 40
1.0
176
     1
 40
1.0
176
     1
  0
VISUALSTYLE
  5
3C
102
{ACAD_REACTORS
330
2A
102
}
330
2A
100
AcDbVisualStyle
  2
OverhangOff
 70
    21
177
     3
291
     1
 70
    58
 90
        2
176
     0
 90
        2
176
     0
 90
        0
176
     0
 90
        0
176
     0
 40
0.6
176
     0
 40
30.0
176
     0
 62
     7
420
 16777215
176
     0
 90
        1
176
     0
 90
        4
176
     0
 62
     7
176
     0
 62
   257
176
     0
 90
        1
176
     0
 90
        1
176
     0
 40
1.0
176
     0
 90
        9
176
     2
 62
     7
176
     0
 40
1.0
176
     0
 90
        1
176
     0
 90
        6
176
     0
 90
        2
176
     0
 62
     7
176
     0
 90
        5
176
     0
 90
        0
176
     0
 90
        0
176
     0
290
     0
176
     0
 90
        1
176
     0
 40
0.0
176
     0
 90
        0
176
     0
290
     0
176
     0
290
     1
176
     0
290
     1
176
     0
290
     0
176
     0
290
     0
176
     0
290
     0
176
     0
290
     0
176
     0
290
     0
176
     0
290
     0
176
     0
 90
       50
176
     0
 40
0.0
176
     0
 40
1.0
176
     0
 90
        0
176
     0
 62
    18
420
        0
176
     0
 90
       50
176
     0
 90
        3
176
     0
 62
     5
420
      255
176
     0
290
     0
176
     0
 90
       50
176
     0
 90
       50
176
     0
 90
       50
176
     0
290
     0
176
     0
 90
       50
176
     0
 62
   256
176
     0
 40
1.0
176
     0
 90
        2
176
     0
  1
strokes_ogs.tif
176
     0
290
     0
176
     0
 40
1.0
176
     0
 40
1.0
176
     0
  0
VISUALSTYLE
  5
33
102
{ACAD_REACTORS
330
2A
102
}
330
2A
100
AcDbVisualStyle
  2
Realistic
 70
     8
177
     3
291
     0
 70
    58
 90
        2
176
     1
 90
        3
176
     1
 90
        0
176
     1
 90
        2
176
     1
 40
0.6
176
     1
 40
30.0
176
     1
 62
     7
420
 16777215
176
     1
 90
        0
176
     1
 90
        0
176
     1
 62
     7
176
     1
 62
   257
176
     1
 90
        1
176
     1
 90
        1
176
     1
 40
1.0
176
     1
 90
        8
176
     1
 62
   257
176
     1
 40
1.0
176
     1
 90
        1
176
     1
 90
        6
176
     1
 90
        2
176
     1
 62
     7
176
     1
 90
        3
176
     1
 90
        0
176
     1
 90
        0
176
     1
290
     0
176
     1
 90
       13
176
     1
 40
0.0
176
     1
 90
        0
176
     1
290
     0
176
     1
290
     1
176
     1
290
     1
176
     1
290
     0
176
     1
290
     0
176
     1
290
     0
176
     1
290
     0
176
     1
290
     0
176
     1
290
     0
176
     1
 90
       50
176
     1
 40
0.0
176
     1
 40
1.0
176
     1
 90
        0
176
     1
 62
    18
420
        0
176
     1
 90
       50
176
     1
 90
        3
176
     1
 62
     5
420
      255
176
     1
290
     0
176
     1
 90
       50
176
     1
 90
       50
176
     1
 90
       50
176
     1
290
     0
176
     1
 90
       50
176
     1
 62
   256
176
     0
 40
1.0
176
     0
 90
        2
176
     1
  1
strokes_ogs.tif
176
     1
290
     0
176
     1
 40
1.0
176
     1
 40
1.0
176
     1
  0
VISUALSTYLE
  5
42
102
{ACAD_REACTORS
330
2A
102
}
330
2A
100
AcDbVisualStyle
  2
Shaded
 70
    27
177
     3
291
     0
 70
    58
 90
        2
176
     1
 90
        2
176
     1
 90
        1
176
     1
 90
        2
176
     1
 40
0.6
176
     1
 40
30.0
176
     1
 62
     7
420
 16777215
176
     1
 90
        0
176
     1
 90
        4
176
     1
 62
     7
176
     1
 62
   257
176
     1
 90
        1
176
     1
 90
        1
176
     1
 40
1.0
176
     1
 90
        8
176
     1
 62
   257
176
     1
 40
1.0
176
     1
 90
        1
176
     1
 90
        6
176
     1
 90
        2
176
     1
 62
     8
420
  7895160
176
     1
 90
        3
176
     1
 90
        0
176
     1
 90
        0
176
     1
290
     0
176
     1
 90
        5
176
     1
 40
0.0
176
     1
 90
        0
176
     1
290
     0
176
     1
290
     1
176
     1
290
     1
176
     1
290
     0
176
     1
290
     0
176
     1
290
     0
176
     1
290
     0
176
     1
290
     0
176
     1
290
     0
176
     1
 90
       50
176
     1
 40
0.0
176
     1
 40
1.0
176
     1
 90
        0
176
     1
 62
    18
420
        0
176
     1
 90
       50
176
     1
 90
        3
176
     1
 62
     5
420
      255
176
     1
290
     0
176
     1
 90
       50
176
     1
 90
       50
176
     1
 90
       50
176
     1
290
     0
176
     1
 90
       50
176
     1
 62
   256
176
     0
 40
1.0
176
     0
 90
        2
176
     1
  1
strokes_ogs.tif
176
     1
290
     0
176
     1
 40
1.0
176
     1
 40
1.0
176
     1
  0
VISUALSTYLE
  5
41
102
{ACAD_REACTORS
330
2A
102
}
330
2A
100
AcDbVisualStyle
  2
Shaded with edges
 70
    26
177
     3
291
     0
 70
    58
 90
        2
176
     1
 90
        2
176
     1
 90
        1
176
     1
 90
        2
176
     1
 40
0.6
176
     1
 40
30.0
176
     1
 62
     7
420
 16777215
176
     1
 90
        1
176
     1
 90
       10
176
     1
 62
     7
176
     1
 62
   257
176
     1
 90
        2
176
     1
 90
        1
176
     1
 40
1.0
176
     1
 90
        8
176
     1
 62
   257
176
     1
 40
1.0
176
     1
 90
        1
176
     1
 90
        6
176
     1
 90
        2
176
     1
 62
     7
176
     1
 90
        3
176
     1
 90
        0
176
     1
 90
        0
176
     1
290
     0
176
     1
 90
        5
176
     1
 40
0.0
176
     1
 90
        0
176
     1
290
     0
176
     1
290
     1
176
     1
290
     1
176
     1
290
     0
176
     1
290
     0
176
     1
290
     0
176
     1
290
     0
176
     1
290
     0
176
     1
290
     0
176
     1
 90
       50
176
     1
 40
0.0
176
     1
 40
1.0
176
     1
 90
        0
176
     1
 62
    18
420
        0
176
     1
 90
       50
176
     1
 90
        3
176
     1
 62
     5
420
      255
176
     1
290
     0
176
     1
 90
       50
176
     1
 90
       50
176
     1
 90
       50
176
     1
290
     0
176
     1
 90
       50
176
     1
 62
   256
176
     0
 40
1.0
176
     0
 90
        2
176
     1
  1
strokes_ogs.tif
176
     1
290
     0
176
     1
 40
1.0
176
     1
 40
1.0
176
     1
  0
VISUALSTYLE
  5
3E
102
{ACAD_REACTORS
330
2A
102
}
330
2A
100
AcDbVisualStyle
  2
Shades of Gray
 70
    23
177
     3
291
     0
 70
    58
 90
        2
176
     1
 90
        2
176
     1
 90
        3
176
     1
 90
        0
176
     1
 40
0.6
176
     1
 40
30.0
176
     1
 62
     7
420
 16777215
176
     1
 90
        2
176
     1
 90
        2
176
     1
 62
     7
176
     1
 62
     7
176
     1
 90
        1
176
     1
 90
        1
176
     1
 40
40.0
176
     1
 90
        8
176
     1
 62
     7
176
     1
 40
1.0
176
     1
 90
        1
176
     1
 90
        6
176
     1
 90
        2
176
     1
 62
     7
176
     1
 90
        3
176
     1
 90
        0
176
     1
 90
        0
176
     1
290
     0
176
     1
 90
        1
176
     1
 40
0.0
176
     1
 90
        0
176
     1
290
     0
176
     1
290
     1
176
     1
290
     1
176
     1
290
     0
176
     1
290
     0
176
     1
290
     0
176
     1
290
     0
176
     1
290
     0
176
     1
290
     0
176
     1
 90
       50
176
     1
 40
0.0
176
     1
 40
1.0
176
     1
 90
        0
176
     1
 62
    18
420
        0
176
     1
 90
       50
176
     1
 90
        3
176
     1
 62
     5
420
      255
176
     1
290
     0
176
     1
 90
       50
176
     1
 90
       50
176
     1
 90
       50
176
     1
290
     0
176
     1
 90
       50
176
     1
 62
   256
176
     0
 40
1.0
176
     0
 90
        2
176
     1
  1
strokes_ogs.tif
176
     1
290
     0
176
     1
 40
1.0
176
     1
 40
1.0
176
     1
  0
VISUALSTYLE
  5
3F
102
{ACAD_REACTORS
330
2A
102
}
330
2A
100
AcDbVisualStyle
  2
Sketchy
 70
    24
177
     3
291
     0
 70
    58
 90
        1
176
     1
 90
        2
176
     1
 90
        2
176
     1
 90
        0
176
     1
 40
0.6
176
     1
 40
30.0
176
     1
 62
     7
420
 16777215
176
     1
 90
        2
176
     1
 90
        2
176
     1
 62
     7
176
     1
 62
     7
176
     1
 90
        1
176
     1
 90
        1
176
     1
 40
40.0
176
     1
 90
       11
176
     1
 62
     7
176
     1
 40
1.0
176
     1
 90
        1
176
     1
 90
        6
176
     1
 90
        2
176
     1
 62
     7
176
     1
 90
        6
176
     1
 90
        0
176
     1
 90
        0
176
     1
290
     0
176
     1
 90
        1
176
     1
 40
0.0
176
     1
 90
        0
176
     1
290
     0
176
     1
290
     1
176
     1
290
     1
176
     1
290
     0
176
     1
290
     0
176
     1
290
     0
176
     1
290
     0
176
     1
290
     0
176
     1
290
     0
176
     1
 90
       50
176
     1
 40
0.0
176
     1
 40
1.0
176
     1
 90
        0
176
     1
 62
    18
420
        0
176
     1
 90
       50
176
     1
 90
        3
176
     1
 62
     5
420
      255
176
     1
290
     0
176
     1
 90
       50
176
     1
 90
       50
176
     1
 90
       50
176
     1
290
     0
176
     1
 90
       50
176
     1
 62
   256
176
     0
 40
1.0
176
     0
 90
        2
176
     1
  1
strokes_ogs.tif
176
     1
290
     0
176
     1
 40
1.0
176
     1
 40
1.0
176
     1
  0
VISUALSTYLE
  5
37
102
{ACAD_REACTORS
330
2A
102
}
330
2A
100
AcDbVisualStyle
  2
Thicken
 70
    13
177
     3
291
     1
 70
    58
 90
        2
176
     1
 90
        2
176
     1
 90
        0
176
     1
 90
        0
176
     1
 40
0.6
176
     1
 40
30.0
176
     1
 62
     7
420
 16777215
176
     1
 90
        1
176
     1
 90
        4
176
     1
 62
     7
176
     1
 62
   257
176
     1
 90
        1
176
     1
 90
        1
176
     1
 40
1.0
176
     1
 90
       12
176
     1
 62
     7
176
     1
 40
1.0
176
     1
 90
        1
176
     1
 90
        6
176
     1
 90
        2
176
     1
 62
     7
176
     1
 90
        5
176
     1
 90
        0
176
     1
 90
        0
176
     1
290
     0
176
     1
 90
        1
176
     1
 40
0.0
176
     1
 90
        0
176
     1
290
     0
176
     1
290
     1
176
     1
290
     1
176
     1
290
     0
176
     1
290
     0
176
     1
290
     0
176
     1
290
     0
176
     1
290
     0
176
     1
290
     0
176
     1
 90
       50
176
     1
 40
0.0
176
     1
 40
1.0
176
     1
 90
        0
176
     1
 62
    18
420
        0
176
     1
 90
       50
176
     1
 90
        3
176
     1
 62
     5
420
      255
176
     1
290
     0
176
     1
 90
       50
176
     1
 90
       50
176
     1
 90
       50
176
     1
290
     0
176
     1
 90
       50
176
     1
 62
   256
176
     0
 40
1.0
176
     0
 90
        2
176
     1
  1
strokes_ogs.tif
176
     1
290
     0
176
     1
 40
1.0
176
     1
 40
1.0
176
     1
  0
VISUALSTYLE
  5
30
102
{ACAD_REACTORS
330
2A
102
}
330
2A
100
AcDbVisualStyle
  2
Wireframe
 70
     5
177
     3
291
     0
 70
    58
 90
        0
176
     1
 90
        2
176
     1
 90
        0
176
     1
 90
        0
176
     1
 40
0.6
176
     1
 40
30.0
176
     1
 62
     7
420
 16777215
176
     1
 90
        1
176
     1
 90
        4
176
     1
 62
     7
176
     1
 62
   257
176
     1
 90
        1
176
     1
 90
        1
176
     1
 40
1.0
176
     1
 90
        0
176
     1
 62
   257
176
     1
 40
1.0
176
     1
 90
        1
176
     1
 90
        6
176
     1
 90
        2
176
     1
 62
     7
176
     1
 90
        3
176
     1
 90
        0
176
     1
 90
        0
176
     1
290
     0
176
     1
 90
        1
176
     1
 40
0.0
176
     1
 90
        0
176
     1
290
     0
176
     1
290
     1
176
     1
290
     1
176
     1
290
     0
176
     1
290
     0
176
     1
290
     0
176
     1
290
     0
176
     1
290
     0
176
     1
290
     0
176
     1
 90
       50
176
     1
 40
0.0
176
     1
 40
1.0
176
     1
 90
        0
176
     1
 62
    18
420
        0
176
     1
 90
       50
176
     1
 90
        3
176
     1
 62
     5
420
      255
176
     1
290
     0
176
     1
 90
       50
176
     1
 90
       50
176
     1
 90
       50
176
     1
290
     0
176
     1
 90
       50
176
     1
 62
   256
176
     0
 40
1.0
176
     0
 90
        2
176
     1
  1
strokes_ogs.tif
176
     1
290
     0
176
     1
 40
1.0
176
     1
 40
1.0
176
     1
  0
VISUALSTYLE
  5
40
102
{ACAD_REACTORS
330
2A
102
}
330
2A
100
AcDbVisualStyle
  2
X-Ray
 70
    25
177
     3
291
     0
 70
    58
 90
        2
176
     1
 90
        2
176
     1
 90
        1
176
     1
 90
        1
176
     1
 40
0.5
176
     1
 40
30.0
176
     1
 62
     7
420
 16777215
176
     1
 90
        1
176
     1
 90
        0
176
     1
 62
     7
176
     1
 62
   257
176
     1
 90
        1
176
     1
 90
        1
176
     1
 40
1.0
176
     1
 90
        8
176
     1
 62
     7
176
     1
 40
1.0
176
     1
 90
        1
176
     1
 90
        6
176
     1
 90
        2
176
     1
 62
     7
176
     1
 90
        3
176
     1
 90
        0
176
     1
 90
        0
176
     1
290
     0
176
     1
 90
       13
176
     1
 40
0.0
176
     1
 90
        0
176
     1
290
     0
176
     1
290
     1
176
     1
290
     1
176
     1
290
     0
176
     1
290
     0
176
     1
290
     0
176
     1
290
     0
176
     1
290
     0
176
     1
290
     0
176
     1
 90
       50
176
     1
 40
0.0
176
     1
 40
1.0
176
     1
 90
        0
176
     1
 62
    18
420
        0
176
     1
 90
       50
176
     1
 90
        3
176
     1
 62
     5
420
      255
176
     1
290
     0
176
     1
 90
       50
176
     1
 90
       50
176
     1
 90
       50
176
     1
290
     0
176
     1
 90
       50
176
     1
 62
   256
176
     0
 40
1.0
176
     0
 90
        2
176
     1
  1
strokes_ogs.tif
176
     1
290
     0
176
     1
 40
1.0
176
     1
 40
1.0
176
     1
  0
DICTIONARYVAR
  5
D9
102
{ACAD_REACTORS
330
D8
102
}
330
D8
100
DictionaryVariables
280
     0
  1
1:1
  0
DICTIONARYVAR
  5
527
102
{ACAD_REACTORS
330
D8
102
}
330
D8
100
DictionaryVariables
280
     0
  1
STANDARD
  0
DICTIONARYVAR
  5
526
102
{ACAD_REACTORS
330
D8
102
}
330
D8
100
DictionaryVariables
280
     0
  1
STANDARD
  0
DICTIONARYVAR
  5
528
102
{ACAD_REACTORS
330
D8
102
}
330
D8
100
DictionaryVariables
280
     0
  1
Imperial24
  0
DICTIONARYVAR
  5
529
102
{ACAD_REACTORS
330
D8
102
}
330
D8
100
DictionaryVariables
280
     0
  1
Imperial24
  0
DICTIONARYVAR
  5
52B
102
{ACAD_REACTORS
330
D8
102
}
330
D8
100
DictionaryVariables
280
     0
  1
1
  0
DICTIONARYVAR
  5
52C
102
{ACAD_REACTORS
330
D8
102
}
330
D8
100
DictionaryVariables
280
     0
  1
15
  0
DICTIONARYVAR
  5
52A
102
{ACAD_REACTORS
330
D8
102
}
330
D8
100
DictionaryVariables
280
     0
  1
0
  0
DICTIONARYVAR
  5
DA
102
{ACAD_REACTORS
330
D8
102
}
330
D8
100
DictionaryVariables
280
     0
  1
1
  0
DICTIONARY
  5
523
330
11A
100
AcDbDictionary
280
     1
281
     1
  3
ACAD_XREC_ROUNDTRIP
360
548
  0
DICTIONARY
  5
521
330
119
100
AcDbDictionary
280
     1
281
     1
  3
ACAD_XREC_ROUNDTRIP
360
547
  0
DICTIONARY
  5
545
330
117
100
AcDbDictionary
280
     1
281
     1
  3
ACAD_ROUNDTRIP_2008_TABLESTYLE_CELLSTYLEMAP
360
546
  0
XRECORD
  5
548
102
{ACAD_REACTORS
330
523
102
}
330
523
100
AcDbXrecord
280
     1
102
DISPLAYNAME
  1
Imperial24
102
FLAGS
 90
        0
  0
XRECORD
  5
547
102
{ACAD_REACTORS
330
521
102
}
330
521
100
AcDbXrecord
280
     1
102
DISPLAYNAME
  1
Imperial24
102
FLAGS
 90
        0
  0
CELLSTYLEMAP
  5
546
102
{ACAD_REACTORS
330
545
102
}
330
545
100
AcDbCellStyleMap
 90
        3
300
CELLSTYLE
  1
TABLEFORMAT_BEGIN
 90
        5
170
     1
 91
        0
 92
    32768
 62
   257
 93
        1
300
CONTENTFORMAT
  1
CONTENTFORMAT_BEGIN
 90
        0
 91
        0
 92
      512
 93
        0
300

 40
0.0
140
1.0
 94
        5
 62
     0
340
11
144
0.25
309
CONTENTFORMAT_END
171
     0
 94
        0
309
TABLEFORMAT_END
  1
CELLSTYLE_BEGIN
 90
        1
 91
        1
300
_TITLE
309
CELLSTYLE_END
300
CELLSTYLE
  1
TABLEFORMAT_BEGIN
 90
        5
170
     1
 91
        0
 92
        0
 62
   257
 93
        1
300
CONTENTFORMAT
  1
CONTENTFORMAT_BEGIN
 90
        0
 91
        0
 92
      512
 93
        0
300

 40
0.0
140
1.0
 94
        5
 62
     0
340
11
144
0.18
309
CONTENTFORMAT_END
171
     0
 94
        0
309
TABLEFORMAT_END
  1
CELLSTYLE_BEGIN
 90
        2
 91
        1
300
_HEADER
309
CELLSTYLE_END
300
CELLSTYLE
  1
TABLEFORMAT_BEGIN
 90
        5
170
     1
 91
        0
 92
        0
 62
   257
 93
        1
300
CONTENTFORMAT
  1
CONTENTFORMAT_BEGIN
 90
        0
 91
        0
 92
      512
 93
        0
300

 40
0.0
140
1.0
 94
        2
 62
     0
340
11
144
0.18
309
CONTENTFORMAT_END
171
     0
 94
        0
309
TABLEFORMAT_END
  1
CELLSTYLE_BEGIN
 90
        3
 91
        2
300
_DATA
309
CELLSTYLE_END
  0
ENDSEC
  0
SECTION
  2
ACDSDATA
 70
     2
 71
     8
  0
ACDSSCHEMA
 90
        0
  1
AcDb_Thumbnail_Schema
  2
AcDbDs::ID
280
    10
 91
        8
  2
Thumbnail_Data
280
    15
 91
        0
101
ACDSRECORD
 95
        0
 90
        2
  2
AcDbDs::TreatedAsObjectData
280
     1
291
     1
101
ACDSRECORD
 95
        0
 90
        3
  2
AcDbDs::Legacy
280
     1
291
     1
101
ACDSRECORD
  1
AcDbDs::ID
 90
        4
  2
AcDs:Indexable
280
     1
291
     1
101
ACDSRECORD
  1
AcDbDs::ID
 90
        5
  2
AcDbDs::HandleAttribute
280
     7
282
     1
  0
ACDSSCHEMA
 90
        1
  1
AcDb3DSolid_ASM_Data
  2
AcDbDs::ID
280
    10
 91
        8
  2
ASM_Data
280
    15
 91
        0
101
ACDSRECORD
 95
        1
 90
        2
  2
AcDbDs::TreatedAsObjectData
280
     1
291
     1
101
ACDSRECORD
 95
        1
 90
        3
  2
AcDbDs::Legacy
280
     1
291
     1
101
ACDSRECORD
  1
AcDbDs::ID
 90
        4
  2
AcDs:Indexable
280
     1
291
     1
101
ACDSRECORD
  1
AcDbDs::ID
 90
        5
  2
AcDbDs::HandleAttribute
280
     7
282
     1
  0
ACDSSCHEMA
 90
        2
  1
AcDbDs::TreatedAsObjectDataSchema
  2
AcDbDs::TreatedAsObjectData
280
     1
 91
        0
  0
ACDSSCHEMA
 90
        3
  1
AcDbDs::LegacySchema
  2
AcDbDs::Legacy
280
     1
 91
        0
  0
ACDSSCHEMA
 90
        4
  1
AcDbDs::IndexedPropertySchema
  2
AcDs:Indexable
280
     1
 91
        0
  0
ACDSSCHEMA
 90
        5
  1
AcDbDs::HandleAttributeSchema
  2
AcDbDs::HandleAttribute
280
     7
 91
        1
284
     1
  0
ACDSRECORD
 90
        0
  2
AcDbDs::ID
280
    10
320
22
  2
Thumbnail_Data
280
    15
 94
     1526
310
89504E470D0A1A0A0000000D4948445200000100000000670803000000D82A6C0200000300504C5445000000000000C8C8C80000000000000000000000000000000000000000000000000000330000660000990000CC0000FF0033000033330033660033990033CC0033FF0066000066330066660066990066CC0066FF0099
310
000099330099660099990099CC0099FF00CC0000CC3300CC6600CC9900CCCC00CCFF00FF0000FF3300FF6600FF9900FFCC00FFFF3300003300333300663300993300CC3300FF3333003333333333663333993333CC3333FF3366003366333366663366993366CC3366FF3399003399333399663399993399CC3399FF33CC00
310
33CC3333CC6633CC9933CCCC33CCFF33FF0033FF3333FF6633FF9933FFCC33FFFF6600006600336600666600996600CC6600FF6633006633336633666633996633CC6633FF6666006666336666666666996666CC6666FF6699006699336699666699996699CC6699FF66CC0066CC3366CC6666CC9966CCCC66CCFF66FF0066
310
FF3366FF6666FF9966FFCC66FFFF9900009900339900669900999900CC9900FF9933009933339933669933999933CC9933FF9966009966339966669966999966CC9966FF9999009999339999669999999999CC9999FF99CC0099CC3399CC6699CC9999CCCC99CCFF99FF0099FF3399FF6699FF9999FFCC99FFFFCC0000CC00
310
33CC0066CC0099CC00CCCC00FFCC3300CC3333CC3366CC3399CC33CCCC33FFCC6600CC6633CC6666CC6699CC66CCCC66FFCC9900CC9933CC9966CC9999CC99CCCC99FFCCCC00CCCC33CCCC66CCCC99CCCCCCCCCCFFCCFF00CCFF33CCFF66CCFF99CCFFCCCCFFFFFF0000FF0033FF0066FF0099FF00CCFF00FFFF3300FF3333
310
FF3366FF3399FF33CCFF33FFFF6600FF6633FF6666FF6699FF66CCFF66FFFF9900FF9933FF9966FF9999FF99CCFF99FFFFCC00FFCC33FFCC66FFCC99FFCCCCFFCCFFFFFF00FFFF33FFFF66FFFF99FFFFCCFFFFFF0000000D0D0D1A1A1A2828283535354343435050505D5D5D6B6B6B787878868686939393A1A1A1AEAEAEBB
310
BBBBC9C9C9D6D6D6E4E4E4F1F1F1FFFFFF00000000000000000000000000000000000000000000000000000000000008F1915C0000019F4944415478DAED9B311602210C4473FFFB4E6FA1EE021B81C682CCFF956F9F168C211992250200000000000000E04F48CA1E3A2910DA12A5B802FAE2F6FF7F025E2D21C33CA0ECB3
310
550CB8268024E9CB710784B502E382DD041002D80B10440049D05C00F332686F84B0C2CDA24DCF42D11D863D73A06F43E4EE7FC8320DD214853BFD7B9680611FD0110BBBA6B0369E3875032A568149A9D3342CCA94C8CBECB4A67F1EED1A4C921EBEE93C0592F99F1699E1BDDCB6449EBA3BC6F99F96E94ED9EF0ECE0E4A8F
310
BC5A57872A1E4159D343B12340896689D2B6D7860055DA650F01B4363C8A420DD3C73AB605A86191F2E90F022C0548A646728F00B105488294418CD0E10AC8D10A0FF3BFF569F08A80FBCB3AFA2CD0CFFF621902F70E68CFD0C71AA1B6B1D106B63C1A22E92BF15301F4F37727B6C466F33FED26C00285609AEC97CFEA623E
310
18C96C72D8D1353EC313EFF1B833BC2293CDFFE41703D6F706239F1BDA9641EFF5F39694A302DC1BE4DA9CBB004104200049D05B00EE0D7AAF9F7B834AE78656FF7FFF36ACA511EAE67FDE46D02C0F5ADC1801000000388917FA7788FD8D98D6D00000000049454E44AE426082780000000049454E44AE4260820AF4C2E11B
310
AC8031DA12FD002301931BAA56E0063F2098F5918F6BFBA360DCBDA927784630B0180BD47D3701F40DB1C0E768506E8B0667417C2F1F209FF20147A544DE32420304CC32424725C578738299157E7314EFAD0BB05786E86B83CBD5E109028EAE0E2FEB811102589AC4C83B44CA6687CA10D90091D82646383F255686C0489C
310
8DA2F4BDC2D92D9E93A492B895A03784BC4F8DC539428CEB677E7294FED961DF22839C244537498A7C8204FD0C919C22937384729254CE12CB4952A6EB834E00B1FF8D2F1ECA4952F68101E64952BC7385619F99E1CC8BF9AE20D2E9EA46078091C8FFBF002D6569EC5601FC018BC2640D82B9A4340000000049454E44AE42
310
6082
  0
ENDSEC
  0
EOF
