  0
SECTION
  2
HEADER
  9
$ACADVER
  1
AC1027
  9
$ACADMAINTVER
 70
   105
  9
$DWGCODEPAGE
  3
ANSI_1252
  9
$LASTSAVEDBY
  1
Sandra
  9
$REQUIREDVERSIONS
160
                 0
  9
$INSBASE
 10
0.0
 20
0.0
 30
0.0
  9
$EXTMIN
 10
-1098.670679835987
 20
-1098.670679835987
 30
0.0
  9
$EXTMAX
 10
1098.670679835987
 20
1098.670679835987
 30
576.2997197120514
  9
$LIMMIN
 10
0.0
 20
0.0
  9
$LIMMAX
 10
12.0
 20
9.0
  9
$ORTHOMODE
 70
     1
  9
$REGENMODE
 70
     1
  9
$FILLMODE
 70
     1
  9
$QTEXTMODE
 70
     0
  9
$MIRRTEXT
 70
     1
  9
$LTSCALE
 40
1.0
  9
$ATTMODE
 70
     1
  9
$TEXTSIZE
 40
0.2
  9
$TRACEWID
 40
0.05
  9
$TEXTSTYLE
  7
Standard
  9
$CLAYER
  8
Default
  9
$CELTYPE
  6
ByLayer
  9
$CECOLOR
 62
   256
  9
$CELTSCALE
 40
1.0
  9
$DISPSILH
 70
     0
  9
$DIMSCALE
 40
1.0
  9
$DIMASZ
 40
0.18
  9
$DIMEXO
 40
0.0625
  9
$DIMDLI
 40
0.38
  9
$DIMRND
 40
0.0
  9
$DIMDLE
 40
0.0
  9
$DIMEXE
 40
0.18
  9
$DIMTP
 40
0.0
  9
$DIMTM
 40
0.0
  9
$DIMTXT
 40
0.18
  9
$DIMCEN
 40
0.09
  9
$DIMTSZ
 40
0.0
  9
$DIMTOL
 70
     0
  9
$DIMLIM
 70
     0
  9
$DIMTIH
 70
     1
  9
$DIMTOH
 70
     1
  9
$DIMSE1
 70
     0
  9
$DIMSE2
 70
     0
  9
$DIMTAD
 70
     0
  9
$DIMZIN
 70
     0
  9
$DIMBLK
  1

  9
$DIMASO
 70
     1
  9
$DIMSHO
 70
     1
  9
$DIMPOST
  1

  9
$DIMAPOST
  1

  9
$DIMALT
 70
     0
  9
$DIMALTD
 70
     2
  9
$DIMALTF
 40
25.4
  9
$DIMLFAC
 40
1.0
  9
$DIMTOFL
 70
     0
  9
$DIMTVP
 40
0.0
  9
$DIMTIX
 70
     0
  9
$DIMSOXD
 70
     0
  9
$DIMSAH
 70
     0
  9
$DIMBLK1
  1

  9
$DIMBLK2
  1

  9
$DIMSTYLE
  2
Standard
  9
$DIMCLRD
 70
     0
  9
$DIMCLRE
 70
     0
  9
$DIMCLRT
 70
     0
  9
$DIMTFAC
 40
1.0
  9
$DIMGAP
 40
0.09
  9
$DIMJUST
 70
     0
  9
$DIMSD1
 70
     0
  9
$DIMSD2
 70
     0
  9
$DIMTOLJ
 70
     1
  9
$DIMTZIN
 70
     0
  9
$DIMALTZ
 70
     0
  9
$DIMALTTZ
 70
     0
  9
$DIMUPT
 70
     0
  9
$DIMDEC
 70
     4
  9
$DIMTDEC
 70
     4
  9
$DIMALTU
 70
     2
  9
$DIMALTTD
 70
     2
  9
$DIMTXSTY
  7
Standard
  9
$DIMAUNIT
 70
     0
  9
$DIMADEC
 70
     0
  9
$DIMALTRND
 40
0.0
  9
$DIMAZIN
 70
     0
  9
$DIMDSEP
 70
    46
  9
$DIMATFIT
 70
     3
  9
$DIMFRAC
 70
     0
  9
$DIMLDRBLK
  1

  9
$DIMLUNIT
 70
     2
  9
$DIMLWD
 70
    -2
  9
$DIMLWE
 70
    -2
  9
$DIMTMOVE
 70
     2
  9
$DIMFXL
 40
1.0
  9
$DIMFXLON
 70
     0
  9
$DIMJOGANG
 40
0.7853981633974483
  9
$DIMTFILL
 70
     0
  9
$DIMTFILLCLR
 70
     0
  9
$DIMARCSYM
 70
     0
  9
$DIMLTYPE
  6

  9
$DIMLTEX1
  6

  9
$DIMLTEX2
  6

  9
$DIMTXTDIRECTION
 70
     0
  9
$LUNITS
 70
     2
  9
$LUPREC
 70
     3
  9
$SKETCHINC
 40
0.1
  9
$FILLETRAD
 40
0.5
  9
$AUNITS
 70
     0
  9
$AUPREC
 70
     0
  9
$MENU
  1
.
  9
$ELEVATION
 40
0.0
  9
$PELEVATION
 40
0.0
  9
$THICKNESS
 40
0.0
  9
$LIMCHECK
 70
     0
  9
$CHAMFERA
 40
0.0
  9
$CHAMFERB
 40
0.0
  9
$CHAMFERC
 40
0.0
  9
$CHAMFERD
 40
0.0
  9
$SKPOLY
 70
     0
  9
$TDCREATE
 40
2456540.427093044
  9
$TDUCREATE
 40
2456540.593759711
  9
$TDUPDATE
 40
2457842.442791030
  9
$TDUUPDATE
 40
2457842.609457697
  9
$TDINDWG
 40
0.0019028935
  9
$TDUSRTIMER
 40
0.0019028935
  9
$USRTIMER
 70
     1
  9
$ANGBASE
 50
0.0
  9
$ANGDIR
 70
     0
  9
$PDMODE
 70
     0
  9
$PDSIZE
 40
0.0
  9
$PLINEWID
 40
0.0
  9
$SPLFRAME
 70
     0
  9
$SPLINETYPE
 70
     6
  9
$SPLINESEGS
 70
     8
  9
$HANDSEED
  5
293
  9
$SURFTAB1
 70
     6
  9
$SURFTAB2
 70
     6
  9
$SURFTYPE
 70
     6
  9
$SURFU
 70
     6
  9
$SURFV
 70
     6
  9
$UCSBASE
  2

  9
$UCSNAME
  2

  9
$UCSORG
 10
0.0
 20
0.0
 30
0.0
  9
$UCSXDIR
 10
1.0
 20
0.0
 30
0.0
  9
$UCSYDIR
 10
0.0
 20
1.0
 30
0.0
  9
$UCSORTHOREF
  2

  9
$UCSORTHOVIEW
 70
     0
  9
$UCSORGTOP
 10
0.0
 20
0.0
 30
0.0
  9
$UCSORGBOTTOM
 10
0.0
 20
0.0
 30
0.0
  9
$UCSORGLEFT
 10
0.0
 20
0.0
 30
0.0
  9
$UCSORGRIGHT
 10
0.0
 20
0.0
 30
0.0
  9
$UCSORGFRONT
 10
0.0
 20
0.0
 30
0.0
  9
$UCSORGBACK
 10
0.0
 20
0.0
 30
0.0
  9
$PUCSBASE
  2

  9
$PUCSNAME
  2

  9
$PUCSORG
 10
0.0
 20
0.0
 30
0.0
  9
$PUCSXDIR
 10
1.0
 20
0.0
 30
0.0
  9
$PUCSYDIR
 10
0.0
 20
1.0
 30
0.0
  9
$PUCSORTHOREF
  2

  9
$PUCSORTHOVIEW
 70
     0
  9
$PUCSORGTOP
 10
0.0
 20
0.0
 30
0.0
  9
$PUCSORGBOTTOM
 10
0.0
 20
0.0
 30
0.0
  9
$PUCSORGLEFT
 10
0.0
 20
0.0
 30
0.0
  9
$PUCSORGRIGHT
 10
0.0
 20
0.0
 30
0.0
  9
$PUCSORGFRONT
 10
0.0
 20
0.0
 30
0.0
  9
$PUCSORGBACK
 10
0.0
 20
0.0
 30
0.0
  9
$USERI1
 70
     0
  9
$USERI2
 70
     0
  9
$USERI3
 70
     0
  9
$USERI4
 70
     0
  9
$USERI5
 70
     0
  9
$USERR1
 40
0.0
  9
$USERR2
 40
0.0
  9
$USERR3
 40
0.0
  9
$USERR4
 40
0.0
  9
$USERR5
 40
0.0
  9
$WORLDVIEW
 70
     1
  9
$SHADEDGE
 70
     3
  9
$SHADEDIF
 70
    70
  9
$TILEMODE
 70
     1
  9
$MAXACTVP
 70
    64
  9
$PINSBASE
 10
0.0
 20
0.0
 30
0.0
  9
$PLIMCHECK
 70
     0
  9
$PEXTMIN
 10
1.000000000000000E+20
 20
1.000000000000000E+20
 30
1.000000000000000E+20
  9
$PEXTMAX
 10
-1.000000000000000E+20
 20
-1.000000000000000E+20
 30
-1.000000000000000E+20
  9
$PLIMMIN
 10
0.0
 20
0.0
  9
$PLIMMAX
 10
12.0
 20
9.0
  9
$UNITMODE
 70
     0
  9
$VISRETAIN
 70
     1
  9
$PLINEGEN
 70
     0
  9
$PSLTSCALE
 70
     1
  9
$TREEDEPTH
 70
  3020
  9
$CMLSTYLE
  2
Standard
  9
$CMLJUST
 70
     0
  9
$CMLSCALE
 40
1.0
  9
$PROXYGRAPHICS
 70
     1
  9
$MEASUREMENT
 70
     0
  9
$CELWEIGHT
370
    -1
  9
$ENDCAPS
280
     0
  9
$JOINSTYLE
280
     0
  9
$LWDISPLAY
290
     0
  9
$INSUNITS
 70
     4
  9
$HYPERLINKBASE
  1

  9
$STYLESHEET
  1

  9
$XEDIT
290
     1
  9
$CEPSNTYPE
380
     0
  9
$PSTYLEMODE
290
     1
  9
$FINGERPRINTGUID
  2
{7E4F2542-AFA9-4A10-929E-DB280EA87E8E}
  9
$VERSIONGUID
  2
{5C02504E-8602-481A-A065-09E6E9FB72B6}
  9
$EXTNAMES
290
     1
  9
$PSVPSCALE
 40
0.0
  9
$OLESTARTUP
290
     0
  9
$SORTENTS
280
   127
  9
$INDEXCTL
280
     0
  9
$HIDETEXT
280
     1
  9
$XCLIPFRAME
280
     0
  9
$HALOGAP
280
     0
  9
$OBSCOLOR
 70
   257
  9
$OBSLTYPE
280
     0
  9
$INTERSECTIONDISPLAY
280
     0
  9
$INTERSECTIONCOLOR
 70
   257
  9
$DIMASSOC
280
     2
  9
$PROJECTNAME
  1

  9
$CAMERADISPLAY
290
     0
  9
$LENSLENGTH
 40
50.0
  9
$CAMERAHEIGHT
 40
0.0
  9
$STEPSPERSEC
 40
2.0
  9
$STEPSIZE
 40
6.0
  9
$3DDWFPREC
 40
2.0
  9
$PSOLWIDTH
 40
0.25
  9
$PSOLHEIGHT
 40
4.0
  9
$LOFTANG1
 40
1.570796326794896
  9
$LOFTANG2
 40
1.570796326794896
  9
$LOFTMAG1
 40
0.0
  9
$LOFTMAG2
 40
0.0
  9
$LOFTPARAM
 70
     7
  9
$LOFTNORMALS
280
     1
  9
$LATITUDE
 40
37.795
  9
$LONGITUDE
 40
-122.394
  9
$NORTHDIRECTION
 40
0.0
  9
$TIMEZONE
 70
 -8000
  9
$LIGHTGLYPHDISPLAY
280
     1
  9
$TILEMODELIGHTSYNCH
280
     1
  9
$CMATERIAL
347
44
  9
$SOLIDHIST
280
     0
  9
$SHOWHIST
280
     1
  9
$DWFFRAME
280
     2
  9
$DGNFRAME
280
     0
  9
$REALWORLDSCALE
290
     1
  9
$INTERFERECOLOR
 62
     1
  9
$INTERFEREOBJVS
345
33
  9
$INTERFEREVPVS
346
30
  9
$CSHADOW
280
     0
  9
$SHADOWPLANELOCATION
 40
0.0
  0
ENDSEC
  0
SECTION
  2
CLASSES
  0
CLASS
  1
ACDBDICTIONARYWDFLT
  2
AcDbDictionaryWithDefault
  3
ObjectDBX Classes
 90
        0
 91
        1
280
     0
281
     0
  0
CLASS
  1
VISUALSTYLE
  2
AcDbVisualStyle
  3
ObjectDBX Classes
 90
     4095
 91
       24
280
     0
281
     0
  0
CLASS
  1
MATERIAL
  2
AcDbMaterial
  3
ObjectDBX Classes
 90
     1153
 91
        3
280
     0
281
     0
  0
CLASS
  1
SCALE
  2
AcDbScale
  3
ObjectDBX Classes
 90
     1153
 91
       33
280
     0
281
     0
  0
CLASS
  1
SUN
  2
AcDbSun
  3
SCENEOE
 90
     1153
 91
        1
280
     0
281
     0
  0
CLASS
  1
DICTIONARYVAR
  2
AcDbDictionaryVar
  3
ObjectDBX Classes
 90
        0
 91
        9
280
     0
281
     0
  0
CLASS
  1
TABLESTYLE
  2
AcDbTableStyle
  3
ObjectDBX Classes
 90
     4095
 91
        1
280
     0
281
     0
  0
CLASS
  1
MLEADERSTYLE
  2
AcDbMLeaderStyle
  3
ACDB_MLEADERSTYLE_CLASS
 90
     4095
 91
        1
280
     0
281
     0
  0
CLASS
  1
ACDBSECTIONVIEWSTYLE
  2
AcDbSectionViewStyle
  3
ObjectDBX Classes
 90
     1025
 91
        1
280
     0
281
     0
  0
CLASS
  1
ACDBDETAILVIEWSTYLE
  2
AcDbDetailViewStyle
  3
ObjectDBX Classes
 90
     1025
 91
        1
280
     0
281
     0
  0
CLASS
  1
SORTENTSTABLE
  2
AcDbSortentsTable
  3
ObjectDBX Classes
 90
        0
 91
        1
280
     0
281
     0
  0
CLASS
  1
CELLSTYLEMAP
  2
AcDbCellStyleMap
  3
ObjectDBX Classes
 90
     1152
 91
        1
280
     0
281
     0
  0
ENDSEC
  0
SECTION
  2
TABLES
  0
TABLE
  2
VPORT
  5
8
102
{ACAD_XDICTIONARY
360
D5
102
}
330
0
100
AcDbSymbolTable
 70
     1
  0
VPORT
  5
29
330
8
100
AcDbSymbolTableRecord
100
AcDbViewportTableRecord
  2
*Active
 70
     0
 10
0.0
 20
0.0
 11
1.0
 21
1.0
 12
0.0000045348579079
 22
65.63415230554892
 13
0.0
 23
0.0
 14
0.5
 24
0.5
 15
0.5
 25
0.5
 16
0.0
 26
0.0
 36
1.0
 17
-0.0000000000006821
 27
0.0000000000078444
 37
0.0
 40
2345.707368152531
 41
2.334549878345498
 42
50.0
 43
0.0
 44
0.0
 50
0.0
 51
0.0
 71
     0
 72
   100
 73
     1
 74
     3
 75
     0
 76
     0
 77
     0
 78
     0
281
     0
 65
     1
110
0.0
120
0.0
130
0.0
111
1.0
121
0.0
131
0.0
112
0.0
122
1.0
132
0.0
 79
     0
146
0.0
348
2F
 60
     3
 61
     5
292
     1
282
     1
141
0.0
142
0.0
 63
   250
421
  3355443
361
69
1001
ACAD_NAV_VCDISPLAY
1070
     3
  0
ENDTAB
  0
TABLE
  2
LTYPE
  5
5
330
0
100
AcDbSymbolTable
 70
     1
  0
LTYPE
  5
14
330
5
100
AcDbSymbolTableRecord
100
AcDbLinetypeTableRecord
  2
ByBlock
 70
     0
  3

 72
    65
 73
     0
 40
0.0
  0
LTYPE
  5
15
330
5
100
AcDbSymbolTableRecord
100
AcDbLinetypeTableRecord
  2
ByLayer
 70
     0
  3

 72
    65
 73
     0
 40
0.0
  0
LTYPE
  5
16
330
5
100
AcDbSymbolTableRecord
100
AcDbLinetypeTableRecord
  2
Continuous
 70
     0
  3
Solid line
 72
    65
 73
     0
 40
0.0
  0
ENDTAB
  0
TABLE
  2
LAYER
  5
2
102
{ACAD_XDICTIONARY
360
127
102
}
330
0
100
AcDbSymbolTable
 70
     2
  0
LAYER
  5
10
102
{ACAD_XDICTIONARY
360
11E
102
}
330
2
100
AcDbSymbolTableRecord
100
AcDbLayerTableRecord
  2
0
 70
     0
 62
     7
  6
Continuous
370
    -3
390
F
347
46
348
0
  0
LAYER
  5
146
102
{ACAD_XDICTIONARY
360
147
102
}
330
2
100
AcDbSymbolTableRecord
100
AcDbLayerTableRecord
  2
Default
 70
     0
 62
     7
  6
Continuous
370
    -3
390
F
347
46
348
0
  0
ENDTAB
  0
TABLE
  2
STYLE
  5
3
330
0
100
AcDbSymbolTable
 70
     1
  0
STYLE
  5
11
330
3
100
AcDbSymbolTableRecord
100
AcDbTextStyleTableRecord
  2
Standard
 70
     0
 40
0.0
 41
1.0
 50
0.0
 71
     0
 42
0.2
  3
txt
  4

  0
ENDTAB
  0
TABLE
  2
VIEW
  5
6
330
0
100
AcDbSymbolTable
 70
     0
  0
ENDTAB
  0
TABLE
  2
UCS
  5
7
330
0
100
AcDbSymbolTable
 70
     0
  0
ENDTAB
  0
TABLE
  2
APPID
  5
9
330
0
100
AcDbSymbolTable
 70
     3
  0
APPID
  5
12
330
9
100
AcDbSymbolTableRecord
100
AcDbRegAppTableRecord
  2
ACAD
 70
     0
  0
APPID
  5
D0
330
9
100
AcDbSymbolTableRecord
100
AcDbRegAppTableRecord
  2
ACAD_OBJECT_CHANGE_GUID
 70
     0
  0
APPID
  5
12D
330
9
100
AcDbSymbolTableRecord
100
AcDbRegAppTableRecord
  2
ACAD_NAV_VCDISPLAY
 70
     0
  0
ENDTAB
  0
TABLE
  2
DIMSTYLE
  5
A
330
0
100
AcDbSymbolTable
 70
     1
100
AcDbDimStyleTable
 71
     0
  0
DIMSTYLE
105
27
330
A
100
AcDbSymbolTableRecord
100
AcDbDimStyleTableRecord
  2
Standard
 70
     0
340
11
  0
ENDTAB
  0
TABLE
  2
BLOCK_RECORD
  5
1
330
0
100
AcDbSymbolTable
 70
     1
  0
BLOCK_RECORD
  5
1F
102
{ACAD_XDICTIONARY
360
262
102
}
330
1
100
AcDbSymbolTableRecord
100
AcDbBlockTableRecord
  2
*Model_Space
340
22
 70
     0
280
     1
281
     0
  0
BLOCK_RECORD
  5
1B
330
1
100
AcDbSymbolTableRecord
100
AcDbBlockTableRecord
  2
*Paper_Space
340
1E
 70
     0
280
     1
281
     0
  0
BLOCK_RECORD
  5
23
330
1
100
AcDbSymbolTableRecord
100
AcDbBlockTableRecord
  2
*Paper_Space0
340
26
 70
     0
280
     1
281
     0
  0
ENDTAB
  0
ENDSEC
  0
SECTION
  2
BLOCKS
  0
BLOCK
  5
20
330
1F
100
AcDbEntity
  8
0
100
AcDbBlockBegin
  2
*Model_Space
 70
     0
 10
0.0
 20
0.0
 30
0.0
  3
*Model_Space
  1

  0
ENDBLK
  5
21
330
1F
100
AcDbEntity
  8
0
100
AcDbBlockEnd
  0
BLOCK
  5
1C
330
1B
100
AcDbEntity
 67
     1
  8
0
100
AcDbBlockBegin
  2
*Paper_Space
 70
     0
 10
0.0
 20
0.0
 30
0.0
  3
*Paper_Space
  1

  0
ENDBLK
  5
1D
330
1B
100
AcDbEntity
 67
     1
  8
0
100
AcDbBlockEnd
  0
BLOCK
  5
24
330
23
100
AcDbEntity
 67
     1
  8
0
100
AcDbBlockBegin
  2
*Paper_Space0
 70
     0
 10
0.0
 20
0.0
 30
0.0
  3
*Paper_Space0
  1

  0
ENDBLK
  5
25
330
23
100
AcDbEntity
 67
     1
  8
0
100
AcDbBlockEnd
  0
ENDSEC
  0
SECTION
  2
ENTITIES
  0
SPLINE
  5
1D7
330
1F
100
AcDbEntity
  8
Default
100
AcDbSpline
210
0.0
220
0.0
230
1.0
 70
    28
 71
     2
 72
     6
 73
     3
 74
     0
 42
0.000000001
 43
0.0000000001
 40
0.0
 40
0.0
 40
0.0
 40
0.0311225103432869
 40
0.0311225103432869
 40
0.0311225103432869
 10
-152.4423196806674
 20
697.7654654546062
 30
576.2997197120512
 41
1.0
 10
-152.1651935961727
 20
698.0472958025087
 30
576.2997197120512
 41
0.9999999999976651
 10
-151.8880674196498
 20
698.3291260599184
 30
576.2997197120512
 41
0.9999999999953569
  0
SPLINE
  5
1D8
330
1F
100
AcDbEntity
  8
Default
100
AcDbSpline
210
0.0
220
0.0
230
1.0
 70
     8
 71
     3
 72
     9
 73
     5
 74
     0
 42
0.000000001
 43
0.0000000001
 40
-2.0
 40
-2.0
 40
-2.0
 40
-2.0
 40
-1.0
 40
0.0
 40
0.0
 40
0.0
 40
0.0
 10
-163.5952324354402
 20
981.9041169020655
 30
576.2997197120512
 10
-177.5501127429852
 20
996.092125491153
 30
576.2997197120512
 10
-205.4597255181402
 20
1024.468294711396
 30
576.2997197120512
 10
-233.3716775229004
 20
1052.842157299931
 30
576.2997197120512
 10
-247.3255946561403
 20
1067.031113738845
 30
576.2997197120512
  0
SPLINE
  5
1D9
330
1F
100
AcDbEntity
  8
Default
100
AcDbSpline
210
0.0
220
0.0
230
1.0
 70
     8
 71
     3
 72
    20
 73
    16
 74
     0
 42
0.000000001
 43
0.0000000001
 40
-13.0
 40
-13.0
 40
-13.0
 40
-13.0
 40
-12.0
 40
-11.0
 40
-10.0
 40
-9.0
 40
-8.0
 40
-7.0
 40
-6.0
 40
-5.0
 40
-4.0
 40
-3.0
 40
-2.0
 40
-1.0
 40
0.0
 40
0.0
 40
0.0
 40
0.0
 10
-247.3255946561403
 20
1067.031113738845
 30
576.2997197120512
 10
-248.5679612935189
 20
1068.294406757615
 30
576.2997197120512
 10
-252.3380154281551
 20
1072.094083021402
 30
576.2997197120512
 10
-256.1308037257463
 20
1075.815999873272
 30
576.2997197120512
 10
-259.8647878565982
 20
1079.60987918089
 30
576.2997197120512
 10
-262.8000387631678
 20
1084.088883651858
 30
576.2997197120512
 10
-264.7555959205322
 20
1089.033344414295
 30
576.2997197120512
 10
-265.0382770443971
 20
1094.591400155427
 30
576.2997197120512
 10
-261.2906255556002
 20
1098.972607215695
 30
576.2997197120512
 10
-255.6523061564385
 20
1099.101564850399
 30
576.2997197120512
 10
-250.6372471945258
 20
1097.343113322579
 30
576.2997197120512
 10
-246.0736358380325
 20
1094.532626948852
 30
576.2997197120512
 10
-242.2018631572025
 20
1090.879284387601
 30
576.2997197120512
 10
-238.4989973694173
 20
1087.066672111025
 30
576.2997197120512
 10
-234.129840586209
 20
1082.732563827413
 30
576.2997197120512
 10
-232.8665291895909
 20
1081.490179205383
 30
576.2997197120512
  0
SPLINE
  5
1DA
330
1F
100
AcDbEntity
  8
Default
100
AcDbSpline
210
0.0
220
0.0
230
1.0
 70
     8
 71
     3
 72
     9
 73
     5
 74
     0
 42
0.000000001
 43
0.0000000001
 40
0.0
 40
0.0
 40
0.0
 40
0.0
 40
1.0
 40
2.0
 40
2.0
 40
2.0
 40
2.0
 10
-232.8665291895909
 20
1081.490179205383
 30
576.2997197120512
 10
-218.6775721125823
 20
1067.536262441612
 30
576.2997197120512
 10
-190.3037107099735
 20
1039.624310217624
 30
576.2997197120512
 10
-161.9275408827698
 20
1011.714697194591
 30
576.2997197120512
 10
-147.7395323317132
 20
997.7598170018195
 30
576.2997197120512
  0
SPLINE
  5
1DB
330
1F
100
AcDbEntity
  8
Default
100
AcDbSpline
210
0.0
220
0.0
230
1.0
 70
     8
 71
     3
 72
     9
 73
     5
 74
     0
 42
0.000000001
 43
0.0000000001
 40
-2.0
 40
-2.0
 40
-2.0
 40
-2.0
 40
-1.0
 40
0.0
 40
0.0
 40
0.0
 40
0.0
 10
163.5953711392412
 20
981.9041169020655
 30
576.2997197120512
 10
177.5502514467862
 20
996.092125491153
 30
576.2997197120512
 10
205.4598642219407
 20
1024.468294711396
 30
576.2997197120512
 10
233.3718162267014
 20
1052.842157299931
 30
576.2997197120512
 10
247.3257333599404
 20
1067.031113738845
 30
576.2997197120512
  0
SPLINE
  5
1DC
330
1F
100
AcDbEntity
  8
Default
100
AcDbSpline
210
0.0
220
0.0
230
1.0
 70
     8
 71
     3
 72
    20
 73
    16
 74
     0
 42
0.000000001
 43
0.0000000001
 40
-13.0
 40
-13.0
 40
-13.0
 40
-13.0
 40
-12.0
 40
-11.0
 40
-10.0
 40
-9.0
 40
-8.0
 40
-7.0
 40
-6.0
 40
-5.0
 40
-4.0
 40
-3.0
 40
-2.0
 40
-1.0
 40
0.0
 40
0.0
 40
0.0
 40
0.0
 10
247.3257333599404
 20
1067.031113738845
 30
576.2997197120512
 10
248.5680999973192
 20
1068.294406757615
 30
576.2997197120512
 10
252.3381541319559
 20
1072.094083021402
 30
576.2997197120512
 10
256.1309424295469
 20
1075.815999873272
 30
576.2997197120512
 10
259.864926560399
 20
1079.60987918089
 30
576.2997197120512
 10
262.8001774669683
 20
1084.088883651858
 30
576.2997197120512
 10
264.7557346243329
 20
1089.033344414295
 30
576.2997197120512
 10
265.0384157481976
 20
1094.591400155427
 30
576.2997197120512
 10
261.2907642594009
 20
1098.972607215695
 30
576.2997197120512
 10
255.6524448602395
 20
1099.101564850399
 30
576.2997197120512
 10
250.6373858983261
 20
1097.343113322579
 30
576.2997197120512
 10
246.0737745418328
 20
1094.532626948852
 30
576.2997197120512
 10
242.2020018610028
 20
1090.879284387601
 30
576.2997197120512
 10
238.4991360732174
 20
1087.066672111025
 30
576.2997197120512
 10
234.129979290009
 20
1082.732563827413
 30
576.2997197120512
 10
232.8666678933914
 20
1081.490179205383
 30
576.2997197120512
  0
SPLINE
  5
1DD
330
1F
100
AcDbEntity
  8
Default
100
AcDbSpline
210
0.0
220
0.0
230
1.0
 70
     8
 71
     3
 72
     9
 73
     5
 74
     0
 42
0.000000001
 43
0.0000000001
 40
0.0
 40
0.0
 40
0.0
 40
0.0
 40
1.0
 40
2.0
 40
2.0
 40
2.0
 40
2.0
 10
232.8666678933914
 20
1081.490179205383
 30
576.2997197120512
 10
218.6777108163833
 20
1067.536262441612
 30
576.2997197120512
 10
190.3038494137736
 20
1039.624310217624
 30
576.2997197120512
 10
161.9276795865698
 20
1011.714697194591
 30
576.2997197120512
 10
147.7396710355133
 20
997.7598170018195
 30
576.2997197120512
  0
SPLINE
  5
1DE
330
1F
100
AcDbEntity
  8
Default
100
AcDbSpline
210
0.0
220
0.0
230
1.0
 70
     8
 71
     3
 72
     9
 73
     5
 74
     0
 42
0.000000001
 43
0.0000000001
 40
-2.0
 40
-2.0
 40
-2.0
 40
-2.0
 40
-1.0
 40
0.0
 40
0.0
 40
0.0
 40
0.0
 10
163.5953711392412
 20
686.4249134925838
 30
576.2997197120512
 10
177.5502514467862
 20
672.2369049034963
 30
576.2997197120512
 10
205.4598642219407
 20
643.8607356832538
 30
576.2997197120512
 10
233.3718162267014
 20
615.4868730947185
 30
576.2997197120512
 10
247.3257333599404
 20
601.2979166558048
 30
576.2997197120512
  0
SPLINE
  5
1DF
330
1F
100
AcDbEntity
  8
Default
100
AcDbSpline
210
0.0
220
0.0
230
1.0
 70
     8
 71
     3
 72
    20
 73
    16
 74
     0
 42
0.000000001
 43
0.0000000001
 40
-13.0
 40
-13.0
 40
-13.0
 40
-13.0
 40
-12.0
 40
-11.0
 40
-10.0
 40
-9.0
 40
-8.0
 40
-7.0
 40
-6.0
 40
-5.0
 40
-4.0
 40
-3.0
 40
-2.0
 40
-1.0
 40
0.0
 40
0.0
 40
0.0
 40
0.0
 10
247.3257333599404
 20
601.2979166558048
 30
576.2997197120512
 10
248.5680999973192
 20
600.0346236370343
 30
576.2997197120512
 10
252.3381541319559
 20
596.2349473732477
 30
576.2997197120512
 10
256.1309424295469
 20
592.5130305213769
 30
576.2997197120512
 10
259.864926560399
 20
588.7191512137595
 30
576.2997197120512
 10
262.8001774669683
 20
584.2401467427911
 30
576.2997197120512
 10
264.7557346243329
 20
579.2956859803545
 30
576.2997197120512
 10
265.0384157481976
 20
573.7376302392225
 30
576.2997197120512
 10
261.2907642594009
 20
569.3564231789547
 30
576.2997197120512
 10
255.6524448602395
 20
569.2274655442505
 30
576.2997197120512
 10
250.6373858983261
 20
570.9859170720704
 30
576.2997197120512
 10
246.0737745418328
 20
573.7964034457976
 30
576.2997197120512
 10
242.2020018610028
 20
577.4497460070489
 30
576.2997197120512
 10
238.4991360732174
 20
581.2623582836248
 30
576.2997197120512
 10
234.129979290009
 20
585.5964665672362
 30
576.2997197120512
 10
232.8666678933914
 20
586.838851189267
 30
576.2997197120512
  0
SPLINE
  5
1E0
330
1F
100
AcDbEntity
  8
Default
100
AcDbSpline
210
0.0
220
0.0
230
1.0
 70
     8
 71
     3
 72
     9
 73
     5
 74
     0
 42
0.000000001
 43
0.0000000001
 40
0.0
 40
0.0
 40
0.0
 40
0.0
 40
1.0
 40
2.0
 40
2.0
 40
2.0
 40
2.0
 10
232.8666678933914
 20
586.838851189267
 30
576.2997197120512
 10
218.6777108163833
 20
600.7927679530377
 30
576.2997197120512
 10
190.3038494137736
 20
628.7047201770255
 30
576.2997197120512
 10
161.9276795865698
 20
656.6143332000587
 30
576.2997197120512
 10
147.7396710355133
 20
670.5692133928303
 30
576.2997197120512
  0
SPLINE
  5
1E1
330
1F
100
AcDbEntity
  8
Default
100
AcDbSpline
210
0.0
220
0.0
230
1.0
 70
     8
 71
     3
 72
     9
 73
     5
 74
     0
 42
0.000000001
 43
0.0000000001
 40
-2.0
 40
-2.0
 40
-2.0
 40
-2.0
 40
-1.0
 40
0.0
 40
0.0
 40
0.0
 40
0.0
 10
-163.5952324354402
 20
686.4249134925838
 30
576.2997197120512
 10
-177.5501127429852
 20
672.2369049034963
 30
576.2997197120512
 10
-205.4597255181402
 20
643.8607356832538
 30
576.2997197120512
 10
-233.3716775229004
 20
615.4868730947185
 30
576.2997197120512
 10
-247.3255946561403
 20
601.2979166558048
 30
576.2997197120512
  0
SPLINE
  5
1E2
330
1F
100
AcDbEntity
  8
Default
100
AcDbSpline
210
0.0
220
0.0
230
1.0
 70
     8
 71
     3
 72
    20
 73
    16
 74
     0
 42
0.000000001
 43
0.0000000001
 40
-13.0
 40
-13.0
 40
-13.0
 40
-13.0
 40
-12.0
 40
-11.0
 40
-10.0
 40
-9.0
 40
-8.0
 40
-7.0
 40
-6.0
 40
-5.0
 40
-4.0
 40
-3.0
 40
-2.0
 40
-1.0
 40
0.0
 40
0.0
 40
0.0
 40
0.0
 10
-247.3255946561403
 20
601.2979166558048
 30
576.2997197120512
 10
-248.5679612935189
 20
600.0346236370343
 30
576.2997197120512
 10
-252.3380154281551
 20
596.2349473732477
 30
576.2997197120512
 10
-256.1308037257463
 20
592.5130305213769
 30
576.2997197120512
 10
-259.8647878565982
 20
588.7191512137595
 30
576.2997197120512
 10
-262.8000387631678
 20
584.2401467427911
 30
576.2997197120512
 10
-264.7555959205322
 20
579.2956859803545
 30
576.2997197120512
 10
-265.0382770443971
 20
573.7376302392225
 30
576.2997197120512
 10
-261.2906255556002
 20
569.3564231789547
 30
576.2997197120512
 10
-255.6523061564385
 20
569.2274655442505
 30
576.2997197120512
 10
-250.6372471945258
 20
570.9859170720704
 30
576.2997197120512
 10
-246.0736358380325
 20
573.7964034457976
 30
576.2997197120512
 10
-242.2018631572025
 20
577.4497460070489
 30
576.2997197120512
 10
-238.4989973694173
 20
581.2623582836248
 30
576.2997197120512
 10
-234.129840586209
 20
585.5964665672362
 30
576.2997197120512
 10
-232.8665291895909
 20
586.838851189267
 30
576.2997197120512
  0
SPLINE
  5
1E3
330
1F
100
AcDbEntity
  8
Default
100
AcDbSpline
210
0.0
220
0.0
230
1.0
 70
     8
 71
     3
 72
     9
 73
     5
 74
     0
 42
0.000000001
 43
0.0000000001
 40
0.0
 40
0.0
 40
0.0
 40
0.0
 40
1.0
 40
2.0
 40
2.0
 40
2.0
 40
2.0
 10
-232.8665291895909
 20
586.838851189267
 30
576.2997197120512
 10
-218.6775721125823
 20
600.7927679530377
 30
576.2997197120512
 10
-190.3037107099735
 20
628.7047201770255
 30
576.2997197120512
 10
-161.9275408827698
 20
656.6143332000587
 30
576.2997197120512
 10
-147.7395323317132
 20
670.5692133928303
 30
576.2997197120512
  0
SPLINE
  5
1E4
330
1F
100
AcDbEntity
  8
Default
100
AcDbSpline
210
0.0
220
0.0
230
1.0
 70
    28
 71
     2
 72
     6
 73
     3
 74
     0
 42
0.000000001
 43
0.0000000001
 40
4.761170663444152
 40
4.761170663444152
 40
4.761170663444152
 40
4.792292789997686
 40
4.792292789997686
 40
4.792292789997686
 10
-151.8880358663636
 20
969.9999396169117
 30
576.2997197120512
 41
0.9999999999962923
 10
-152.165175273858
 20
970.2817500275186
 30
576.2997197120512
 41
0.9999999999979724
 10
-152.4423150137154
 20
970.5635601112698
 30
576.2997197120512
 41
1.0
  0
SPLINE
  5
1E5
330
1F
100
AcDbEntity
  8
Default
100
AcDbSpline
210
0.0
220
0.0
230
1.0
 70
    28
 71
     2
 72
     6
 73
     3
 74
     0
 42
0.000000001
 43
0.0000000001
 40
0.0
 40
0.0
 40
0.0
 40
0.0311222733603082
 40
0.0311222733603082
 40
0.0311222733603082
 10
-136.3989782254994
 20
986.6069021462475
 30
576.2997197120512
 41
1.0
 10
-136.1171666930431
 20
986.3297612204808
 30
576.2997197120512
 41
0.9999999999961511
 10
-135.8353548521745
 20
986.0526206083239
 30
576.2997197120512
 41
0.9999999999926119
  0
SPLINE
  5
1E6
330
1F
100
AcDbEntity
  8
Default
100
AcDbSpline
210
0.0
220
0.0
230
1.0
 70
    28
 71
     2
 72
     6
 73
     3
 74
     0
 42
0.000000001
 43
0.0000000001
 40
0.0
 40
0.0
 40
0.0
 40
0.0311223369417638
 40
0.0311223369417638
 40
0.0311223369417638
 10
-136.3989773296362
 20
681.7221293209303
 30
576.2997197120512
 41
1.0
 10
-136.1171485634413
 20
681.9992538730611
 30
576.2997197120512
 41
0.9999999999976727
 10
-135.8353198875938
 20
682.2763785170731
 30
576.2997197120512
 41
0.999999999995372
  0
SPLINE
  5
1E7
330
1F
100
AcDbEntity
  8
Default
100
AcDbSpline
210
0.0
220
0.0
230
1.0
 70
    12
 71
     2
 72
     8
 73
     5
 74
     0
 42
0.000000001
 43
0.0000000001
 40
0.0
 40
0.0
 40
0.0
 40
13.63205890972085
 40
13.63205890972085
 40
27.26411781944171
 40
27.26411781944171
 40
27.26411781944171
 10
0.0000693519532433
 20
613.7321839011227
 30
576.2997197120512
 41
1.0
 10
220.4324006481556
 20
613.7321839011757
 30
576.2997197120512
 41
0.7071067811865471
 10
220.432400648102
 20
834.1645151973779
 30
576.2997197120512
 41
1.0
 10
220.4324006480493
 20
1054.596846493579
 30
576.2997197120512
 41
0.7071067811865467
 10
0.0000693518477419
 20
1054.596846493526
 30
576.2997197120512
 41
1.0
  0
SPLINE
  5
1E8
330
1F
100
AcDbEntity
  8
Default
100
AcDbSpline
210
0.0
220
0.0
230
1.0
 70
    12
 71
     2
 72
     8
 73
     5
 74
     0
 42
0.000000001
 43
0.0000000001
 40
0.0
 40
0.0
 40
0.0
 40
13.63205890972085
 40
13.63205890972085
 40
27.2641178194417
 40
27.2641178194417
 40
27.2641178194417
 10
0.0000693518477419
 20
1054.596846493526
 30
576.2997197120512
 41
1.0
 10
-220.4322619443547
 20
1054.596846493473
 30
576.2997197120512
 41
0.7071067811865478
 10
-220.4322619443019
 20
834.164515197272
 30
576.2997197120512
 41
1.0
 10
-220.4322619442491
 20
613.73218390107
 30
576.2997197120512
 41
0.7071067811865478
 10
0.0000693519532433
 20
613.7321839011227
 30
576.2997197120512
 41
1.0
  0
SPLINE
  5
1E9
330
1F
100
AcDbEntity
  8
Default
100
AcDbSpline
210
0.0
220
0.0
230
1.0
 70
    15
 71
     2
 72
    12
 73
     9
 74
     0
 42
0.000000001
 43
0.0000000001
 40
0.0
 40
0.0
 40
0.0
 40
12.60147602241891
 40
12.60147602241891
 40
25.20295204483783
 40
25.20295204483783
 40
37.80442806725675
 40
37.80442806725675
 40
50.40590408967564
 40
50.40590408967564
 40
50.40590408967564
 10
-0.0000961430660027
 20
1037.932174638209
 30
576.2997197120512
 41
1.0
 10
203.7675632978189
 20
1037.932340133175
 30
576.2997197120512
 41
0.7071067811865476
 10
203.7677287927845
 20
834.1646806922907
 30
576.2997197120512
 41
1.0
 10
203.767894287751
 20
630.3970212514062
 30
576.2997197120512
 41
0.7071067811865476
 10
0.0002348468660784
 20
630.3968557564407
 30
576.2997197120512
 41
1.0
 10
-203.7674245940179
 20
630.3966902614742
 30
576.2997197120512
 41
0.7071067811865476
 10
-203.7675900889844
 20
834.1643497023586
 30
576.2997197120512
 41
1.0
 10
-203.76775558395
 20
1037.932009143244
 30
576.2997197120512
 41
0.7071067811865476
 10
-0.0000961430660027
 20
1037.932174638209
 30
576.2997197120512
 41
1.0
  0
SPLINE
  5
1EA
330
1F
100
AcDbEntity
  8
Default
100
AcDbSpline
210
0.0
220
0.0
230
1.0
 70
    15
 71
     2
 72
    12
 73
     9
 74
     0
 42
0.000000001
 43
0.0000000001
 40
0.0
 40
0.0
 40
0.0
 40
11.78097476525765
 40
11.78097476525765
 40
23.56194953051529
 40
23.56194953051529
 40
35.34292429577294
 40
35.34292429577294
 40
47.12389906103058
 40
47.12389906103058
 40
47.12389906103058
 10
-0.0000961432870099
 20
1024.664553297147
 30
576.2997197120512
 41
1.0
 10
190.499941279123
 20
1024.664732153226
 30
576.2997197120512
 41
0.7071067811865476
 10
190.5001201352015
 20
834.1646947308152
 30
576.2997197120512
 41
1.0
 10
190.5002989912809
 20
643.6646573084057
 30
576.2997197120512
 41
0.7071067811865476
 10
0.0002615688699734
 20
643.6644784523267
 30
576.2997197120512
 41
1.0
 10
-190.4997758535401
 20
643.6642995962483
 30
576.2997197120512
 41
0.7071067811865476
 10
-190.4999547096186
 20
834.1643370186583
 30
576.2997197120512
 41
1.0
 10
-190.5001335656975
 20
1024.664374441069
 30
576.2997197120512
 41
0.7071067811865476
 10
-0.0000961432870099
 20
1024.664553297147
 30
576.2997197120512
 41
1.0
  0
SPLINE
  5
1EB
330
1F
100
AcDbEntity
  8
Default
100
AcDbSpline
210
0.0
220
0.0
230
1.0
 70
    12
 71
     2
 72
     6
 73
     3
 74
     0
 42
0.000000001
 43
0.0000000001
 40
0.0117686935156192
 40
0.0117686935156192
 40
0.0117686935156192
 40
0.1338965989858833
 40
0.1338965989858833
 40
0.1338965989858833
 10
-181.8280667408389
 20
926.1416208219387
 30
576.2997197120512
 41
0.9928050207437479
 10
-183.1648858026947
 20
925.2753556051455
 30
576.2997197120512
 41
0.9590700849288174
 10
-183.8529770340883
 20
923.8386819862443
 30
576.2997197120512
 41
1.0
  0
SPLINE
  5
1EC
330
1F
100
AcDbEntity
  8
Default
100
AcDbSpline
210
0.0
220
0.0
230
1.0
 70
    12
 71
     2
 72
     8
 73
     5
 74
     0
 42
0.000000001
 43
0.0000000001
 40
0.0
 40
0.0
 40
0.0
 40
7.870388937238172
 40
7.870388937238172
 40
15.74077787447417
 40
15.74077787447417
 40
15.74077787447417
 10
-183.8529770340883
 20
923.8386819862443
 30
576.2997197120512
 41
1.0
 10
-231.5272331556252
 20
826.0952672613401
 30
576.2997197120512
 41
0.8829734150930072
 10
-177.1637368951142
 20
731.908112653295
 30
576.2997197120512
 41
1.0
 10
-122.8002406346022
 20
637.7209580452703
 30
576.2997197120512
 41
0.8829734150928628
 10
-14.31670597231368
 20
630.1096161137528
 30
576.2997197120512
 41
1.0
  0
SPLINE
  5
1ED
330
1F
100
AcDbEntity
  8
Default
100
AcDbSpline
210
-0.000000000000011
220
-0.000000000000134
230
1.0
 70
    12
 71
     2
 72
     6
 73
     3
 74
     0
 42
0.000000001
 43
0.0000000001
 40
0.0
 40
0.0
 40
0.0
 40
0.1222860980901102
 40
0.1222860980901102
 40
0.1222860980901102
 10
-14.31670597231368
 20
630.1096161137528
 30
576.2997197120512
 41
1.0
 10
-12.72244340272573
 20
629.9787785600559
 30
576.2997197120512
 41
0.9443660915446896
 10
-11.29994854953747
 20
630.7104205482594
 30
576.2997197120513
 41
0.9647222903891885
  0
SPLINE
  5
1EE
330
1F
100
AcDbEntity
  8
Default
100
AcDbSpline
210
0.0
220
0.0
230
1.0
 70
    12
 71
     2
 72
     6
 73
     3
 74
     0
 42
0.000000001
 43
0.0000000001
 40
0.013283267876232
 40
0.013283267876232
 40
0.013283267876232
 40
0.1362421782741509
 40
0.1362421782741509
 40
0.1362421782741509
 10
11.32749774787316
 20
630.7119448031961
 30
576.2997197120512
 41
0.9919353035868196
 10
12.75753178534614
 20
629.9854573870469
 30
576.2997197120512
 41
0.9586415098796043
 10
14.3564956288501
 20
630.1123271680133
 30
576.2997197120512
 41
1.0
  0
SPLINE
  5
1EF
330
1F
100
AcDbEntity
  8
Default
100
AcDbSpline
210
0.0
220
0.0
230
1.0
 70
    12
 71
     2
 72
     8
 73
     5
 74
     0
 42
0.000000001
 43
0.0000000001
 40
0.0
 40
0.0
 40
0.0
 40
7.868615559496922
 40
7.868615559496922
 40
15.73723111899384
 40
15.73723111899384
 40
15.73723111899384
 10
14.3564956288501
 20
630.1123271680133
 30
576.2997197120512
 41
1.0
 10
122.809731093339
 20
637.7427430244532
 30
576.2997197120512
 41
0.8830251182217258
 10
177.161215214589
 20
731.9034763620583
 30
576.2997197120512
 41
1.0
 10
231.5126993358381
 20
826.064209699663
 30
576.2997197120512
 41
0.8830251182217264
 10
183.8751568400821
 20
923.7933868875588
 30
576.2997197120512
 41
1.0
  0
SPLINE
  5
1F0
330
1F
100
AcDbEntity
  8
Default
100
AcDbSpline
210
0.0
220
0.0
230
1.0
 70
    12
 71
     2
 72
     6
 73
     3
 74
     0
 42
0.000000001
 43
0.0000000001
 40
0.0
 40
0.0
 40
0.0
 40
0.1225959064184418
 40
0.1225959064184418
 40
0.1225959064184418
 10
183.8751568400821
 20
923.7933868875588
 30
576.2997197120512
 41
1.0
 10
183.1836448774756
 20
925.2337858544585
 30
576.2997197120512
 41
0.9609699793776979
 10
181.8456527344142
 20
926.1071214161869
 30
576.2997197120512
 41
0.9955579475786183
  0
SPLINE
  5
1F1
330
1F
100
AcDbEntity
  8
Default
100
AcDbSpline
210
0.0
220
0.0
230
1.0
 70
    12
 71
     2
 72
     6
 73
     3
 74
     0
 42
0.000000001
 43
0.0000000001
 40
0.0
 40
0.0
 40
0.0
 40
0.0094211670328261
 40
0.0094211670328261
 40
0.0094211670328261
 10
170.5397136061883
 20
945.4648047900562
 30
576.2997197120512
 41
1.0
 10
170.5378148397603
 20
945.5831062269457
 30
576.2997197120512
 41
0.9969965108799083
 10
170.5310643270231
 20
945.7012301697421
 30
576.2997197120512
 41
0.9944206388810783
  0
SPLINE
  5
1F2
330
1F
100
AcDbEntity
  8
Default
100
AcDbSpline
210
0.0
220
0.0
230
1.0
 70
    12
 71
     2
 72
     6
 73
     3
 74
     0
 42
0.000000001
 43
0.0000000001
 40
0.0094211670328261
 40
0.0094211670328261
 40
0.0094211670328261
 40
0.1323444327869086
 40
0.1323444327869086
 40
0.1323444327869086
 10
170.5310643270231
 20
945.7012301697421
 30
576.2997197120512
 41
0.9944206388810783
 10
170.4396695320438
 20
947.3005032848272
 30
576.2997197120512
 41
0.9608117879651095
 10
169.5363852587379
 20
948.6234186361551
 30
576.2997197120512
 41
1.0
  0
SPLINE
  5
1F3
330
1F
100
AcDbEntity
  8
Default
100
AcDbSpline
210
0.0
220
0.0
230
1.0
 70
    12
 71
     2
 72
     8
 73
     5
 74
     0
 42
0.000000001
 43
0.0000000001
 40
0.0
 40
0.0
 40
0.0
 40
7.86861959126793
 40
7.86861959126793
 40
15.73723918253356
 40
15.73723918253356
 40
15.73723918253356
 10
169.5363852587379
 20
948.6234186361551
 30
576.2997197120512
 41
1.0
 10
108.7017174781021
 20
1038.731605102312
 30
576.2997197120512
 41
0.8830249864055181
 10
-0.0196785837015341
 20
1038.721089753611
 30
576.2997197120512
 41
1.0
 10
-108.7410746454852
 20
1038.710574404898
 30
576.2997197120512
 41
0.8830249864053662
 10
-169.5583110666712
 20
948.590621973234
 30
576.2997197120512
 41
1.0
  0
SPLINE
  5
1F4
330
1F
100
AcDbEntity
  8
Default
100
AcDbSpline
210
0.0
220
0.0
230
1.0
 70
    12
 71
     2
 72
     6
 73
     3
 74
     0
 42
0.000000001
 43
0.0000000001
 40
0.0
 40
0.0
 40
0.0
 40
0.1225327071870427
 40
0.1225327071870427
 40
0.1225327071870427
 10
-169.5583110666712
 20
948.590621973234
 30
576.2997197120512
 41
1.0
 10
-170.4551032162198
 20
947.2703260244987
 30
576.2997197120512
 41
0.9618249334825435
 10
-170.5468356476731
 20
945.676901186999
 30
576.2997197120512
 41
0.9957312157002915
  0
SPLINE
  5
1F5
330
1F
100
AcDbEntity
  8
Default
100
AcDbSpline
210
0.0
220
0.0
230
1.0
 70
    28
 71
     2
 72
     6
 73
     3
 74
     0
 42
0.000000001
 43
0.0000000001
 40
5.420481043178389
 40
5.420481043178389
 40
5.420481043178389
 40
5.451604536017915
 40
5.451604536017915
 40
5.451604536017915
 10
151.8881745701728
 20
698.3290907777472
 30
576.2997197120512
 41
0.9999999999962922
 10
152.1653261443089
 20
698.0472679954435
 30
576.2997197120512
 41
0.9999999999979721
 10
152.4424780508379
 20
697.7654455400246
 30
576.2997197120512
 41
1.0
  0
SPLINE
  5
1F6
330
1F
100
AcDbEntity
  8
Default
100
AcDbSpline
210
0.0
220
0.0
230
1.0
 70
    28
 71
     2
 72
     6
 73
     3
 74
     0
 42
0.000000001
 43
0.0000000001
 40
0.0
 40
0.0
 40
0.0
 40
0.0311237416119354
 40
0.0311237416119354
 40
0.0311237416119354
 10
136.3991413925905
 20
681.7221042360214
 30
576.2997197120512
 41
1.0
 10
136.1172998949287
 20
681.9992412841915
 30
576.2997197120512
 41
0.9999999999976651
 10
135.8354584877661
 20
682.2763784243969
 30
576.2997197120512
 41
0.9999999999953567
  0
SPLINE
  5
1F7
330
1F
100
AcDbEntity
  8
Default
100
AcDbSpline
210
0.0
220
0.0
230
1.0
 70
    28
 71
     2
 72
     6
 73
     3
 74
     0
 42
0.000000001
 43
0.0000000001
 40
0.0
 40
0.0
 40
0.0
 40
0.0311243604747063
 40
0.0311243604747063
 40
0.0311243604747063
 10
152.4424918268123
 20
970.5635989445763
 30
576.2997197120512
 41
1.0
 10
152.165345343602
 20
970.2817557017327
 30
576.2997197120512
 41
0.999999999999898
 10
151.8881988398798
 20
969.9999124790583
 30
576.2997197120512
 41
0.9999999999997973
  0
SPLINE
  5
1F8
330
1F
100
AcDbEntity
  8
Default
100
AcDbSpline
210
0.0
220
0.0
230
1.0
 70
    28
 71
     2
 72
     6
 73
     3
 74
     0
 42
0.000000001
 43
0.0000000001
 40
0.0
 40
0.0
 40
0.0
 40
0.0311243086895068
 40
0.0311243086895068
 40
0.0311243086895068
 10
136.3991517415425
 20
986.6069361900652
 30
576.2997197120512
 41
1.0
 10
136.1173051201758
 20
986.3297940807637
 30
576.2997197120512
 41
0.9999999999976726
 10
135.8354585891666
 20
986.052651879569
 30
576.2997197120512
 41
0.9999999999953718
  0
SPLINE
  5
1FA
330
1F
100
AcDbEntity
  8
Default
100
AcDbSpline
210
0.0
220
0.0
230
1.0
 70
    28
 71
     2
 72
     6
 73
     3
 74
     0
 42
0.000000001
 43
0.0000000001
 40
0.0
 40
0.0
 40
0.0
 40
0.0311225103432869
 40
0.0311225103432869
 40
0.0311225103432869
 10
-152.4423196806674
 20
-697.7654654546064
 30
576.2997197120512
 41
1.0
 10
-152.1651935961727
 20
-698.047295802509
 30
576.2997197120512
 41
0.9999999999976651
 10
-151.8880674196498
 20
-698.3291260599186
 30
576.2997197120512
 41
0.9999999999953569
  0
SPLINE
  5
1FB
330
1F
100
AcDbEntity
  8
Default
100
AcDbSpline
210
0.0
220
0.0
230
1.0
 70
     8
 71
     3
 72
     9
 73
     5
 74
     0
 42
0.000000001
 43
0.0000000001
 40
-2.0
 40
-2.0
 40
-2.0
 40
-2.0
 40
-1.0
 40
0.0
 40
0.0
 40
0.0
 40
0.0
 10
-163.5952324354402
 20
-981.9041169020657
 30
576.2997197120512
 10
-177.5501127429852
 20
-996.0921254911532
 30
576.2997197120512
 10
-205.4597255181402
 20
-1024.468294711396
 30
576.2997197120512
 10
-233.3716775229004
 20
-1052.842157299931
 30
576.2997197120512
 10
-247.3255946561403
 20
-1067.031113738845
 30
576.2997197120512
  0
SPLINE
  5
1FC
330
1F
100
AcDbEntity
  8
Default
100
AcDbSpline
210
0.0
220
0.0
230
1.0
 70
     8
 71
     3
 72
    20
 73
    16
 74
     0
 42
0.000000001
 43
0.0000000001
 40
-13.0
 40
-13.0
 40
-13.0
 40
-13.0
 40
-12.0
 40
-11.0
 40
-10.0
 40
-9.0
 40
-8.0
 40
-7.0
 40
-6.0
 40
-5.0
 40
-4.0
 40
-3.0
 40
-2.0
 40
-1.0
 40
0.0
 40
0.0
 40
0.0
 40
0.0
 10
-247.3255946561403
 20
-1067.031113738845
 30
576.2997197120512
 10
-248.5679612935189
 20
-1068.294406757615
 30
576.2997197120512
 10
-252.3380154281551
 20
-1072.094083021402
 30
576.2997197120512
 10
-256.1308037257463
 20
-1075.815999873272
 30
576.2997197120512
 10
-259.8647878565982
 20
-1079.60987918089
 30
576.2997197120512
 10
-262.8000387631678
 20
-1084.088883651858
 30
576.2997197120512
 10
-264.7555959205322
 20
-1089.033344414295
 30
576.2997197120512
 10
-265.0382770443971
 20
-1094.591400155427
 30
576.2997197120512
 10
-261.2906255556002
 20
-1098.972607215695
 30
576.2997197120512
 10
-255.6523061564385
 20
-1099.101564850399
 30
576.2997197120512
 10
-250.6372471945258
 20
-1097.343113322579
 30
576.2997197120512
 10
-246.0736358380325
 20
-1094.532626948852
 30
576.2997197120512
 10
-242.2018631572025
 20
-1090.879284387601
 30
576.2997197120512
 10
-238.4989973694173
 20
-1087.066672111025
 30
576.2997197120512
 10
-234.129840586209
 20
-1082.732563827413
 30
576.2997197120512
 10
-232.8665291895909
 20
-1081.490179205383
 30
576.2997197120512
  0
SPLINE
  5
1FD
330
1F
100
AcDbEntity
  8
Default
100
AcDbSpline
210
0.0
220
0.0
230
1.0
 70
     8
 71
     3
 72
     9
 73
     5
 74
     0
 42
0.000000001
 43
0.0000000001
 40
0.0
 40
0.0
 40
0.0
 40
0.0
 40
1.0
 40
2.0
 40
2.0
 40
2.0
 40
2.0
 10
-232.8665291895909
 20
-1081.490179205383
 30
576.2997197120512
 10
-218.6775721125823
 20
-1067.536262441612
 30
576.2997197120512
 10
-190.3037107099735
 20
-1039.624310217624
 30
576.2997197120512
 10
-161.9275408827698
 20
-1011.714697194591
 30
576.2997197120512
 10
-147.7395323317132
 20
-997.7598170018197
 30
576.2997197120512
  0
SPLINE
  5
1FE
330
1F
100
AcDbEntity
  8
Default
100
AcDbSpline
210
0.0
220
0.0
230
1.0
 70
     8
 71
     3
 72
     9
 73
     5
 74
     0
 42
0.000000001
 43
0.0000000001
 40
-2.0
 40
-2.0
 40
-2.0
 40
-2.0
 40
-1.0
 40
0.0
 40
0.0
 40
0.0
 40
0.0
 10
163.5953711392412
 20
-981.9041169020657
 30
576.2997197120512
 10
177.5502514467862
 20
-996.0921254911532
 30
576.2997197120512
 10
205.4598642219407
 20
-1024.468294711396
 30
576.2997197120512
 10
233.3718162267014
 20
-1052.842157299931
 30
576.2997197120512
 10
247.3257333599404
 20
-1067.031113738845
 30
576.2997197120512
  0
SPLINE
  5
1FF
330
1F
100
AcDbEntity
  8
Default
100
AcDbSpline
210
0.0
220
0.0
230
1.0
 70
     8
 71
     3
 72
    20
 73
    16
 74
     0
 42
0.000000001
 43
0.0000000001
 40
-13.0
 40
-13.0
 40
-13.0
 40
-13.0
 40
-12.0
 40
-11.0
 40
-10.0
 40
-9.0
 40
-8.0
 40
-7.0
 40
-6.0
 40
-5.0
 40
-4.0
 40
-3.0
 40
-2.0
 40
-1.0
 40
0.0
 40
0.0
 40
0.0
 40
0.0
 10
247.3257333599404
 20
-1067.031113738845
 30
576.2997197120512
 10
248.5680999973192
 20
-1068.294406757615
 30
576.2997197120512
 10
252.3381541319559
 20
-1072.094083021402
 30
576.2997197120512
 10
256.1309424295469
 20
-1075.815999873272
 30
576.2997197120512
 10
259.864926560399
 20
-1079.60987918089
 30
576.2997197120512
 10
262.8001774669683
 20
-1084.088883651858
 30
576.2997197120512
 10
264.7557346243329
 20
-1089.033344414295
 30
576.2997197120512
 10
265.0384157481976
 20
-1094.591400155427
 30
576.2997197120512
 10
261.2907642594009
 20
-1098.972607215695
 30
576.2997197120512
 10
255.6524448602395
 20
-1099.101564850399
 30
576.2997197120512
 10
250.6373858983261
 20
-1097.343113322579
 30
576.2997197120512
 10
246.0737745418328
 20
-1094.532626948852
 30
576.2997197120512
 10
242.2020018610028
 20
-1090.879284387601
 30
576.2997197120512
 10
238.4991360732174
 20
-1087.066672111025
 30
576.2997197120512
 10
234.129979290009
 20
-1082.732563827413
 30
576.2997197120512
 10
232.8666678933914
 20
-1081.490179205383
 30
576.2997197120512
  0
SPLINE
  5
200
330
1F
100
AcDbEntity
  8
Default
100
AcDbSpline
210
0.0
220
0.0
230
1.0
 70
     8
 71
     3
 72
     9
 73
     5
 74
     0
 42
0.000000001
 43
0.0000000001
 40
0.0
 40
0.0
 40
0.0
 40
0.0
 40
1.0
 40
2.0
 40
2.0
 40
2.0
 40
2.0
 10
232.8666678933914
 20
-1081.490179205383
 30
576.2997197120512
 10
218.6777108163833
 20
-1067.536262441612
 30
576.2997197120512
 10
190.3038494137736
 20
-1039.624310217624
 30
576.2997197120512
 10
161.9276795865698
 20
-1011.714697194591
 30
576.2997197120512
 10
147.7396710355133
 20
-997.7598170018197
 30
576.2997197120512
  0
SPLINE
  5
201
330
1F
100
AcDbEntity
  8
Default
100
AcDbSpline
210
0.0
220
0.0
230
1.0
 70
     8
 71
     3
 72
     9
 73
     5
 74
     0
 42
0.000000001
 43
0.0000000001
 40
-2.0
 40
-2.0
 40
-2.0
 40
-2.0
 40
-1.0
 40
0.0
 40
0.0
 40
0.0
 40
0.0
 10
163.5953711392412
 20
-686.4249134925838
 30
576.2997197120512
 10
177.5502514467862
 20
-672.2369049034965
 30
576.2997197120512
 10
205.4598642219407
 20
-643.8607356832541
 30
576.2997197120512
 10
233.3718162267014
 20
-615.4868730947186
 30
576.2997197120512
 10
247.3257333599404
 20
-601.297916655805
 30
576.2997197120512
  0
SPLINE
  5
202
330
1F
100
AcDbEntity
  8
Default
100
AcDbSpline
210
0.0
220
0.0
230
1.0
 70
     8
 71
     3
 72
    20
 73
    16
 74
     0
 42
0.000000001
 43
0.0000000001
 40
-13.0
 40
-13.0
 40
-13.0
 40
-13.0
 40
-12.0
 40
-11.0
 40
-10.0
 40
-9.0
 40
-8.0
 40
-7.0
 40
-6.0
 40
-5.0
 40
-4.0
 40
-3.0
 40
-2.0
 40
-1.0
 40
0.0
 40
0.0
 40
0.0
 40
0.0
 10
247.3257333599404
 20
-601.297916655805
 30
576.2997197120512
 10
248.5680999973192
 20
-600.0346236370344
 30
576.2997197120512
 10
252.3381541319559
 20
-596.234947373248
 30
576.2997197120512
 10
256.1309424295469
 20
-592.513030521377
 30
576.2997197120512
 10
259.864926560399
 20
-588.7191512137596
 30
576.2997197120512
 10
262.8001774669683
 20
-584.2401467427913
 30
576.2997197120512
 10
264.7557346243329
 20
-579.2956859803545
 30
576.2997197120512
 10
265.0384157481976
 20
-573.7376302392227
 30
576.2997197120512
 10
261.2907642594009
 20
-569.3564231789548
 30
576.2997197120512
 10
255.6524448602395
 20
-569.2274655442505
 30
576.2997197120512
 10
250.6373858983261
 20
-570.9859170720704
 30
576.2997197120512
 10
246.0737745418328
 20
-573.7964034457978
 30
576.2997197120512
 10
242.2020018610028
 20
-577.449746007049
 30
576.2997197120512
 10
238.4991360732174
 20
-581.2623582836249
 30
576.2997197120512
 10
234.129979290009
 20
-585.5964665672364
 30
576.2997197120512
 10
232.8666678933914
 20
-586.838851189267
 30
576.2997197120512
  0
SPLINE
  5
203
330
1F
100
AcDbEntity
  8
Default
100
AcDbSpline
210
0.0
220
0.0
230
1.0
 70
     8
 71
     3
 72
     9
 73
     5
 74
     0
 42
0.000000001
 43
0.0000000001
 40
0.0
 40
0.0
 40
0.0
 40
0.0
 40
1.0
 40
2.0
 40
2.0
 40
2.0
 40
2.0
 10
232.8666678933914
 20
-586.838851189267
 30
576.2997197120512
 10
218.6777108163833
 20
-600.7927679530378
 30
576.2997197120512
 10
190.3038494137736
 20
-628.7047201770255
 30
576.2997197120512
 10
161.9276795865698
 20
-656.6143332000587
 30
576.2997197120512
 10
147.7396710355133
 20
-670.5692133928303
 30
576.2997197120512
  0
SPLINE
  5
204
330
1F
100
AcDbEntity
  8
Default
100
AcDbSpline
210
0.0
220
0.0
230
1.0
 70
     8
 71
     3
 72
     9
 73
     5
 74
     0
 42
0.000000001
 43
0.0000000001
 40
-2.0
 40
-2.0
 40
-2.0
 40
-2.0
 40
-1.0
 40
0.0
 40
0.0
 40
0.0
 40
0.0
 10
-163.5952324354402
 20
-686.4249134925838
 30
576.2997197120512
 10
-177.5501127429852
 20
-672.2369049034965
 30
576.2997197120512
 10
-205.4597255181402
 20
-643.8607356832541
 30
576.2997197120512
 10
-233.3716775229004
 20
-615.4868730947186
 30
576.2997197120512
 10
-247.3255946561403
 20
-601.297916655805
 30
576.2997197120512
  0
SPLINE
  5
205
330
1F
100
AcDbEntity
  8
Default
100
AcDbSpline
210
0.0
220
0.0
230
1.0
 70
     8
 71
     3
 72
    20
 73
    16
 74
     0
 42
0.000000001
 43
0.0000000001
 40
-13.0
 40
-13.0
 40
-13.0
 40
-13.0
 40
-12.0
 40
-11.0
 40
-10.0
 40
-9.0
 40
-8.0
 40
-7.0
 40
-6.0
 40
-5.0
 40
-4.0
 40
-3.0
 40
-2.0
 40
-1.0
 40
0.0
 40
0.0
 40
0.0
 40
0.0
 10
-247.3255946561403
 20
-601.297916655805
 30
576.2997197120512
 10
-248.5679612935189
 20
-600.0346236370344
 30
576.2997197120512
 10
-252.3380154281551
 20
-596.234947373248
 30
576.2997197120512
 10
-256.1308037257463
 20
-592.513030521377
 30
576.2997197120512
 10
-259.8647878565982
 20
-588.7191512137596
 30
576.2997197120512
 10
-262.8000387631678
 20
-584.2401467427913
 30
576.2997197120512
 10
-264.7555959205322
 20
-579.2956859803545
 30
576.2997197120512
 10
-265.0382770443971
 20
-573.7376302392227
 30
576.2997197120512
 10
-261.2906255556002
 20
-569.3564231789548
 30
576.2997197120512
 10
-255.6523061564385
 20
-569.2274655442505
 30
576.2997197120512
 10
-250.6372471945258
 20
-570.9859170720704
 30
576.2997197120512
 10
-246.0736358380325
 20
-573.7964034457978
 30
576.2997197120512
 10
-242.2018631572025
 20
-577.449746007049
 30
576.2997197120512
 10
-238.4989973694173
 20
-581.2623582836249
 30
576.2997197120512
 10
-234.129840586209
 20
-585.5964665672364
 30
576.2997197120512
 10
-232.8665291895909
 20
-586.838851189267
 30
576.2997197120512
  0
SPLINE
  5
206
330
1F
100
AcDbEntity
  8
Default
100
AcDbSpline
210
0.0
220
0.0
230
1.0
 70
     8
 71
     3
 72
     9
 73
     5
 74
     0
 42
0.000000001
 43
0.0000000001
 40
0.0
 40
0.0
 40
0.0
 40
0.0
 40
1.0
 40
2.0
 40
2.0
 40
2.0
 40
2.0
 10
-232.8665291895909
 20
-586.838851189267
 30
576.2997197120512
 10
-218.6775721125823
 20
-600.7927679530378
 30
576.2997197120512
 10
-190.3037107099735
 20
-628.7047201770255
 30
576.2997197120512
 10
-161.9275408827698
 20
-656.6143332000587
 30
576.2997197120512
 10
-147.7395323317132
 20
-670.5692133928303
 30
576.2997197120512
  0
SPLINE
  5
207
330
1F
100
AcDbEntity
  8
Default
100
AcDbSpline
210
0.0
220
0.0
230
1.0
 70
    28
 71
     2
 72
     6
 73
     3
 74
     0
 42
0.000000001
 43
0.0000000001
 40
4.761170663444152
 40
4.761170663444152
 40
4.761170663444152
 40
4.792292789997686
 40
4.792292789997686
 40
4.792292789997686
 10
-151.8880358663636
 20
-969.999939616912
 30
576.2997197120512
 41
0.9999999999962923
 10
-152.165175273858
 20
-970.2817500275186
 30
576.2997197120512
 41
0.9999999999979724
 10
-152.4423150137154
 20
-970.56356011127
 30
576.2997197120512
 41
1.0
  0
SPLINE
  5
208
330
1F
100
AcDbEntity
  8
Default
100
AcDbSpline
210
0.0
220
0.0
230
1.0
 70
    28
 71
     2
 72
     6
 73
     3
 74
     0
 42
0.000000001
 43
0.0000000001
 40
0.0
 40
0.0
 40
0.0
 40
0.0311222733603082
 40
0.0311222733603082
 40
0.0311222733603082
 10
-136.3989782254994
 20
-986.6069021462475
 30
576.2997197120512
 41
1.0
 10
-136.1171666930431
 20
-986.3297612204808
 30
576.2997197120512
 41
0.9999999999961511
 10
-135.8353548521745
 20
-986.0526206083239
 30
576.2997197120512
 41
0.9999999999926119
  0
SPLINE
  5
209
330
1F
100
AcDbEntity
  8
Default
100
AcDbSpline
210
0.0
220
0.0
230
1.0
 70
    28
 71
     2
 72
     6
 73
     3
 74
     0
 42
0.000000001
 43
0.0000000001
 40
0.0
 40
0.0
 40
0.0
 40
0.0311223369417638
 40
0.0311223369417638
 40
0.0311223369417638
 10
-136.3989773296362
 20
-681.7221293209303
 30
576.2997197120512
 41
1.0
 10
-136.1171485634413
 20
-681.9992538730613
 30
576.2997197120512
 41
0.9999999999976727
 10
-135.8353198875938
 20
-682.2763785170733
 30
576.2997197120512
 41
0.999999999995372
  0
SPLINE
  5
20A
330
1F
100
AcDbEntity
  8
Default
100
AcDbSpline
210
0.0
220
0.0
230
1.0
 70
    12
 71
     2
 72
     8
 73
     5
 74
     0
 42
0.000000001
 43
0.0000000001
 40
0.0
 40
0.0
 40
0.0
 40
13.63205890972085
 40
13.63205890972085
 40
27.26411781944171
 40
27.26411781944171
 40
27.26411781944171
 10
0.0000693519532433
 20
-613.732183901123
 30
576.2997197120512
 41
1.0
 10
220.4324006481556
 20
-613.7321839011758
 30
576.2997197120512
 41
0.7071067811865471
 10
220.432400648102
 20
-834.1645151973779
 30
576.2997197120512
 41
1.0
 10
220.4324006480493
 20
-1054.596846493579
 30
576.2997197120512
 41
0.7071067811865467
 10
0.0000693518477419
 20
-1054.596846493526
 30
576.2997197120512
 41
1.0
  0
SPLINE
  5
20B
330
1F
100
AcDbEntity
  8
Default
100
AcDbSpline
210
0.0
220
0.0
230
1.0
 70
    12
 71
     2
 72
     8
 73
     5
 74
     0
 42
0.000000001
 43
0.0000000001
 40
0.0
 40
0.0
 40
0.0
 40
13.63205890972085
 40
13.63205890972085
 40
27.2641178194417
 40
27.2641178194417
 40
27.2641178194417
 10
0.0000693518477419
 20
-1054.596846493526
 30
576.2997197120512
 41
1.0
 10
-220.4322619443547
 20
-1054.596846493473
 30
576.2997197120512
 41
0.7071067811865478
 10
-220.4322619443019
 20
-834.164515197272
 30
576.2997197120512
 41
1.0
 10
-220.4322619442491
 20
-613.7321839010701
 30
576.2997197120512
 41
0.7071067811865478
 10
0.0000693519532433
 20
-613.732183901123
 30
576.2997197120512
 41
1.0
  0
SPLINE
  5
20C
330
1F
100
AcDbEntity
  8
Default
100
AcDbSpline
210
0.0
220
0.0
230
1.0
 70
    15
 71
     2
 72
    12
 73
     9
 74
     0
 42
0.000000001
 43
0.0000000001
 40
0.0
 40
0.0
 40
0.0
 40
12.60147602241891
 40
12.60147602241891
 40
25.20295204483783
 40
25.20295204483783
 40
37.80442806725675
 40
37.80442806725675
 40
50.40590408967564
 40
50.40590408967564
 40
50.40590408967564
 10
-0.0000961430660027
 20
-1037.932174638209
 30
576.2997197120512
 41
1.0
 10
203.7675632978189
 20
-1037.932340133175
 30
576.2997197120512
 41
0.7071067811865476
 10
203.7677287927845
 20
-834.1646806922909
 30
576.2997197120512
 41
1.0
 10
203.767894287751
 20
-630.3970212514065
 30
576.2997197120512
 41
0.7071067811865476
 10
0.0002348468660784
 20
-630.3968557564407
 30
576.2997197120512
 41
1.0
 10
-203.7674245940179
 20
-630.3966902614742
 30
576.2997197120512
 41
0.7071067811865476
 10
-203.7675900889844
 20
-834.1643497023589
 30
576.2997197120512
 41
1.0
 10
-203.76775558395
 20
-1037.932009143244
 30
576.2997197120512
 41
0.7071067811865476
 10
-0.0000961430660027
 20
-1037.932174638209
 30
576.2997197120512
 41
1.0
  0
SPLINE
  5
20D
330
1F
100
AcDbEntity
  8
Default
100
AcDbSpline
210
0.0
220
0.0
230
1.0
 70
    15
 71
     2
 72
    12
 73
     9
 74
     0
 42
0.000000001
 43
0.0000000001
 40
0.0
 40
0.0
 40
0.0
 40
11.78097476525765
 40
11.78097476525765
 40
23.56194953051529
 40
23.56194953051529
 40
35.34292429577294
 40
35.34292429577294
 40
47.12389906103058
 40
47.12389906103058
 40
47.12389906103058
 10
-0.0000961432870099
 20
-1024.664553297147
 30
576.2997197120512
 41
1.0
 10
190.499941279123
 20
-1024.664732153226
 30
576.2997197120512
 41
0.7071067811865476
 10
190.5001201352015
 20
-834.1646947308156
 30
576.2997197120512
 41
1.0
 10
190.5002989912809
 20
-643.6646573084057
 30
576.2997197120512
 41
0.7071067811865476
 10
0.0002615688699734
 20
-643.6644784523269
 30
576.2997197120512
 41
1.0
 10
-190.4997758535401
 20
-643.6642995962483
 30
576.2997197120512
 41
0.7071067811865476
 10
-190.4999547096186
 20
-834.1643370186584
 30
576.2997197120512
 41
1.0
 10
-190.5001335656975
 20
-1024.664374441068
 30
576.2997197120512
 41
0.7071067811865476
 10
-0.0000961432870099
 20
-1024.664553297147
 30
576.2997197120512
 41
1.0
  0
SPLINE
  5
20E
330
1F
100
AcDbEntity
  8
Default
100
AcDbSpline
210
0.0
220
0.0
230
1.0
 70
    12
 71
     2
 72
     6
 73
     3
 74
     0
 42
0.000000001
 43
0.0000000001
 40
0.0117686935156192
 40
0.0117686935156192
 40
0.0117686935156192
 40
0.1338965989858833
 40
0.1338965989858833
 40
0.1338965989858833
 10
-181.8280667408389
 20
-926.141620821939
 30
576.2997197120512
 41
0.9928050207437479
 10
-183.1648858026947
 20
-925.2753556051457
 30
576.2997197120512
 41
0.9590700849288174
 10
-183.8529770340883
 20
-923.8386819862443
 30
576.2997197120512
 41
1.0
  0
SPLINE
  5
20F
330
1F
100
AcDbEntity
  8
Default
100
AcDbSpline
210
0.0
220
0.0
230
1.0
 70
    12
 71
     2
 72
     8
 73
     5
 74
     0
 42
0.000000001
 43
0.0000000001
 40
0.0
 40
0.0
 40
0.0
 40
7.870388937238172
 40
7.870388937238172
 40
15.74077787447417
 40
15.74077787447417
 40
15.74077787447417
 10
-183.8529770340883
 20
-923.8386819862443
 30
576.2997197120512
 41
1.0
 10
-231.5272331556252
 20
-826.0952672613404
 30
576.2997197120512
 41
0.8829734150930072
 10
-177.1637368951142
 20
-731.908112653295
 30
576.2997197120512
 41
1.0
 10
-122.8002406346022
 20
-637.7209580452704
 30
576.2997197120512
 41
0.8829734150928628
 10
-14.31670597231368
 20
-630.1096161137528
 30
576.2997197120512
 41
1.0
  0
SPLINE
  5
210
330
1F
100
AcDbEntity
  8
Default
100
AcDbSpline
210
-0.000000000000011
220
0.000000000000134
230
1.0
 70
    12
 71
     2
 72
     6
 73
     3
 74
     0
 42
0.000000001
 43
0.0000000001
 40
0.0
 40
0.0
 40
0.0
 40
0.1222860980901102
 40
0.1222860980901102
 40
0.1222860980901102
 10
-14.31670597231368
 20
-630.1096161137528
 30
576.2997197120512
 41
1.0
 10
-12.72244340272573
 20
-629.978778560056
 30
576.2997197120512
 41
0.9443660915446896
 10
-11.29994854953747
 20
-630.7104205482594
 30
576.2997197120513
 41
0.9647222903891885
  0
SPLINE
  5
211
330
1F
100
AcDbEntity
  8
Default
100
AcDbSpline
210
0.0
220
0.0
230
1.0
 70
    12
 71
     2
 72
     6
 73
     3
 74
     0
 42
0.000000001
 43
0.0000000001
 40
0.013283267876232
 40
0.013283267876232
 40
0.013283267876232
 40
0.1362421782741509
 40
0.1362421782741509
 40
0.1362421782741509
 10
11.32749774787316
 20
-630.7119448031963
 30
576.2997197120512
 41
0.9919353035868196
 10
12.75753178534614
 20
-629.9854573870469
 30
576.2997197120512
 41
0.9586415098796043
 10
14.3564956288501
 20
-630.1123271680133
 30
576.2997197120512
 41
1.0
  0
SPLINE
  5
212
330
1F
100
AcDbEntity
  8
Default
100
AcDbSpline
210
0.0
220
0.0
230
1.0
 70
    12
 71
     2
 72
     8
 73
     5
 74
     0
 42
0.000000001
 43
0.0000000001
 40
0.0
 40
0.0
 40
0.0
 40
7.868615559496922
 40
7.868615559496922
 40
15.73723111899384
 40
15.73723111899384
 40
15.73723111899384
 10
14.3564956288501
 20
-630.1123271680133
 30
576.2997197120512
 41
1.0
 10
122.809731093339
 20
-637.7427430244532
 30
576.2997197120512
 41
0.8830251182217258
 10
177.161215214589
 20
-731.9034763620583
 30
576.2997197120512
 41
1.0
 10
231.5126993358381
 20
-826.0642096996631
 30
576.2997197120512
 41
0.8830251182217264
 10
183.8751568400821
 20
-923.7933868875588
 30
576.2997197120512
 41
1.0
  0
SPLINE
  5
213
330
1F
100
AcDbEntity
  8
Default
100
AcDbSpline
210
0.0
220
0.0
230
1.0
 70
    12
 71
     2
 72
     6
 73
     3
 74
     0
 42
0.000000001
 43
0.0000000001
 40
0.0
 40
0.0
 40
0.0
 40
0.1225959064184418
 40
0.1225959064184418
 40
0.1225959064184418
 10
183.8751568400821
 20
-923.7933868875588
 30
576.2997197120512
 41
1.0
 10
183.1836448774756
 20
-925.2337858544585
 30
576.2997197120512
 41
0.9609699793776979
 10
181.8456527344142
 20
-926.1071214161871
 30
576.2997197120512
 41
0.9955579475786183
  0
SPLINE
  5
214
330
1F
100
AcDbEntity
  8
Default
100
AcDbSpline
210
0.0
220
0.0
230
1.0
 70
    12
 71
     2
 72
     6
 73
     3
 74
     0
 42
0.000000001
 43
0.0000000001
 40
0.0
 40
0.0
 40
0.0
 40
0.0094211670328261
 40
0.0094211670328261
 40
0.0094211670328261
 10
170.5397136061883
 20
-945.4648047900565
 30
576.2997197120512
 41
1.0
 10
170.5378148397603
 20
-945.5831062269458
 30
576.2997197120512
 41
0.9969965108799083
 10
170.5310643270231
 20
-945.7012301697425
 30
576.2997197120512
 41
0.9944206388810783
  0
SPLINE
  5
215
330
1F
100
AcDbEntity
  8
Default
100
AcDbSpline
210
0.0
220
0.0
230
1.0
 70
    12
 71
     2
 72
     6
 73
     3
 74
     0
 42
0.000000001
 43
0.0000000001
 40
0.0094211670328261
 40
0.0094211670328261
 40
0.0094211670328261
 40
0.1323444327869086
 40
0.1323444327869086
 40
0.1323444327869086
 10
170.5310643270231
 20
-945.7012301697425
 30
576.2997197120512
 41
0.9944206388810783
 10
170.4396695320438
 20
-947.3005032848273
 30
576.2997197120512
 41
0.9608117879651095
 10
169.5363852587379
 20
-948.6234186361555
 30
576.2997197120512
 41
1.0
  0
SPLINE
  5
216
330
1F
100
AcDbEntity
  8
Default
100
AcDbSpline
210
0.0
220
0.0
230
1.0
 70
    12
 71
     2
 72
     8
 73
     5
 74
     0
 42
0.000000001
 43
0.0000000001
 40
0.0
 40
0.0
 40
0.0
 40
7.86861959126793
 40
7.86861959126793
 40
15.73723918253356
 40
15.73723918253356
 40
15.73723918253356
 10
169.5363852587379
 20
-948.6234186361555
 30
576.2997197120512
 41
1.0
 10
108.7017174781021
 20
-1038.731605102312
 30
576.2997197120512
 41
0.8830249864055181
 10
-0.0196785837015341
 20
-1038.721089753611
 30
576.2997197120512
 41
1.0
 10
-108.7410746454852
 20
-1038.710574404898
 30
576.2997197120512
 41
0.8830249864053662
 10
-169.5583110666712
 20
-948.590621973234
 30
576.2997197120512
 41
1.0
  0
SPLINE
  5
217
330
1F
100
AcDbEntity
  8
Default
100
AcDbSpline
210
0.0
220
0.0
230
1.0
 70
    12
 71
     2
 72
     6
 73
     3
 74
     0
 42
0.000000001
 43
0.0000000001
 40
0.0
 40
0.0
 40
0.0
 40
0.1225327071870427
 40
0.1225327071870427
 40
0.1225327071870427
 10
-169.5583110666712
 20
-948.590621973234
 30
576.2997197120512
 41
1.0
 10
-170.4551032162198
 20
-947.2703260244987
 30
576.2997197120512
 41
0.9618249334825435
 10
-170.5468356476731
 20
-945.6769011869992
 30
576.2997197120512
 41
0.9957312157002915
  0
SPLINE
  5
218
330
1F
100
AcDbEntity
  8
Default
100
AcDbSpline
210
0.0
220
0.0
230
1.0
 70
    28
 71
     2
 72
     6
 73
     3
 74
     0
 42
0.000000001
 43
0.0000000001
 40
5.420481043178389
 40
5.420481043178389
 40
5.420481043178389
 40
5.451604536017915
 40
5.451604536017915
 40
5.451604536017915
 10
151.8881745701728
 20
-698.3290907777472
 30
576.2997197120512
 41
0.9999999999962922
 10
152.1653261443089
 20
-698.0472679954435
 30
576.2997197120512
 41
0.9999999999979721
 10
152.4424780508379
 20
-697.7654455400248
 30
576.2997197120512
 41
1.0
  0
SPLINE
  5
219
330
1F
100
AcDbEntity
  8
Default
100
AcDbSpline
210
0.0
220
0.0
230
1.0
 70
    28
 71
     2
 72
     6
 73
     3
 74
     0
 42
0.000000001
 43
0.0000000001
 40
0.0
 40
0.0
 40
0.0
 40
0.0311237416119354
 40
0.0311237416119354
 40
0.0311237416119354
 10
136.3991413925905
 20
-681.7221042360216
 30
576.2997197120512
 41
1.0
 10
136.1172998949287
 20
-681.9992412841915
 30
576.2997197120512
 41
0.9999999999976651
 10
135.8354584877661
 20
-682.2763784243969
 30
576.2997197120512
 41
0.9999999999953567
  0
SPLINE
  5
21A
330
1F
100
AcDbEntity
  8
Default
100
AcDbSpline
210
0.0
220
0.0
230
1.0
 70
    28
 71
     2
 72
     6
 73
     3
 74
     0
 42
0.000000001
 43
0.0000000001
 40
0.0
 40
0.0
 40
0.0
 40
0.0311243604747063
 40
0.0311243604747063
 40
0.0311243604747063
 10
152.4424918268123
 20
-970.5635989445765
 30
576.2997197120512
 41
1.0
 10
152.165345343602
 20
-970.2817557017327
 30
576.2997197120512
 41
0.999999999999898
 10
151.8881988398798
 20
-969.9999124790583
 30
576.2997197120512
 41
0.9999999999997973
  0
SPLINE
  5
21B
330
1F
100
AcDbEntity
  8
Default
100
AcDbSpline
210
0.0
220
0.0
230
1.0
 70
    28
 71
     2
 72
     6
 73
     3
 74
     0
 42
0.000000001
 43
0.0000000001
 40
0.0
 40
0.0
 40
0.0
 40
0.0311243086895068
 40
0.0311243086895068
 40
0.0311243086895068
 10
136.3991517415425
 20
-986.6069361900654
 30
576.2997197120512
 41
1.0
 10
136.1173051201758
 20
-986.3297940807637
 30
576.2997197120512
 41
0.9999999999976726
 10
135.8354585891666
 20
-986.0526518795692
 30
576.2997197120512
 41
0.9999999999953718
  0
SPLINE
  5
21C
330
1F
100
AcDbEntity
  8
Default
100
AcDbSpline
210
0.0
220
0.0
230
1.0
 70
    28
 71
     2
 72
     6
 73
     3
 74
     0
 42
0.000000001
 43
0.0000000001
 40
0.0
 40
0.0
 40
0.0
 40
0.0311225103432869
 40
0.0311225103432869
 40
0.0311225103432869
 10
697.7654654546068
 20
-152.442319680668
 30
576.2997197120512
 41
1.0
 10
698.0472958025093
 20
-152.1651935961732
 30
576.2997197120512
 41
0.9999999999976651
 10
698.3291260599189
 20
-151.8880674196499
 30
576.2997197120512
 41
0.9999999999953569
  0
SPLINE
  5
21D
330
1F
100
AcDbEntity
  8
Default
100
AcDbSpline
210
0.0
220
0.0
230
1.0
 70
     8
 71
     3
 72
     9
 73
     5
 74
     0
 42
0.000000001
 43
0.0000000001
 40
-2.0
 40
-2.0
 40
-2.0
 40
-2.0
 40
-1.0
 40
0.0
 40
0.0
 40
0.0
 40
0.0
 10
981.9041169020657
 20
-163.5952324354409
 30
576.2997197120512
 10
996.0921254911536
 20
-177.5501127429859
 30
576.2997197120512
 10
1024.468294711396
 20
-205.4597255181406
 30
576.2997197120512
 10
1052.842157299931
 20
-233.3716775229011
 30
576.2997197120512
 10
1067.031113738845
 20
-247.3255946561408
 30
576.2997197120512
  0
SPLINE
  5
21E
330
1F
100
AcDbEntity
  8
Default
100
AcDbSpline
210
0.0
220
0.0
230
1.0
 70
     8
 71
     3
 72
    20
 73
    16
 74
     0
 42
0.000000001
 43
0.0000000001
 40
-13.0
 40
-13.0
 40
-13.0
 40
-13.0
 40
-12.0
 40
-11.0
 40
-10.0
 40
-9.0
 40
-8.0
 40
-7.0
 40
-6.0
 40
-5.0
 40
-4.0
 40
-3.0
 40
-2.0
 40
-1.0
 40
0.0
 40
0.0
 40
0.0
 40
0.0
 10
1067.031113738845
 20
-247.3255946561408
 30
576.2997197120512
 10
1068.294406757615
 20
-248.5679612935194
 30
576.2997197120512
 10
1072.094083021402
 20
-252.3380154281556
 30
576.2997197120512
 10
1075.815999873272
 20
-256.1308037257468
 30
576.2997197120512
 10
1079.60987918089
 20
-259.8647878565987
 30
576.2997197120512
 10
1084.088883651859
 20
-262.8000387631682
 30
576.2997197120512
 10
1089.033344414295
 20
-264.7555959205326
 30
576.2997197120512
 10
1094.591400155427
 20
-265.0382770443975
 30
576.2997197120512
 10
1098.972607215695
 20
-261.2906255556006
 30
576.2997197120512
 10
1099.1015648504
 20
-255.6523061564389
 30
576.2997197120512
 10
1097.343113322579
 20
-250.6372471945263
 30
576.2997197120512
 10
1094.532626948852
 20
-246.073635838033
 30
576.2997197120512
 10
1090.879284387601
 20
-242.201863157203
 30
576.2997197120512
 10
1087.066672111025
 20
-238.4989973694178
 30
576.2997197120512
 10
1082.732563827413
 20
-234.1298405862092
 30
576.2997197120512
 10
1081.490179205383
 20
-232.8665291895914
 30
576.2997197120512
  0
SPLINE
  5
21F
330
1F
100
AcDbEntity
  8
Default
100
AcDbSpline
210
0.0
220
0.0
230
1.0
 70
     8
 71
     3
 72
     9
 73
     5
 74
     0
 42
0.000000001
 43
0.0000000001
 40
0.0
 40
0.0
 40
0.0
 40
0.0
 40
1.0
 40
2.0
 40
2.0
 40
2.0
 40
2.0
 10
1081.490179205383
 20
-232.8665291895914
 30
576.2997197120512
 10
1067.536262441612
 20
-218.677572112583
 30
576.2997197120512
 10
1039.624310217624
 20
-190.303710709974
 30
576.2997197120512
 10
1011.714697194591
 20
-161.92754088277
 30
576.2997197120512
 10
997.75981700182
 20
-147.7395323317134
 30
576.2997197120512
  0
SPLINE
  5
220
330
1F
100
AcDbEntity
  8
Default
100
AcDbSpline
210
0.0
220
0.0
230
1.0
 70
     8
 71
     3
 72
     9
 73
     5
 74
     0
 42
0.000000001
 43
0.0000000001
 40
-2.0
 40
-2.0
 40
-2.0
 40
-2.0
 40
-1.0
 40
0.0
 40
0.0
 40
0.0
 40
0.0
 10
981.9041169020657
 20
163.5953711392405
 30
576.2997197120512
 10
996.0921254911536
 20
177.5502514467855
 30
576.2997197120512
 10
1024.468294711396
 20
205.4598642219401
 30
576.2997197120512
 10
1052.842157299931
 20
233.3718162267008
 30
576.2997197120512
 10
1067.031113738845
 20
247.3257333599402
 30
576.2997197120512
  0
SPLINE
  5
221
330
1F
100
AcDbEntity
  8
Default
100
AcDbSpline
210
0.0
220
0.0
230
1.0
 70
     8
 71
     3
 72
    20
 73
    16
 74
     0
 42
0.000000001
 43
0.0000000001
 40
-13.0
 40
-13.0
 40
-13.0
 40
-13.0
 40
-12.0
 40
-11.0
 40
-10.0
 40
-9.0
 40
-8.0
 40
-7.0
 40
-6.0
 40
-5.0
 40
-4.0
 40
-3.0
 40
-2.0
 40
-1.0
 40
0.0
 40
0.0
 40
0.0
 40
0.0
 10
1067.031113738845
 20
247.3257333599402
 30
576.2997197120512
 10
1068.294406757615
 20
248.568099997319
 30
576.2997197120512
 10
1072.094083021402
 20
252.3381541319552
 30
576.2997197120512
 10
1075.815999873273
 20
256.1309424295466
 30
576.2997197120512
 10
1079.609879180891
 20
259.8649265603983
 30
576.2997197120512
 10
1084.088883651859
 20
262.8001774669681
 30
576.2997197120512
 10
1089.033344414295
 20
264.7557346243323
 30
576.2997197120512
 10
1094.591400155427
 20
265.0384157481969
 30
576.2997197120512
 10
1098.972607215695
 20
261.2907642594002
 30
576.2997197120512
 10
1099.1015648504
 20
255.6524448602388
 30
576.2997197120512
 10
1097.343113322579
 20
250.6373858983259
 30
576.2997197120512
 10
1094.532626948852
 20
246.0737745418326
 30
576.2997197120512
 10
1090.879284387601
 20
242.2020018610026
 30
576.2997197120512
 10
1087.066672111025
 20
238.4991360732172
 30
576.2997197120512
 10
1082.732563827413
 20
234.1299792900088
 30
576.2997197120512
 10
1081.490179205383
 20
232.8666678933912
 30
576.2997197120512
  0
SPLINE
  5
222
330
1F
100
AcDbEntity
  8
Default
100
AcDbSpline
210
0.0
220
0.0
230
1.0
 70
     8
 71
     3
 72
     9
 73
     5
 74
     0
 42
0.000000001
 43
0.0000000001
 40
0.0
 40
0.0
 40
0.0
 40
0.0
 40
1.0
 40
2.0
 40
2.0
 40
2.0
 40
2.0
 10
1081.490179205383
 20
232.8666678933912
 30
576.2997197120512
 10
1067.536262441612
 20
218.6777108163826
 30
576.2997197120512
 10
1039.624310217624
 20
190.3038494137734
 30
576.2997197120512
 10
1011.714697194591
 20
161.9276795865696
 30
576.2997197120512
 10
997.75981700182
 20
147.7396710355131
 30
576.2997197120512
  0
SPLINE
  5
223
330
1F
100
AcDbEntity
  8
Default
100
AcDbSpline
210
0.0
220
0.0
230
1.0
 70
     8
 71
     3
 72
     9
 73
     5
 74
     0
 42
0.000000001
 43
0.0000000001
 40
-2.0
 40
-2.0
 40
-2.0
 40
-2.0
 40
-1.0
 40
0.0
 40
0.0
 40
0.0
 40
0.0
 10
686.424913492584
 20
163.5953711392408
 30
576.2997197120512
 10
672.2369049034969
 20
177.5502514467857
 30
576.2997197120512
 10
643.8607356832545
 20
205.4598642219403
 30
576.2997197120512
 10
615.4868730947192
 20
233.371816226701
 30
576.2997197120512
 10
601.2979166558052
 20
247.3257333599404
 30
576.2997197120512
  0
SPLINE
  5
224
330
1F
100
AcDbEntity
  8
Default
100
AcDbSpline
210
0.0
220
0.0
230
1.0
 70
     8
 71
     3
 72
    20
 73
    16
 74
     0
 42
0.000000001
 43
0.0000000001
 40
-13.0
 40
-13.0
 40
-13.0
 40
-13.0
 40
-12.0
 40
-11.0
 40
-10.0
 40
-9.0
 40
-8.0
 40
-7.0
 40
-6.0
 40
-5.0
 40
-4.0
 40
-3.0
 40
-2.0
 40
-1.0
 40
0.0
 40
0.0
 40
0.0
 40
0.0
 10
601.2979166558052
 20
247.3257333599404
 30
576.2997197120512
 10
600.0346236370346
 20
248.5680999973192
 30
576.2997197120512
 10
596.2349473732484
 20
252.3381541319555
 30
576.2997197120512
 10
592.5130305213774
 20
256.1309424295469
 30
576.2997197120512
 10
588.7191512137596
 20
259.8649265603985
 30
576.2997197120512
 10
584.2401467427917
 20
262.8001774669683
 30
576.2997197120512
 10
579.2956859803548
 20
264.7557346243325
 30
576.2997197120512
 10
573.7376302392231
 20
265.0384157481972
 30
576.2997197120512
 10
569.356423178955
 20
261.2907642594005
 30
576.2997197120512
 10
569.2274655442506
 20
255.652444860239
 30
576.2997197120512
 10
570.9859170720711
 20
250.6373858983261
 30
576.2997197120512
 10
573.7964034457982
 20
246.0737745418328
 30
576.2997197120512
 10
577.4497460070493
 20
242.2020018610028
 30
576.2997197120512
 10
581.2623582836249
 20
238.4991360732174
 30
576.2997197120512
 10
585.5964665672368
 20
234.129979290009
 30
576.2997197120512
 10
586.8388511892671
 20
232.8666678933914
 30
576.2997197120512
  0
SPLINE
  5
225
330
1F
100
AcDbEntity
  8
Default
100
AcDbSpline
210
0.0
220
0.0
230
1.0
 70
     8
 71
     3
 72
     9
 73
     5
 74
     0
 42
0.000000001
 43
0.0000000001
 40
0.0
 40
0.0
 40
0.0
 40
0.0
 40
1.0
 40
2.0
 40
2.0
 40
2.0
 40
2.0
 10
586.8388511892671
 20
232.8666678933914
 30
576.2997197120512
 10
600.792767953038
 20
218.6777108163828
 30
576.2997197120512
 10
628.7047201770255
 20
190.3038494137736
 30
576.2997197120512
 10
656.6143332000592
 20
161.9276795865698
 30
576.2997197120512
 10
670.5692133928305
 20
147.7396710355133
 30
576.2997197120512
  0
SPLINE
  5
226
330
1F
100
AcDbEntity
  8
Default
100
AcDbSpline
210
0.0
220
0.0
230
1.0
 70
     8
 71
     3
 72
     9
 73
     5
 74
     0
 42
0.000000001
 43
0.0000000001
 40
-2.0
 40
-2.0
 40
-2.0
 40
-2.0
 40
-1.0
 40
0.0
 40
0.0
 40
0.0
 40
0.0
 10
686.424913492584
 20
-163.5952324354408
 30
576.2997197120512
 10
672.2369049034969
 20
-177.5501127429858
 30
576.2997197120512
 10
643.8607356832545
 20
-205.4597255181406
 30
576.2997197120512
 10
615.4868730947192
 20
-233.371677522901
 30
576.2997197120512
 10
601.2979166558052
 20
-247.3255946561407
 30
576.2997197120512
  0
SPLINE
  5
227
330
1F
100
AcDbEntity
  8
Default
100
AcDbSpline
210
0.0
220
0.0
230
1.0
 70
     8
 71
     3
 72
    20
 73
    16
 74
     0
 42
0.000000001
 43
0.0000000001
 40
-13.0
 40
-13.0
 40
-13.0
 40
-13.0
 40
-12.0
 40
-11.0
 40
-10.0
 40
-9.0
 40
-8.0
 40
-7.0
 40
-6.0
 40
-5.0
 40
-4.0
 40
-3.0
 40
-2.0
 40
-1.0
 40
0.0
 40
0.0
 40
0.0
 40
0.0
 10
601.2979166558052
 20
-247.3255946561407
 30
576.2997197120512
 10
600.0346236370346
 20
-248.5679612935193
 30
576.2997197120512
 10
596.2349473732484
 20
-252.3380154281555
 30
576.2997197120512
 10
592.513030521377
 20
-256.1308037257467
 30
576.2997197120512
 10
588.7191512137596
 20
-259.8647878565986
 30
576.2997197120512
 10
584.2401467427917
 20
-262.8000387631681
 30
576.2997197120512
 10
579.2956859803548
 20
-264.7555959205325
 30
576.2997197120512
 10
573.7376302392231
 20
-265.0382770443974
 30
576.2997197120512
 10
569.356423178955
 20
-261.2906255556005
 30
576.2997197120512
 10
569.2274655442506
 20
-255.6523061564389
 30
576.2997197120512
 10
570.9859170720705
 20
-250.6372471945261
 30
576.2997197120512
 10
573.7964034457982
 20
-246.0736358380328
 30
576.2997197120512
 10
577.4497460070493
 20
-242.2018631572029
 30
576.2997197120512
 10
581.2623582836249
 20
-238.4989973694177
 30
576.2997197120512
 10
585.5964665672363
 20
-234.1298405862091
 30
576.2997197120512
 10
586.8388511892671
 20
-232.8665291895912
 30
576.2997197120512
  0
SPLINE
  5
228
330
1F
100
AcDbEntity
  8
Default
100
AcDbSpline
210
0.0
220
0.0
230
1.0
 70
     8
 71
     3
 72
     9
 73
     5
 74
     0
 42
0.000000001
 43
0.0000000001
 40
0.0
 40
0.0
 40
0.0
 40
0.0
 40
1.0
 40
2.0
 40
2.0
 40
2.0
 40
2.0
 10
586.8388511892671
 20
-232.8665291895912
 30
576.2997197120512
 10
600.792767953038
 20
-218.6775721125829
 30
576.2997197120512
 10
628.7047201770255
 20
-190.3037107099738
 30
576.2997197120512
 10
656.6143332000588
 20
-161.9275408827699
 30
576.2997197120512
 10
670.5692133928305
 20
-147.7395323317133
 30
576.2997197120512
  0
SPLINE
  5
229
330
1F
100
AcDbEntity
  8
Default
100
AcDbSpline
210
0.0
220
0.0
230
1.0
 70
    28
 71
     2
 72
     6
 73
     3
 74
     0
 42
0.000000001
 43
0.0000000001
 40
4.761170663444152
 40
4.761170663444152
 40
4.761170663444152
 40
4.792292789997686
 40
4.792292789997686
 40
4.792292789997686
 10
969.9999396169124
 20
-151.8880358663639
 30
576.2997197120512
 41
0.9999999999962923
 10
970.2817500275186
 20
-152.1651752738582
 30
576.2997197120512
 41
0.9999999999979724
 10
970.56356011127
 20
-152.4423150137156
 30
576.2997197120512
 41
1.0
  0
SPLINE
  5
22A
330
1F
100
AcDbEntity
  8
Default
100
AcDbSpline
210
0.0
220
0.0
230
1.0
 70
    28
 71
     2
 72
     6
 73
     3
 74
     0
 42
0.000000001
 43
0.0000000001
 40
0.0
 40
0.0
 40
0.0
 40
0.0311222733603082
 40
0.0311222733603082
 40
0.0311222733603082
 10
986.6069021462481
 20
-136.3989782255
 30
576.2997197120512
 41
1.0
 10
986.3297612204815
 20
-136.1171666930433
 30
576.2997197120512
 41
0.9999999999961511
 10
986.0526206083241
 20
-135.8353548521747
 30
576.2997197120512
 41
0.9999999999926119
  0
SPLINE
  5
22B
330
1F
100
AcDbEntity
  8
Default
100
AcDbSpline
210
0.0
220
0.0
230
1.0
 70
    28
 71
     2
 72
     6
 73
     3
 74
     0
 42
0.000000001
 43
0.0000000001
 40
0.0
 40
0.0
 40
0.0
 40
0.0311223369417638
 40
0.0311223369417638
 40
0.0311223369417638
 10
681.7221293209304
 20
-136.3989773296367
 30
576.2997197120512
 41
1.0
 10
681.9992538730612
 20
-136.1171485634419
 30
576.2997197120512
 41
0.9999999999976727
 10
682.2763785170736
 20
-135.835319887594
 30
576.2997197120512
 41
0.999999999995372
  0
SPLINE
  5
22C
330
1F
100
AcDbEntity
  8
Default
100
AcDbSpline
210
0.0
220
0.0
230
1.0
 70
    12
 71
     2
 72
     8
 73
     5
 74
     0
 42
0.000000001
 43
0.0000000001
 40
0.0
 40
0.0
 40
0.0
 40
13.63205890972085
 40
13.63205890972085
 40
27.26411781944171
 40
27.26411781944171
 40
27.26411781944171
 10
613.7321839011228
 20
0.0000693519531296
 30
576.2997197120512
 41
1.0
 10
613.7321839011761
 20
220.4324006481552
 30
576.2997197120512
 41
0.7071067811865471
 10
834.164515197378
 20
220.4324006481018
 30
576.2997197120512
 41
1.0
 10
1054.596846493579
 20
220.432400648049
 30
576.2997197120512
 41
0.7071067811865467
 10
1054.596846493526
 20
0.0000693518470598
 30
576.2997197120512
 41
1.0
  0
SPLINE
  5
22D
330
1F
100
AcDbEntity
  8
Default
100
AcDbSpline
210
0.0
220
0.0
230
1.0
 70
    12
 71
     2
 72
     8
 73
     5
 74
     0
 42
0.000000001
 43
0.0000000001
 40
0.0
 40
0.0
 40
0.0
 40
13.63205890972085
 40
13.63205890972085
 40
27.2641178194417
 40
27.2641178194417
 40
27.2641178194417
 10
1054.596846493526
 20
0.0000693518470598
 30
576.2997197120512
 41
1.0
 10
1054.596846493474
 20
-220.4322619443551
 30
576.2997197120512
 41
0.7071067811865478
 10
834.1645151972725
 20
-220.432261944302
 30
576.2997197120512
 41
1.0
 10
613.7321839010701
 20
-220.4322619442493
 30
576.2997197120512
 41
0.7071067811865478
 10
613.7321839011228
 20
0.0000693519531296
 30
576.2997197120512
 41
1.0
  0
SPLINE
  5
22E
330
1F
100
AcDbEntity
  8
Default
100
AcDbSpline
210
0.0
220
0.0
230
1.0
 70
    15
 71
     2
 72
    12
 73
     9
 74
     0
 42
0.000000001
 43
0.0000000001
 40
0.0
 40
0.0
 40
0.0
 40
12.60147602241891
 40
12.60147602241891
 40
25.20295204483783
 40
25.20295204483783
 40
37.80442806725675
 40
37.80442806725675
 40
50.40590408967564
 40
50.40590408967564
 40
50.40590408967564
 10
1037.932174638209
 20
-0.0000961430662301
 30
576.2997197120512
 41
1.0
 10
1037.932340133176
 20
203.7675632978182
 30
576.2997197120512
 41
0.7071067811865476
 10
834.1646806922907
 20
203.7677287927843
 30
576.2997197120512
 41
1.0
 10
630.3970212514068
 20
203.7678942877505
 30
576.2997197120512
 41
0.7071067811865476
 10
630.3968557564412
 20
0.0002348468659648
 30
576.2997197120512
 41
1.0
 10
630.3966902614742
 20
-203.7674245940185
 30
576.2997197120512
 41
0.7071067811865476
 10
834.1643497023587
 20
-203.7675900889845
 30
576.2997197120512
 41
1.0
 10
1037.932009143243
 20
-203.7677555839507
 30
576.2997197120512
 41
0.7071067811865476
 10
1037.932174638209
 20
-0.0000961430662301
 30
576.2997197120512
 41
1.0
  0
SPLINE
  5
22F
330
1F
100
AcDbEntity
  8
Default
100
AcDbSpline
210
0.0
220
0.0
230
1.0
 70
    15
 71
     2
 72
    12
 73
     9
 74
     0
 42
0.000000001
 43
0.0000000001
 40
0.0
 40
0.0
 40
0.0
 40
11.78097476525765
 40
11.78097476525765
 40
23.56194953051529
 40
23.56194953051529
 40
35.34292429577294
 40
35.34292429577294
 40
47.12389906103058
 40
47.12389906103058
 40
47.12389906103058
 10
1024.664553297148
 20
-0.0000961432872373
 30
576.2997197120512
 41
1.0
 10
1024.664732153226
 20
190.4999412791227
 30
576.2997197120512
 41
0.7071067811865476
 10
834.1646947308154
 20
190.5001201352013
 30
576.2997197120512
 41
1.0
 10
643.6646573084062
 20
190.5002989912805
 30
576.2997197120512
 41
0.7071067811865476
 10
643.6644784523268
 20
0.0002615688698597
 30
576.2997197120512
 41
1.0
 10
643.6642995962484
 20
-190.4997758535404
 30
576.2997197120512
 41
0.7071067811865476
 10
834.1643370186584
 20
-190.4999547096189
 30
576.2997197120512
 41
1.0
 10
1024.664374441069
 20
-190.500133565698
 30
576.2997197120512
 41
0.7071067811865476
 10
1024.664553297148
 20
-0.0000961432872373
 30
576.2997197120512
 41
1.0
  0
SPLINE
  5
230
330
1F
100
AcDbEntity
  8
Default
100
AcDbSpline
210
0.0
220
0.0
230
1.0
 70
    12
 71
     2
 72
     6
 73
     3
 74
     0
 42
0.000000001
 43
0.0000000001
 40
0.0117686935156192
 40
0.0117686935156192
 40
0.0117686935156192
 40
0.1338965989858833
 40
0.1338965989858833
 40
0.1338965989858833
 10
926.1416208219388
 20
-181.8280667408396
 30
576.2997197120512
 41
0.9928050207437479
 10
925.2753556051457
 20
-183.1648858026954
 30
576.2997197120512
 41
0.9590700849288174
 10
923.8386819862444
 20
-183.8529770340885
 30
576.2997197120512
 41
1.0
  0
SPLINE
  5
231
330
1F
100
AcDbEntity
  8
Default
100
AcDbSpline
210
0.0
220
0.0
230
1.0
 70
    12
 71
     2
 72
     8
 73
     5
 74
     0
 42
0.000000001
 43
0.0000000001
 40
0.0
 40
0.0
 40
0.0
 40
7.870388937238172
 40
7.870388937238172
 40
15.74077787447417
 40
15.74077787447417
 40
15.74077787447417
 10
923.8386819862444
 20
-183.8529770340885
 30
576.2997197120512
 41
1.0
 10
826.0952672613408
 20
-231.5272331556256
 30
576.2997197120512
 41
0.8829734150930072
 10
731.9081126532956
 20
-177.1637368951147
 30
576.2997197120512
 41
1.0
 10
637.7209580452704
 20
-122.8002406346028
 30
576.2997197120512
 41
0.8829734150928628
 10
630.1096161137529
 20
-14.3167059723138
 30
576.2997197120512
 41
1.0
  0
SPLINE
  5
232
330
1F
100
AcDbEntity
  8
Default
100
AcDbSpline
210
-0.000000000000134
220
-0.000000000000011
230
1.0
 70
    12
 71
     2
 72
     6
 73
     3
 74
     0
 42
0.000000001
 43
0.0000000001
 40
0.0
 40
0.0
 40
0.0
 40
0.1222860980901102
 40
0.1222860980901102
 40
0.1222860980901102
 10
630.1096161137529
 20
-14.3167059723138
 30
576.2997197120512
 41
1.0
 10
629.9787785600565
 20
-12.72244340272584
 30
576.2997197120512
 41
0.9443660915446896
 10
630.7104205482601
 20
-11.29994854953804
 30
576.2997197120513
 41
0.9647222903891885
  0
SPLINE
  5
233
330
1F
100
AcDbEntity
  8
Default
100
AcDbSpline
210
0.0
220
0.0
230
1.0
 70
    12
 71
     2
 72
     6
 73
     3
 74
     0
 42
0.000000001
 43
0.0000000001
 40
0.013283267876232
 40
0.013283267876232
 40
0.013283267876232
 40
0.1362421782741509
 40
0.1362421782741509
 40
0.1362421782741509
 10
630.7119448031962
 20
11.32749774787305
 30
576.2997197120512
 41
0.9919353035868196
 10
629.985457387047
 20
12.75753178534603
 30
576.2997197120512
 41
0.9586415098796043
 10
630.1123271680134
 20
14.35649562884998
 30
576.2997197120512
 41
1.0
  0
SPLINE
  5
234
330
1F
100
AcDbEntity
  8
Default
100
AcDbSpline
210
0.0
220
0.0
230
1.0
 70
    12
 71
     2
 72
     8
 73
     5
 74
     0
 42
0.000000001
 43
0.0000000001
 40
0.0
 40
0.0
 40
0.0
 40
7.868615559496922
 40
7.868615559496922
 40
15.73723111899384
 40
15.73723111899384
 40
15.73723111899384
 10
630.1123271680134
 20
14.35649562884998
 30
576.2997197120512
 41
1.0
 10
637.7427430244538
 20
122.8097310933385
 30
576.2997197120512
 41
0.8830251182217258
 10
731.9034763620584
 20
177.1612152145883
 30
576.2997197120512
 41
1.0
 10
826.0642096996635
 20
231.5126993358374
 30
576.2997197120512
 41
0.8830251182217264
 10
923.7933868875588
 20
183.8751568400819
 30
576.2997197120512
 41
1.0
  0
SPLINE
  5
235
330
1F
100
AcDbEntity
  8
Default
100
AcDbSpline
210
0.0
220
0.0
230
1.0
 70
    12
 71
     2
 72
     6
 73
     3
 74
     0
 42
0.000000001
 43
0.0000000001
 40
0.0
 40
0.0
 40
0.0
 40
0.1225959064184418
 40
0.1225959064184418
 40
0.1225959064184418
 10
923.7933868875588
 20
183.8751568400819
 30
576.2997197120512
 41
1.0
 10
925.2337858544589
 20
183.1836448774754
 30
576.2997197120512
 41
0.9609699793776979
 10
926.1071214161875
 20
181.845652734414
 30
576.2997197120512
 41
0.9955579475786183
  0
SPLINE
  5
236
330
1F
100
AcDbEntity
  8
Default
100
AcDbSpline
210
0.0
220
0.0
230
1.0
 70
    12
 71
     2
 72
     6
 73
     3
 74
     0
 42
0.000000001
 43
0.0000000001
 40
0.0
 40
0.0
 40
0.0
 40
0.0094211670328261
 40
0.0094211670328261
 40
0.0094211670328261
 10
945.4648047900564
 20
170.5397136061881
 30
576.2997197120512
 41
1.0
 10
945.5831062269462
 20
170.5378148397601
 30
576.2997197120512
 41
0.9969965108799083
 10
945.7012301697423
 20
170.5310643270229
 30
576.2997197120512
 41
0.9944206388810783
  0
SPLINE
  5
237
330
1F
100
AcDbEntity
  8
Default
100
AcDbSpline
210
0.0
220
0.0
230
1.0
 70
    12
 71
     2
 72
     6
 73
     3
 74
     0
 42
0.000000001
 43
0.0000000001
 40
0.0094211670328261
 40
0.0094211670328261
 40
0.0094211670328261
 40
0.1323444327869086
 40
0.1323444327869086
 40
0.1323444327869086
 10
945.7012301697423
 20
170.5310643270229
 30
576.2997197120512
 41
0.9944206388810783
 10
947.3005032848277
 20
170.4396695320436
 30
576.2997197120512
 41
0.9608117879651095
 10
948.6234186361553
 20
169.5363852587377
 30
576.2997197120512
 41
1.0
  0
SPLINE
  5
238
330
1F
100
AcDbEntity
  8
Default
100
AcDbSpline
210
0.0
220
0.0
230
1.0
 70
    12
 71
     2
 72
     8
 73
     5
 74
     0
 42
0.000000001
 43
0.0000000001
 40
0.0
 40
0.0
 40
0.0
 40
7.86861959126793
 40
7.86861959126793
 40
15.73723918253356
 40
15.73723918253356
 40
15.73723918253356
 10
948.6234186361553
 20
169.5363852587377
 30
576.2997197120512
 41
1.0
 10
1038.731605102313
 20
108.7017174781015
 30
576.2997197120512
 41
0.8830249864055181
 10
1038.721089753611
 20
-0.0196785837017615
 30
576.2997197120512
 41
1.0
 10
1038.710574404898
 20
-108.7410746454859
 30
576.2997197120512
 41
0.8830249864053662
 10
948.5906219732342
 20
-169.5583110666718
 30
576.2997197120512
 41
1.0
  0
SPLINE
  5
239
330
1F
100
AcDbEntity
  8
Default
100
AcDbSpline
210
0.0
220
0.0
230
1.0
 70
    12
 71
     2
 72
     6
 73
     3
 74
     0
 42
0.000000001
 43
0.0000000001
 40
0.0
 40
0.0
 40
0.0
 40
0.1225327071870427
 40
0.1225327071870427
 40
0.1225327071870427
 10
948.5906219732342
 20
-169.5583110666718
 30
576.2997197120512
 41
1.0
 10
947.2703260244989
 20
-170.45510321622
 30
576.2997197120512
 41
0.9618249334825435
 10
945.6769011869992
 20
-170.5468356476738
 30
576.2997197120512
 41
0.9957312157002915
  0
SPLINE
  5
23A
330
1F
100
AcDbEntity
  8
Default
100
AcDbSpline
210
0.0
220
0.0
230
1.0
 70
    28
 71
     2
 72
     6
 73
     3
 74
     0
 42
0.000000001
 43
0.0000000001
 40
5.420481043178389
 40
5.420481043178389
 40
5.420481043178389
 40
5.451604536017915
 40
5.451604536017915
 40
5.451604536017915
 10
698.3290907777472
 20
151.8881745701724
 30
576.2997197120512
 41
0.9999999999962922
 10
698.0472679954437
 20
152.1653261443084
 30
576.2997197120512
 41
0.9999999999979721
 10
697.7654455400251
 20
152.4424780508379
 30
576.2997197120512
 41
1.0
  0
SPLINE
  5
23B
330
1F
100
AcDbEntity
  8
Default
100
AcDbSpline
210
0.0
220
0.0
230
1.0
 70
    28
 71
     2
 72
     6
 73
     3
 74
     0
 42
0.000000001
 43
0.0000000001
 40
0.0
 40
0.0
 40
0.0
 40
0.0311237416119354
 40
0.0311237416119354
 40
0.0311237416119354
 10
681.7221042360215
 20
136.3991413925901
 30
576.2997197120512
 41
1.0
 10
681.999241284192
 20
136.1172998949282
 30
576.2997197120512
 41
0.9999999999976651
 10
682.2763784243971
 20
135.8354584877656
 30
576.2997197120512
 41
0.9999999999953567
  0
SPLINE
  5
23C
330
1F
100
AcDbEntity
  8
Default
100
AcDbSpline
210
0.0
220
0.0
230
1.0
 70
    28
 71
     2
 72
     6
 73
     3
 74
     0
 42
0.000000001
 43
0.0000000001
 40
0.0
 40
0.0
 40
0.0
 40
0.0311243604747063
 40
0.0311243604747063
 40
0.0311243604747063
 10
970.5635989445763
 20
152.4424918268116
 30
576.2997197120512
 41
1.0
 10
970.2817557017333
 20
152.1653453436013
 30
576.2997197120512
 41
0.999999999999898
 10
969.9999124790583
 20
151.8881988398796
 30
576.2997197120512
 41
0.9999999999997973
  0
SPLINE
  5
23D
330
1F
100
AcDbEntity
  8
Default
100
AcDbSpline
210
0.0
220
0.0
230
1.0
 70
    28
 71
     2
 72
     6
 73
     3
 74
     0
 42
0.000000001
 43
0.0000000001
 40
0.0
 40
0.0
 40
0.0
 40
0.0311243086895068
 40
0.0311243086895068
 40
0.0311243086895068
 10
986.6069361900654
 20
136.3991517415422
 30
576.2997197120512
 41
1.0
 10
986.3297940807642
 20
136.1173051201751
 30
576.2997197120512
 41
0.9999999999976726
 10
986.0526518795696
 20
135.8354585891659
 30
576.2997197120512
 41
0.9999999999953718
  0
SPLINE
  5
23E
330
1F
100
AcDbEntity
  8
Default
100
AcDbSpline
210
0.0
220
0.0
230
1.0
 70
    28
 71
     2
 72
     6
 73
     3
 74
     0
 42
0.000000001
 43
0.0000000001
 40
0.0
 40
0.0
 40
0.0
 40
0.0311225103432869
 40
0.0311225103432869
 40
0.0311225103432869
 10
-697.7654654546063
 20
-152.4423196806677
 30
576.2997197120512
 41
1.0
 10
-698.0472958025089
 20
-152.165193596173
 30
576.2997197120512
 41
0.9999999999976651
 10
-698.3291260599185
 20
-151.8880674196497
 30
576.2997197120512
 41
0.9999999999953569
  0
SPLINE
  5
23F
330
1F
100
AcDbEntity
  8
Default
100
AcDbSpline
210
0.0
220
0.0
230
1.0
 70
     8
 71
     3
 72
     9
 73
     5
 74
     0
 42
0.000000001
 43
0.0000000001
 40
-2.0
 40
-2.0
 40
-2.0
 40
-2.0
 40
-1.0
 40
0.0
 40
0.0
 40
0.0
 40
0.0
 10
-981.9041169020657
 20
-163.5952324354405
 30
576.2997197120512
 10
-996.0921254911532
 20
-177.5501127429854
 30
576.2997197120512
 10
-1024.468294711395
 20
-205.4597255181402
 30
576.2997197120512
 10
-1052.842157299931
 20
-233.3716775229007
 30
576.2997197120512
 10
-1067.031113738845
 20
-247.3255946561403
 30
576.2997197120512
  0
SPLINE
  5
240
330
1F
100
AcDbEntity
  8
Default
100
AcDbSpline
210
0.0
220
0.0
230
1.0
 70
     8
 71
     3
 72
    20
 73
    16
 74
     0
 42
0.000000001
 43
0.0000000001
 40
-13.0
 40
-13.0
 40
-13.0
 40
-13.0
 40
-12.0
 40
-11.0
 40
-10.0
 40
-9.0
 40
-8.0
 40
-7.0
 40
-6.0
 40
-5.0
 40
-4.0
 40
-3.0
 40
-2.0
 40
-1.0
 40
0.0
 40
0.0
 40
0.0
 40
0.0
 10
-1067.031113738845
 20
-247.3255946561403
 30
576.2997197120512
 10
-1068.294406757615
 20
-248.5679612935189
 30
576.2997197120512
 10
-1072.094083021402
 20
-252.3380154281551
 30
576.2997197120512
 10
-1075.815999873272
 20
-256.1308037257463
 30
576.2997197120512
 10
-1079.60987918089
 20
-259.8647878565982
 30
576.2997197120512
 10
-1084.088883651858
 20
-262.8000387631678
 30
576.2997197120512
 10
-1089.033344414295
 20
-264.7555959205322
 30
576.2997197120512
 10
-1094.591400155427
 20
-265.0382770443971
 30
576.2997197120512
 10
-1098.972607215695
 20
-261.2906255556002
 30
576.2997197120512
 10
-1099.101564850399
 20
-255.6523061564385
 30
576.2997197120512
 10
-1097.343113322579
 20
-250.6372471945258
 30
576.2997197120512
 10
-1094.532626948851
 20
-246.0736358380325
 30
576.2997197120512
 10
-1090.879284387601
 20
-242.2018631572025
 30
576.2997197120512
 10
-1087.066672111025
 20
-238.4989973694173
 30
576.2997197120512
 10
-1082.732563827413
 20
-234.1298405862087
 30
576.2997197120512
 10
-1081.490179205382
 20
-232.8665291895909
 30
576.2997197120512
  0
SPLINE
  5
241
330
1F
100
AcDbEntity
  8
Default
100
AcDbSpline
210
0.0
220
0.0
230
1.0
 70
     8
 71
     3
 72
     9
 73
     5
 74
     0
 42
0.000000001
 43
0.0000000001
 40
0.0
 40
0.0
 40
0.0
 40
0.0
 40
1.0
 40
2.0
 40
2.0
 40
2.0
 40
2.0
 10
-1081.490179205382
 20
-232.8665291895909
 30
576.2997197120512
 10
-1067.536262441612
 20
-218.6775721125826
 30
576.2997197120512
 10
-1039.624310217624
 20
-190.3037107099735
 30
576.2997197120512
 10
-1011.714697194591
 20
-161.9275408827695
 30
576.2997197120512
 10
-997.7598170018195
 20
-147.739532331713
 30
576.2997197120512
  0
SPLINE
  5
242
330
1F
100
AcDbEntity
  8
Default
100
AcDbSpline
210
0.0
220
0.0
230
1.0
 70
     8
 71
     3
 72
     9
 73
     5
 74
     0
 42
0.000000001
 43
0.0000000001
 40
-2.0
 40
-2.0
 40
-2.0
 40
-2.0
 40
-1.0
 40
0.0
 40
0.0
 40
0.0
 40
0.0
 10
-981.9041169020657
 20
163.595371139241
 30
576.2997197120512
 10
-996.0921254911532
 20
177.5502514467859
 30
576.2997197120512
 10
-1024.468294711395
 20
205.4598642219405
 30
576.2997197120512
 10
-1052.842157299931
 20
233.3718162267012
 30
576.2997197120512
 10
-1067.031113738845
 20
247.3257333599406
 30
576.2997197120512
  0
SPLINE
  5
243
330
1F
100
AcDbEntity
  8
Default
100
AcDbSpline
210
0.0
220
0.0
230
1.0
 70
     8
 71
     3
 72
    20
 73
    16
 74
     0
 42
0.000000001
 43
0.0000000001
 40
-13.0
 40
-13.0
 40
-13.0
 40
-13.0
 40
-12.0
 40
-11.0
 40
-10.0
 40
-9.0
 40
-8.0
 40
-7.0
 40
-6.0
 40
-5.0
 40
-4.0
 40
-3.0
 40
-2.0
 40
-1.0
 40
0.0
 40
0.0
 40
0.0
 40
0.0
 10
-1067.031113738845
 20
247.3257333599406
 30
576.2997197120512
 10
-1068.294406757615
 20
248.5680999973194
 30
576.2997197120512
 10
-1072.094083021402
 20
252.3381541319557
 30
576.2997197120512
 10
-1075.815999873272
 20
256.1309424295471
 30
576.2997197120512
 10
-1079.60987918089
 20
259.8649265603988
 30
576.2997197120512
 10
-1084.088883651858
 20
262.8001774669685
 30
576.2997197120512
 10
-1089.033344414295
 20
264.7557346243327
 30
576.2997197120512
 10
-1094.591400155427
 20
265.0384157481974
 30
576.2997197120512
 10
-1098.972607215694
 20
261.2907642594007
 30
576.2997197120512
 10
-1099.101564850399
 20
255.6524448602393
 30
576.2997197120512
 10
-1097.343113322579
 20
250.6373858983263
 30
576.2997197120512
 10
-1094.532626948851
 20
246.073774541833
 30
576.2997197120512
 10
-1090.879284387601
 20
242.2020018610031
 30
576.2997197120512
 10
-1087.066672111025
 20
238.4991360732176
 30
576.2997197120512
 10
-1082.732563827413
 20
234.1299792900092
 30
576.2997197120512
 10
-1081.490179205382
 20
232.8666678933917
 30
576.2997197120512
  0
SPLINE
  5
244
330
1F
100
AcDbEntity
  8
Default
100
AcDbSpline
210
0.0
220
0.0
230
1.0
 70
     8
 71
     3
 72
     9
 73
     5
 74
     0
 42
0.000000001
 43
0.0000000001
 40
0.0
 40
0.0
 40
0.0
 40
0.0
 40
1.0
 40
2.0
 40
2.0
 40
2.0
 40
2.0
 10
-1081.490179205382
 20
232.8666678933917
 30
576.2997197120512
 10
-1067.536262441612
 20
218.677710816383
 30
576.2997197120512
 10
-1039.624310217624
 20
190.3038494137738
 30
576.2997197120512
 10
-1011.714697194591
 20
161.9276795865701
 30
576.2997197120512
 10
-997.7598170018195
 20
147.7396710355135
 30
576.2997197120512
  0
SPLINE
  5
245
330
1F
100
AcDbEntity
  8
Default
100
AcDbSpline
210
0.0
220
0.0
230
1.0
 70
     8
 71
     3
 72
     9
 73
     5
 74
     0
 42
0.000000001
 43
0.0000000001
 40
-2.0
 40
-2.0
 40
-2.0
 40
-2.0
 40
-1.0
 40
0.0
 40
0.0
 40
0.0
 40
0.0
 10
-686.4249134925834
 20
163.5953711392408
 30
576.2997197120512
 10
-672.2369049034965
 20
177.5502514467857
 30
576.2997197120512
 10
-643.8607356832537
 20
205.4598642219403
 30
576.2997197120512
 10
-615.4868730947185
 20
233.371816226701
 30
576.2997197120512
 10
-601.2979166558047
 20
247.3257333599404
 30
576.2997197120512
  0
SPLINE
  5
246
330
1F
100
AcDbEntity
  8
Default
100
AcDbSpline
210
0.0
220
0.0
230
1.0
 70
     8
 71
     3
 72
    20
 73
    16
 74
     0
 42
0.000000001
 43
0.0000000001
 40
-13.0
 40
-13.0
 40
-13.0
 40
-13.0
 40
-12.0
 40
-11.0
 40
-10.0
 40
-9.0
 40
-8.0
 40
-7.0
 40
-6.0
 40
-5.0
 40
-4.0
 40
-3.0
 40
-2.0
 40
-1.0
 40
0.0
 40
0.0
 40
0.0
 40
0.0
 10
-601.2979166558047
 20
247.3257333599404
 30
576.2997197120512
 10
-600.0346236370342
 20
248.5680999973192
 30
576.2997197120512
 10
-596.2349473732476
 20
252.3381541319555
 30
576.2997197120512
 10
-592.5130305213768
 20
256.1309424295469
 30
576.2997197120512
 10
-588.7191512137595
 20
259.8649265603985
 30
576.2997197120512
 10
-584.240146742791
 20
262.8001774669683
 30
576.2997197120512
 10
-579.2956859803544
 20
264.7557346243325
 30
576.2997197120512
 10
-573.7376302392224
 20
265.0384157481972
 30
576.2997197120512
 10
-569.3564231789546
 20
261.2907642594005
 30
576.2997197120512
 10
-569.2274655442502
 20
255.652444860239
 30
576.2997197120512
 10
-570.9859170720701
 20
250.6373858983261
 30
576.2997197120512
 10
-573.7964034457974
 20
246.0737745418328
 30
576.2997197120512
 10
-577.4497460070488
 20
242.2020018610028
 30
576.2997197120512
 10
-581.2623582836247
 20
238.4991360732174
 30
576.2997197120512
 10
-585.596466567236
 20
234.129979290009
 30
576.2997197120512
 10
-586.8388511892667
 20
232.8666678933914
 30
576.2997197120512
  0
SPLINE
  5
247
330
1F
100
AcDbEntity
  8
Default
100
AcDbSpline
210
0.0
220
0.0
230
1.0
 70
     8
 71
     3
 72
     9
 73
     5
 74
     0
 42
0.000000001
 43
0.0000000001
 40
0.0
 40
0.0
 40
0.0
 40
0.0
 40
1.0
 40
2.0
 40
2.0
 40
2.0
 40
2.0
 10
-586.8388511892667
 20
232.8666678933914
 30
576.2997197120512
 10
-600.7927679530375
 20
218.6777108163828
 30
576.2997197120512
 10
-628.7047201770251
 20
190.3038494137736
 30
576.2997197120512
 10
-656.6143332000583
 20
161.9276795865698
 30
576.2997197120512
 10
-670.5692133928301
 20
147.7396710355133
 30
576.2997197120512
  0
SPLINE
  5
248
330
1F
100
AcDbEntity
  8
Default
100
AcDbSpline
210
0.0
220
0.0
230
1.0
 70
     8
 71
     3
 72
     9
 73
     5
 74
     0
 42
0.000000001
 43
0.0000000001
 40
-2.0
 40
-2.0
 40
-2.0
 40
-2.0
 40
-1.0
 40
0.0
 40
0.0
 40
0.0
 40
0.0
 10
-686.4249134925834
 20
-163.5952324354406
 30
576.2997197120512
 10
-672.2369049034965
 20
-177.5501127429855
 30
576.2997197120512
 10
-643.860735683254
 20
-205.4597255181403
 30
576.2997197120512
 10
-615.4868730947185
 20
-233.3716775229008
 30
576.2997197120512
 10
-601.2979166558047
 20
-247.3255946561404
 30
576.2997197120512
  0
SPLINE
  5
249
330
1F
100
AcDbEntity
  8
Default
100
AcDbSpline
210
0.0
220
0.0
230
1.0
 70
     8
 71
     3
 72
    20
 73
    16
 74
     0
 42
0.000000001
 43
0.0000000001
 40
-13.0
 40
-13.0
 40
-13.0
 40
-13.0
 40
-12.0
 40
-11.0
 40
-10.0
 40
-9.0
 40
-8.0
 40
-7.0
 40
-6.0
 40
-5.0
 40
-4.0
 40
-3.0
 40
-2.0
 40
-1.0
 40
0.0
 40
0.0
 40
0.0
 40
0.0
 10
-601.2979166558047
 20
-247.3255946561404
 30
576.2997197120512
 10
-600.0346236370342
 20
-248.567961293519
 30
576.2997197120512
 10
-596.2349473732479
 20
-252.3380154281552
 30
576.2997197120512
 10
-592.513030521377
 20
-256.1308037257465
 30
576.2997197120512
 10
-588.7191512137595
 20
-259.8647878565984
 30
576.2997197120512
 10
-584.2401467427912
 20
-262.8000387631679
 30
576.2997197120512
 10
-579.2956859803544
 20
-264.7555959205323
 30
576.2997197120512
 10
-573.7376302392224
 20
-265.0382770443972
 30
576.2997197120512
 10
-569.3564231789546
 20
-261.2906255556003
 30
576.2997197120512
 10
-569.2274655442504
 20
-255.6523061564386
 30
576.2997197120512
 10
-570.9859170720704
 20
-250.6372471945259
 30
576.2997197120512
 10
-573.7964034457977
 20
-246.0736358380326
 30
576.2997197120512
 10
-577.4497460070488
 20
-242.2018631572026
 30
576.2997197120512
 10
-581.2623582836247
 20
-238.4989973694175
 30
576.2997197120512
 10
-585.5964665672363
 20
-234.1298405862088
 30
576.2997197120512
 10
-586.8388511892669
 20
-232.866529189591
 30
576.2997197120512
  0
SPLINE
  5
24A
330
1F
100
AcDbEntity
  8
Default
100
AcDbSpline
210
0.0
220
0.0
230
1.0
 70
     8
 71
     3
 72
     9
 73
     5
 74
     0
 42
0.000000001
 43
0.0000000001
 40
0.0
 40
0.0
 40
0.0
 40
0.0
 40
1.0
 40
2.0
 40
2.0
 40
2.0
 40
2.0
 10
-586.8388511892669
 20
-232.866529189591
 30
576.2997197120512
 10
-600.7927679530375
 20
-218.6775721125826
 30
576.2997197120512
 10
-628.7047201770254
 20
-190.3037107099736
 30
576.2997197120512
 10
-656.6143332000585
 20
-161.9275408827697
 30
576.2997197120512
 10
-670.5692133928301
 20
-147.7395323317131
 30
576.2997197120512
  0
SPLINE
  5
24B
330
1F
100
AcDbEntity
  8
Default
100
AcDbSpline
210
0.0
220
0.0
230
1.0
 70
    28
 71
     2
 72
     6
 73
     3
 74
     0
 42
0.000000001
 43
0.0000000001
 40
4.761170663444152
 40
4.761170663444152
 40
4.761170663444152
 40
4.792292789997686
 40
4.792292789997686
 40
4.792292789997686
 10
-969.9999396169118
 20
-151.8880358663634
 30
576.2997197120512
 41
0.9999999999962923
 10
-970.2817500275182
 20
-152.1651752738578
 30
576.2997197120512
 41
0.9999999999979724
 10
-970.56356011127
 20
-152.4423150137152
 30
576.2997197120512
 41
1.0
  0
SPLINE
  5
24C
330
1F
100
AcDbEntity
  8
Default
100
AcDbSpline
210
0.0
220
0.0
230
1.0
 70
    28
 71
     2
 72
     6
 73
     3
 74
     0
 42
0.000000001
 43
0.0000000001
 40
0.0
 40
0.0
 40
0.0
 40
0.0311222733603082
 40
0.0311222733603082
 40
0.0311222733603082
 10
-986.6069021462472
 20
-136.3989782254996
 30
576.2997197120512
 41
1.0
 10
-986.3297612204805
 20
-136.1171666930429
 30
576.2997197120512
 41
0.9999999999961511
 10
-986.0526206083235
 20
-135.8353548521743
 30
576.2997197120512
 41
0.9999999999926119
  0
SPLINE
  5
24D
330
1F
100
AcDbEntity
  8
Default
100
AcDbSpline
210
0.0
220
0.0
230
1.0
 70
    28
 71
     2
 72
     6
 73
     3
 74
     0
 42
0.000000001
 43
0.0000000001
 40
0.0
 40
0.0
 40
0.0
 40
0.0311223369417638
 40
0.0311223369417638
 40
0.0311223369417638
 10
-681.72212932093
 20
-136.3989773296365
 30
576.2997197120512
 41
1.0
 10
-681.9992538730612
 20
-136.1171485634417
 30
576.2997197120512
 41
0.9999999999976727
 10
-682.2763785170732
 20
-135.8353198875937
 30
576.2997197120512
 41
0.999999999995372
  0
SPLINE
  5
24E
330
1F
100
AcDbEntity
  8
Default
100
AcDbSpline
210
0.0
220
0.0
230
1.0
 70
    12
 71
     2
 72
     8
 73
     5
 74
     0
 42
0.000000001
 43
0.0000000001
 40
0.0
 40
0.0
 40
0.0
 40
13.63205890972085
 40
13.63205890972085
 40
27.26411781944171
 40
27.26411781944171
 40
27.26411781944171
 10
-613.7321839011228
 20
0.000069351953357
 30
576.2997197120512
 41
1.0
 10
-613.7321839011754
 20
220.4324006481552
 30
576.2997197120512
 41
0.7071067811865471
 10
-834.1645151973775
 20
220.4324006481022
 30
576.2997197120512
 41
1.0
 10
-1054.596846493579
 20
220.4324006480494
 30
576.2997197120512
 41
0.7071067811865467
 10
-1054.596846493526
 20
0.0000693518475146
 30
576.2997197120512
 41
1.0
  0
SPLINE
  5
24F
330
1F
100
AcDbEntity
  8
Default
100
AcDbSpline
210
0.0
220
0.0
230
1.0
 70
    12
 71
     2
 72
     8
 73
     5
 74
     0
 42
0.000000001
 43
0.0000000001
 40
0.0
 40
0.0
 40
0.0
 40
13.63205890972085
 40
13.63205890972085
 40
27.2641178194417
 40
27.2641178194417
 40
27.2641178194417
 10
-1054.596846493526
 20
0.0000693518475146
 30
576.2997197120512
 41
1.0
 10
-1054.596846493473
 20
-220.4322619443547
 30
576.2997197120512
 41
0.7071067811865478
 10
-834.1645151972716
 20
-220.4322619443018
 30
576.2997197120512
 41
1.0
 10
-613.7321839010696
 20
-220.4322619442489
 30
576.2997197120512
 41
0.7071067811865478
 10
-613.7321839011228
 20
0.000069351953357
 30
576.2997197120512
 41
1.0
  0
SPLINE
  5
250
330
1F
100
AcDbEntity
  8
Default
100
AcDbSpline
210
0.0
220
0.0
230
1.0
 70
    15
 71
     2
 72
    12
 73
     9
 74
     0
 42
0.000000001
 43
0.0000000001
 40
0.0
 40
0.0
 40
0.0
 40
12.60147602241891
 40
12.60147602241891
 40
25.20295204483783
 40
25.20295204483783
 40
37.80442806725675
 40
37.80442806725675
 40
50.40590408967564
 40
50.40590408967564
 40
50.40590408967564
 10
-1037.932174638209
 20
-0.0000961430657753
 30
576.2997197120512
 41
1.0
 10
-1037.932340133175
 20
203.7675632978187
 30
576.2997197120512
 41
0.7071067811865476
 10
-834.1646806922907
 20
203.7677287927847
 30
576.2997197120512
 41
1.0
 10
-630.3970212514066
 20
203.7678942877508
 30
576.2997197120512
 41
0.7071067811865476
 10
-630.3968557564403
 20
0.0002348468661921
 30
576.2997197120512
 41
1.0
 10
-630.3966902614742
 20
-203.7674245940183
 30
576.2997197120512
 41
0.7071067811865476
 10
-834.1643497023587
 20
-203.7675900889843
 30
576.2997197120512
 41
1.0
 10
-1037.932009143243
 20
-203.7677555839502
 30
576.2997197120512
 41
0.7071067811865476
 10
-1037.932174638209
 20
-0.0000961430657753
 30
576.2997197120512
 41
1.0
  0
SPLINE
  5
251
330
1F
100
AcDbEntity
  8
Default
100
AcDbSpline
210
0.0
220
0.0
230
1.0
 70
    15
 71
     2
 72
    12
 73
     9
 74
     0
 42
0.000000001
 43
0.0000000001
 40
0.0
 40
0.0
 40
0.0
 40
11.78097476525765
 40
11.78097476525765
 40
23.56194953051529
 40
23.56194953051529
 40
35.34292429577294
 40
35.34292429577294
 40
47.12389906103058
 40
47.12389906103058
 40
47.12389906103058
 10
-1024.664553297147
 20
-0.0000961432867825
 30
576.2997197120512
 41
1.0
 10
-1024.664732153226
 20
190.4999412791233
 30
576.2997197120512
 41
0.7071067811865476
 10
-834.1646947308154
 20
190.5001201352017
 30
576.2997197120512
 41
1.0
 10
-643.6646573084053
 20
190.5002989912805
 30
576.2997197120512
 41
0.7071067811865476
 10
-643.6644784523268
 20
0.0002615688700871
 30
576.2997197120512
 41
1.0
 10
-643.6642995962479
 20
-190.4997758535401
 30
576.2997197120512
 41
0.7071067811865476
 10
-834.1643370186584
 20
-190.4999547096187
 30
576.2997197120512
 41
1.0
 10
-1024.664374441068
 20
-190.5001335656975
 30
576.2997197120512
 41
0.7071067811865476
 10
-1024.664553297147
 20
-0.0000961432867825
 30
576.2997197120512
 41
1.0
  0
SPLINE
  5
252
330
1F
100
AcDbEntity
  8
Default
100
AcDbSpline
210
0.0
220
0.0
230
1.0
 70
    12
 71
     2
 72
     6
 73
     3
 74
     0
 42
0.000000001
 43
0.0000000001
 40
0.0117686935156192
 40
0.0117686935156192
 40
0.0117686935156192
 40
0.1338965989858833
 40
0.1338965989858833
 40
0.1338965989858833
 10
-926.1416208219388
 20
-181.8280667408392
 30
576.2997197120512
 41
0.9928050207437479
 10
-925.2753556051457
 20
-183.1648858026949
 30
576.2997197120512
 41
0.9590700849288174
 10
-923.8386819862439
 20
-183.8529770340881
 30
576.2997197120512
 41
1.0
  0
SPLINE
  5
253
330
1F
100
AcDbEntity
  8
Default
100
AcDbSpline
210
0.0
220
0.0
230
1.0
 70
    12
 71
     2
 72
     8
 73
     5
 74
     0
 42
0.000000001
 43
0.0000000001
 40
0.0
 40
0.0
 40
0.0
 40
7.870388937238172
 40
7.870388937238172
 40
15.74077787447417
 40
15.74077787447417
 40
15.74077787447417
 10
-923.8386819862439
 20
-183.8529770340881
 30
576.2997197120512
 41
1.0
 10
-826.0952672613401
 20
-231.5272331556252
 30
576.2997197120512
 41
0.8829734150930072
 10
-731.9081126532946
 20
-177.1637368951145
 30
576.2997197120512
 41
1.0
 10
-637.7209580452702
 20
-122.8002406346026
 30
576.2997197120512
 41
0.8829734150928628
 10
-630.1096161137524
 20
-14.31670597231357
 30
576.2997197120512
 41
1.0
  0
SPLINE
  5
254
330
1F
100
AcDbEntity
  8
Default
100
AcDbSpline
210
0.000000000000134
220
-0.000000000000011
230
1.0
 70
    12
 71
     2
 72
     6
 73
     3
 74
     0
 42
0.000000001
 43
0.0000000001
 40
0.0
 40
0.0
 40
0.0
 40
0.1222860980901102
 40
0.1222860980901102
 40
0.1222860980901102
 10
-630.1096161137524
 20
-14.31670597231357
 30
576.2997197120512
 41
1.0
 10
-629.9787785600555
 20
-12.72244340272562
 30
576.2997197120512
 41
0.9443660915446896
 10
-630.7104205482592
 20
-11.29994854953781
 30
576.2997197120513
 41
0.9647222903891885
  0
SPLINE
  5
255
330
1F
100
AcDbEntity
  8
Default
100
AcDbSpline
210
0.0
220
0.0
230
1.0
 70
    12
 71
     2
 72
     6
 73
     3
 74
     0
 42
0.000000001
 43
0.0000000001
 40
0.013283267876232
 40
0.013283267876232
 40
0.013283267876232
 40
0.1362421782741509
 40
0.1362421782741509
 40
0.1362421782741509
 10
-630.7119448031962
 20
11.32749774787328
 30
576.2997197120512
 41
0.9919353035868196
 10
-629.9854573870466
 20
12.75753178534614
 30
576.2997197120512
 41
0.9586415098796043
 10
-630.112327168013
 20
14.35649562885021
 30
576.2997197120512
 41
1.0
  0
SPLINE
  5
256
330
1F
100
AcDbEntity
  8
Default
100
AcDbSpline
210
0.0
220
0.0
230
1.0
 70
    12
 71
     2
 72
     8
 73
     5
 74
     0
 42
0.000000001
 43
0.0000000001
 40
0.0
 40
0.0
 40
0.0
 40
7.868615559496922
 40
7.868615559496922
 40
15.73723111899384
 40
15.73723111899384
 40
15.73723111899384
 10
-630.112327168013
 20
14.35649562885021
 30
576.2997197120512
 41
1.0
 10
-637.7427430244529
 20
122.8097310933385
 30
576.2997197120512
 41
0.8830251182217258
 10
-731.9034763620579
 20
177.1612152145887
 30
576.2997197120512
 41
1.0
 10
-826.064209699663
 20
231.5126993358376
 30
576.2997197120512
 41
0.8830251182217264
 10
-923.7933868875584
 20
183.8751568400823
 30
576.2997197120512
 41
1.0
  0
SPLINE
  5
257
330
1F
100
AcDbEntity
  8
Default
100
AcDbSpline
210
0.0
220
0.0
230
1.0
 70
    12
 71
     2
 72
     6
 73
     3
 74
     0
 42
0.000000001
 43
0.0000000001
 40
0.0
 40
0.0
 40
0.0
 40
0.1225959064184418
 40
0.1225959064184418
 40
0.1225959064184418
 10
-923.7933868875584
 20
183.8751568400823
 30
576.2997197120512
 41
1.0
 10
-925.2337858544583
 20
183.1836448774759
 30
576.2997197120512
 41
0.9609699793776979
 10
-926.1071214161871
 20
181.8456527344144
 30
576.2997197120512
 41
0.9955579475786183
  0
SPLINE
  5
258
330
1F
100
AcDbEntity
  8
Default
100
AcDbSpline
210
0.0
220
0.0
230
1.0
 70
    12
 71
     2
 72
     6
 73
     3
 74
     0
 42
0.000000001
 43
0.0000000001
 40
0.0
 40
0.0
 40
0.0
 40
0.0094211670328261
 40
0.0094211670328261
 40
0.0094211670328261
 10
-945.4648047900564
 20
170.5397136061885
 30
576.2997197120512
 41
1.0
 10
-945.5831062269458
 20
170.5378148397605
 30
576.2997197120512
 41
0.9969965108799083
 10
-945.7012301697423
 20
170.5310643270234
 30
576.2997197120512
 41
0.9944206388810783
  0
SPLINE
  5
259
330
1F
100
AcDbEntity
  8
Default
100
AcDbSpline
210
0.0
220
0.0
230
1.0
 70
    12
 71
     2
 72
     6
 73
     3
 74
     0
 42
0.000000001
 43
0.0000000001
 40
0.0094211670328261
 40
0.0094211670328261
 40
0.0094211670328261
 40
0.1323444327869086
 40
0.1323444327869086
 40
0.1323444327869086
 10
-945.7012301697423
 20
170.5310643270234
 30
576.2997197120512
 41
0.9944206388810783
 10
-947.3005032848273
 20
170.439669532044
 30
576.2997197120512
 41
0.9608117879651095
 10
-948.6234186361553
 20
169.5363852587381
 30
576.2997197120512
 41
1.0
  0
SPLINE
  5
25A
330
1F
100
AcDbEntity
  8
Default
100
AcDbSpline
210
0.0
220
0.0
230
1.0
 70
    12
 71
     2
 72
     8
 73
     5
 74
     0
 42
0.000000001
 43
0.0000000001
 40
0.0
 40
0.0
 40
0.0
 40
7.86861959126793
 40
7.86861959126793
 40
15.73723918253356
 40
15.73723918253356
 40
15.73723918253356
 10
-948.6234186361553
 20
169.5363852587381
 30
576.2997197120512
 41
1.0
 10
-1038.731605102312
 20
108.701717478102
 30
576.2997197120512
 41
0.8830249864055181
 10
-1038.721089753611
 20
-0.0196785837013067
 30
576.2997197120512
 41
1.0
 10
-1038.710574404898
 20
-108.7410746454855
 30
576.2997197120512
 41
0.8830249864053662
 10
-948.5906219732337
 20
-169.5583110666714
 30
576.2997197120512
 41
1.0
  0
SPLINE
  5
25B
330
1F
100
AcDbEntity
  8
Default
100
AcDbSpline
210
0.0
220
0.0
230
1.0
 70
    12
 71
     2
 72
     6
 73
     3
 74
     0
 42
0.000000001
 43
0.0000000001
 40
0.0
 40
0.0
 40
0.0
 40
0.1225327071870427
 40
0.1225327071870427
 40
0.1225327071870427
 10
-948.5906219732337
 20
-169.5583110666714
 30
576.2997197120512
 41
1.0
 10
-947.2703260244983
 20
-170.4551032162196
 30
576.2997197120512
 41
0.9618249334825435
 10
-945.6769011869992
 20
-170.5468356476733
 30
576.2997197120512
 41
0.9957312157002915
  0
SPLINE
  5
25C
330
1F
100
AcDbEntity
  8
Default
100
AcDbSpline
210
0.0
220
0.0
230
1.0
 70
    28
 71
     2
 72
     6
 73
     3
 74
     0
 42
0.000000001
 43
0.0000000001
 40
5.420481043178389
 40
5.420481043178389
 40
5.420481043178389
 40
5.451604536017915
 40
5.451604536017915
 40
5.451604536017915
 10
-698.3290907777468
 20
151.8881745701724
 30
576.2997197120512
 41
0.9999999999962922
 10
-698.0472679954432
 20
152.1653261443084
 30
576.2997197120512
 41
0.9999999999979721
 10
-697.7654455400247
 20
152.4424780508379
 30
576.2997197120512
 41
1.0
  0
SPLINE
  5
25D
330
1F
100
AcDbEntity
  8
Default
100
AcDbSpline
210
0.0
220
0.0
230
1.0
 70
    28
 71
     2
 72
     6
 73
     3
 74
     0
 42
0.000000001
 43
0.0000000001
 40
0.0
 40
0.0
 40
0.0
 40
0.0311237416119354
 40
0.0311237416119354
 40
0.0311237416119354
 10
-681.7221042360215
 20
136.3991413925901
 30
576.2997197120512
 41
1.0
 10
-681.9992412841911
 20
136.1172998949282
 30
576.2997197120512
 41
0.9999999999976651
 10
-682.2763784243966
 20
135.8354584877656
 30
576.2997197120512
 41
0.9999999999953567
  0
SPLINE
  5
25E
330
1F
100
AcDbEntity
  8
Default
100
AcDbSpline
210
0.0
220
0.0
230
1.0
 70
    28
 71
     2
 72
     6
 73
     3
 74
     0
 42
0.000000001
 43
0.0000000001
 40
0.0
 40
0.0
 40
0.0
 40
0.0311243604747063
 40
0.0311243604747063
 40
0.0311243604747063
 10
-970.5635989445763
 20
152.4424918268121
 30
576.2997197120512
 41
1.0
 10
-970.2817557017324
 20
152.1653453436017
 30
576.2997197120512
 41
0.999999999999898
 10
-969.9999124790579
 20
151.88819883988
 30
576.2997197120512
 41
0.9999999999997973
  0
SPLINE
  5
25F
330
1F
100
AcDbEntity
  8
Default
100
AcDbSpline
210
0.0
220
0.0
230
1.0
 70
    28
 71
     2
 72
     6
 73
     3
 74
     0
 42
0.000000001
 43
0.0000000001
 40
0.0
 40
0.0
 40
0.0
 40
0.0311243086895068
 40
0.0311243086895068
 40
0.0311243086895068
 10
-986.6069361900654
 20
136.3991517415427
 30
576.2997197120512
 41
1.0
 10
-986.3297940807633
 20
136.1173051201756
 30
576.2997197120512
 41
0.9999999999976726
 10
-986.052651879569
 20
135.8354585891663
 30
576.2997197120512
 41
0.9999999999953718
  0
CIRCLE
  5
261
330
1F
100
AcDbEntity
  8
Default
100
AcDbCircle
 10
0.0
 20
0.0
 30
0.0
 40
457.0
  0
ENDSEC
  0
SECTION
  2
OBJECTS
  0
DICTIONARY
  5
C
330
0
100
AcDbDictionary
281
     1
  3
ACAD_CIP_PREVIOUS_PRODUCT_INFO
350
11D
  3
ACAD_COLOR
350
115
  3
ACAD_DETAILVIEWSTYLE
350
112
  3
ACAD_GROUP
350
D
  3
ACAD_LAYOUT
350
1A
  3
ACAD_MATERIAL
350
43
  3
ACAD_MLEADERSTYLE
350
111
  3
ACAD_MLINESTYLE
350
17
  3
ACAD_PLOTSETTINGS
350
19
  3
ACAD_PLOTSTYLENAME
350
E
  3
ACAD_SCALELIST
350
47
  3
ACAD_SECTIONVIEWSTYLE
350
113
  3
ACAD_TABLESTYLE
350
110
  3
ACAD_VISUALSTYLE
350
2A
  3
ACDB_RECOMPOSE_DATA
350
292
  3
AcDbVariableDictionary
350
D7
  0
DICTIONARY
  5
D5
330
8
100
AcDbDictionary
280
     1
281
     1
  0
SUN
  5
69
330
29
100
AcDbSun
 90
        1
290
     0
 63
     7
421
 16777215
 40
1.0
291
     1
 91
  2455826
 92
 54000000
292
     0
 70
     0
 71
   256
280
     1
  0
DICTIONARY
  5
127
330
2
100
AcDbDictionary
280
     1
281
     1
  3
ACAD_LAYERSTATES
360
128
  0
DICTIONARY
  5
11E
330
10
100
AcDbDictionary
280
     1
281
     1
  3
ADSK_XREC_LAYER_RECONCILED
360
11F
  0
DICTIONARY
  5
147
330
146
100
AcDbDictionary
280
     1
281
     1
  0
DICTIONARY
  5
262
330
1F
100
AcDbDictionary
280
     1
281
     1
  3
ACAD_SORTENTS
360
263
  0
XRECORD
  5
11D
102
{ACAD_REACTORS
330
C
102
}
330
C
100
AcDbXrecord
280
     1
300
ACD
300
2016
300
ACD_F_S
  0
DICTIONARY
  5
115
102
{ACAD_REACTORS
330
C
102
}
330
C
100
AcDbDictionary
281
     1
  0
DICTIONARY
  5
112
102
{ACAD_REACTORS
330
C
102
}
330
C
100
AcDbDictionary
281
     1
  3
Imperial24
350
119
  0
DICTIONARY
  5
D
102
{ACAD_REACTORS
330
C
102
}
330
C
100
AcDbDictionary
281
     1
  0
DICTIONARY
  5
1A
102
{ACAD_REACTORS
330
C
102
}
330
C
100
AcDbDictionary
281
     1
  3
Layout1
350
1E
  3
Layout2
350
26
  3
Model
350
22
  0
DICTIONARY
  5
43
102
{ACAD_REACTORS
330
C
102
}
330
C
100
AcDbDictionary
281
     1
  3
ByBlock
350
45
  3
ByLayer
350
44
  3
Global
350
46
  0
DICTIONARY
  5
111
102
{ACAD_REACTORS
330
C
102
}
330
C
100
AcDbDictionary
281
     1
  3
Standard
350
117
  0
DICTIONARY
  5
17
102
{ACAD_REACTORS
330
C
102
}
330
C
100
AcDbDictionary
281
     1
  3
Standard
350
18
  0
DICTIONARY
  5
19
102
{ACAD_REACTORS
330
C
102
}
330
C
100
AcDbDictionary
281
     1
  0
ACDBDICTIONARYWDFLT
  5
E
102
{ACAD_REACTORS
330
C
102
}
330
C
100
AcDbDictionary
281
     1
  3
Normal
350
F
100
AcDbDictionaryWithDefault
340
F
  0
DICTIONARY
  5
47
102
{ACAD_REACTORS
330
C
102
}
330
C
100
AcDbDictionary
281
     1
  3
A0
350
48
  3
A1
350
49
  3
A2
350
4A
  3
A3
350
4B
  3
A4
350
4C
  3
A5
350
4D
  3
A6
350
4E
  3
A7
350
4F
  3
A8
350
50
  3
A9
350
51
  3
B0
350
52
  3
B1
350
53
  3
B2
350
54
  3
B3
350
55
  3
B4
350
56
  3
B5
350
57
  3
B6
350
58
  3
B7
350
59
  3
B8
350
5A
  3
B9
350
5B
  3
C0
350
5C
  3
C1
350
5D
  3
C2
350
5E
  3
C3
350
5F
  3
C4
350
60
  3
C5
350
61
  3
C6
350
62
  3
C7
350
63
  3
C8
350
64
  3
C9
350
65
  3
D0
350
66
  3
D1
350
67
  3
D2
350
68
  0
DICTIONARY
  5
113
102
{ACAD_REACTORS
330
C
102
}
330
C
100
AcDbDictionary
281
     1
  3
Imperial24
350
118
  0
DICTIONARY
  5
110
102
{ACAD_REACTORS
330
C
102
}
330
C
100
AcDbDictionary
281
     1
  3
Standard
350
116
  0
DICTIONARY
  5
2A
102
{ACAD_REACTORS
330
C
102
}
330
C
100
AcDbDictionary
281
     1
  3
2dWireframe
350
2F
  3
Basic
350
32
  3
Brighten
350
36
  3
ColorChange
350
3A
  3
Conceptual
350
34
  3
Dim
350
35
  3
EdgeColorOff
350
3D
  3
Facepattern
350
39
  3
Flat
350
2B
  3
FlatWithEdges
350
2C
  3
Gouraud
350
2D
  3
GouraudWithEdges
350
2E
  3
Hidden
350
31
  3
JitterOff
350
3B
  3
Linepattern
350
38
  3
OverhangOff
350
3C
  3
Realistic
350
33
  3
Shaded
350
42
  3
Shaded with edges
350
41
  3
Shades of Gray
350
3E
  3
Sketchy
350
3F
  3
Thicken
350
37
  3
Wireframe
350
30
  3
X-Ray
350
40
  0
XRECORD
  5
292
102
{ACAD_REACTORS
330
C
102
}
330
C
100
AcDbXrecord
280
     1
 90
        1
330
116
330
118
330
119
  0
DICTIONARY
  5
D7
102
{ACAD_REACTORS
330
C
102
}
330
C
100
AcDbDictionary
281
     1
  3
CANNOSCALE
350
D8
  3
CMLEADERSTYLE
350
284
  3
CTABLESTYLE
350
283
  3
CVIEWDETAILSTYLE
350
285
  3
CVIEWSECTIONSTYLE
350
286
  3
LAYEREVAL
350
288
  3
LAYERNOTIFY
350
289
  3
LIGHTINGUNITS
350
287
  3
MSLTSCALE
350
D9
  0
DICTIONARY
  5
128
102
{ACAD_REACTORS
330
127
102
}
330
127
100
AcDbDictionary
281
     1
  0
XRECORD
  5
11F
102
{ACAD_REACTORS
330
11E
102
}
330
11E
100
AcDbXrecord
280
     1
290
     1
  0
SORTENTSTABLE
  5
263
102
{ACAD_REACTORS
330
262
102
}
330
262
100
AcDbSortentsTable
330
1F
331
1DE
  5
1DE
331
254
  5
255
331
1DA
  5
1DA
331
250
  5
251
331
215
  5
216
331
211
  5
212
331
24C
  5
24D
331
248
  5
249
331
20D
  5
20E
331
244
  5
245
331
209
  5
20A
331
240
  5
241
331
205
  5
206
331
201
  5
202
331
23C
  5
23D
331
238
  5
239
331
1FD
  5
1FE
331
234
  5
235
331
230
  5
231
331
1F5
  5
1F5
331
1F1
  5
1F1
331
22C
  5
22D
331
228
  5
229
331
1ED
  5
1ED
331
224
  5
225
331
1E9
  5
1E9
331
1E5
  5
1E5
331
220
  5
221
331
25F
  5
260
331
25B
  5
25C
331
21C
  5
21D
331
1E1
  5
1E1
331
218
  5
219
331
257
  5
258
331
1DD
  5
1DD
331
253
  5
254
331
1D9
  5
1D9
331
24F
  5
250
331
214
  5
215
331
210
  5
211
331
24B
  5
24C
331
20C
  5
20D
331
247
  5
248
331
243
  5
244
331
208
  5
209
331
23F
  5
240
331
204
  5
205
331
200
  5
201
331
23B
  5
23C
331
1FC
  5
1FD
331
237
  5
238
331
233
  5
234
331
1F8
  5
1F8
331
22F
  5
230
331
1F4
  5
1F4
331
1F0
  5
1F0
331
22B
  5
22C
331
1EC
  5
1EC
331
227
  5
228
331
223
  5
224
331
1E8
  5
1E8
331
1E4
  5
1E4
331
21F
  5
220
331
25E
  5
25F
331
1E0
  5
1E0
331
25A
  5
25B
331
21B
  5
21C
331
256
  5
257
331
1DC
  5
1DC
331
217
  5
218
331
252
  5
253
331
1D8
  5
1D8
331
213
  5
214
331
24E
  5
24F
331
24A
  5
24B
331
20F
  5
210
331
246
  5
247
331
20B
  5
20C
331
242
  5
243
331
207
  5
208
331
23E
  5
23F
331
203
  5
204
331
23A
  5
23B
331
1FF
  5
200
331
1FB
  5
1FC
331
236
  5
237
331
232
  5
233
331
1F7
  5
1F7
331
22E
  5
22F
331
1F3
  5
1F3
331
22A
  5
22B
331
1EF
  5
1EF
331
1EB
  5
1EB
331
226
  5
227
331
1E7
  5
1E7
331
222
  5
223
331
261
  5
1FA
331
1E3
  5
1E3
331
21E
  5
21F
331
25D
  5
25E
331
259
  5
25A
331
21A
  5
21B
331
1DF
  5
1DF
331
255
  5
256
331
1DB
  5
1DB
331
216
  5
217
331
251
  5
252
331
1D7
  5
1D7
331
212
  5
213
331
24D
  5
24E
331
249
  5
24A
331
20E
  5
20F
331
245
  5
246
331
20A
  5
20B
331
241
  5
242
331
206
  5
207
331
202
  5
203
331
23D
  5
23E
331
239
  5
23A
331
1FE
  5
1FF
331
235
  5
236
331
1FA
  5
1FB
331
231
  5
232
331
1F6
  5
1F6
331
22D
  5
22E
331
1F2
  5
1F2
331
229
  5
22A
331
1EE
  5
1EE
331
1EA
  5
1EA
331
225
  5
226
331
221
  5
222
331
1E6
  5
1E6
331
25C
  5
25D
331
21D
  5
21E
331
1E2
  5
1E2
331
258
  5
259
331
219
  5
21A
  0
ACDBDETAILVIEWSTYLE
  5
119
102
{ACAD_XDICTIONARY
360
280
102
}
102
{ACAD_REACTORS
330
112
102
}
330
112
100
AcDbModelDocViewStyle
 70
     0
  3
Imperial24
290
     0
100
AcDbDetailViewStyle
 70
     0
 71
     0
 90
        3
 71
     1
340
11
 62
   256
 40
0.24
340
0
 62
   256
 40
0.24
300

 40
0.36
280
     3
 71
     2
340
16
 90
       25
 62
   256
 71
     3
340
11
 62
   256
 40
0.24
 90
        1
 40
0.75
 90
        1
300
%<\AcVar ViewType \f "%tc1">% %<\AcVar ViewDetailId>%\PSCALE %<\AcVar ViewScale \f "%sn">%
 71
     4
340
16
 90
       25
 62
   256
340
16
 90
       25
 62
   256
280
     0
  0
LAYOUT
  5
1E
102
{ACAD_REACTORS
330
1A
102
}
330
1A
100
AcDbPlotSettings
  1

  2
none_device
  4

  6

 40
0.0
 41
0.0
 42
0.0
 43
0.0
 44
0.0
 45
0.0
 46
0.0
 47
0.0
 48
0.0
 49
0.0
140
0.0
141
0.0
142
1.0
143
1.0
 70
   688
 72
     0
 73
     0
 74
     5
  7

 75
    16
147
1.0
 76
     0
 77
     2
 78
   300
148
0.0
149
0.0
100
AcDbLayout
  1
Layout1
 70
     1
 71
     1
 10
0.0
 20
0.0
 11
12.0
 21
9.0
 12
0.0
 22
0.0
 32
0.0
 14
1.000000000000000E+20
 24
1.000000000000000E+20
 34
1.000000000000000E+20
 15
-1.000000000000000E+20
 25
-1.000000000000000E+20
 35
-1.000000000000000E+20
146
0.0
 13
0.0
 23
0.0
 33
0.0
 16
1.0
 26
0.0
 36
0.0
 17
0.0
 27
1.0
 37
0.0
 76
     0
330
1B
  0
LAYOUT
  5
26
102
{ACAD_REACTORS
330
1A
102
}
330
1A
100
AcDbPlotSettings
  1

  2
none_device
  4

  6

 40
0.0
 41
0.0
 42
0.0
 43
0.0
 44
0.0
 45
0.0
 46
0.0
 47
0.0
 48
0.0
 49
0.0
140
0.0
141
0.0
142
1.0
143
1.0
 70
   688
 72
     0
 73
     0
 74
     5
  7

 75
    16
147
1.0
 76
     0
 77
     2
 78
   300
148
0.0
149
0.0
100
AcDbLayout
  1
Layout2
 70
     1
 71
     2
 10
0.0
 20
0.0
 11
0.0
 21
0.0
 12
0.0
 22
0.0
 32
0.0
 14
0.0
 24
0.0
 34
0.0
 15
0.0
 25
0.0
 35
0.0
146
0.0
 13
0.0
 23
0.0
 33
0.0
 16
1.0
 26
0.0
 36
0.0
 17
0.0
 27
1.0
 37
0.0
 76
     0
330
23
  0
LAYOUT
  5
22
102
{ACAD_REACTORS
330
1A
102
}
330
1A
100
AcDbPlotSettings
  1

  2
none_device
  4
Letter_(8.50_x_11.00_Inches)
  6

 40
6.349999999999999
 41
6.349999999999999
 42
6.350005079999999
 43
6.350005079999999
 44
215.9
 45
279.4
 46
0.0
 47
0.0
 48
0.0
 49
0.0
140
0.0
141
0.0
142
1.0
143
1.0
 70
  1712
 72
     0
 73
     0
 74
     0
  7

 75
     0
147
1.0
 76
     0
 77
     2
 78
   300
148
0.0
149
0.0
100
AcDbLayout
  1
Model
 70
     1
 71
     0
 10
0.0
 20
0.0
 11
12.0
 21
9.0
 12
0.0
 22
0.0
 32
0.0
 14
-973.8531674810218
 24
-973.8531674810131
 34
-0.0000000000006519
 15
973.8531674810204
 25
973.8531674810287
 35
912.3188397705375
146
0.0
 13
0.0
 23
0.0
 33
0.0
 16
1.0
 26
0.0
 36
0.0
 17
0.0
 27
1.0
 37
0.0
 76
     0
330
1F
331
29
  0
MATERIAL
  5
45
102
{ACAD_REACTORS
330
43
102
}
330
43
100
AcDbMaterial
  1
ByBlock
 73
     1
 78
     1
172
     1
176
     1
270
     1
274
     1
  0
MATERIAL
  5
44
102
{ACAD_REACTORS
330
43
102
}
330
43
100
AcDbMaterial
  1
ByLayer
 73
     1
 78
     1
172
     1
176
     1
270
     1
274
     1
  0
MATERIAL
  5
46
102
{ACAD_REACTORS
330
43
102
}
330
43
100
AcDbMaterial
  1
Global
 73
     1
 78
     1
172
     1
176
     1
270
     1
274
     1
  0
MLEADERSTYLE
  5
117
102
{ACAD_REACTORS
330
111
102
}
330
111
100
AcDbMLeaderStyle
179
     2
170
     2
171
     1
172
     0
 90
        2
 40
0.0
 41
0.0
173
     1
 91
-1056964608
340
14
 92
       -2
290
     1
 42
0.09
291
     1
 43
0.36
  3
Standard
 44
0.18
300

342
11
174
     1
178
     6
175
     1
176
     0
 93
-1056964608
 45
0.18
292
     0
297
     0
 46
0.18
 94
-1056964608
 47
1.0
 49
1.0
140
1.0
293
     1
141
0.0
294
     1
177
     0
142
1.0
295
     1
296
     0
143
0.125
271
     0
272
     9
273
     9
298
     1
  0
MLINESTYLE
  5
18
102
{ACAD_REACTORS
330
17
102
}
330
17
100
AcDbMlineStyle
  2
STANDARD
 70
     0
  3

 62
   256
 51
90.0
 52
90.0
 71
     2
 49
0.5
 62
   256
  6
BYLAYER
 49
-0.5
 62
   256
  6
BYLAYER
  0
ACDBPLACEHOLDER
  5
F
102
{ACAD_REACTORS
330
E
102
}
330
E
  0
SCALE
  5
48
102
{ACAD_REACTORS
330
47
102
}
330
47
100
AcDbScale
 70
     0
300
1:1
140
1.0
141
1.0
290
     1
  0
SCALE
  5
49
102
{ACAD_REACTORS
330
47
102
}
330
47
100
AcDbScale
 70
     0
300
1:2
140
1.0
141
2.0
290
     0
  0
SCALE
  5
4A
102
{ACAD_REACTORS
330
47
102
}
330
47
100
AcDbScale
 70
     0
300
1:4
140
1.0
141
4.0
290
     0
  0
SCALE
  5
4B
102
{ACAD_REACTORS
330
47
102
}
330
47
100
AcDbScale
 70
     0
300
1:5
140
1.0
141
5.0
290
     0
  0
SCALE
  5
4C
102
{ACAD_REACTORS
330
47
102
}
330
47
100
AcDbScale
 70
     0
300
1:8
140
1.0
141
8.0
290
     0
  0
SCALE
  5
4D
102
{ACAD_REACTORS
330
47
102
}
330
47
100
AcDbScale
 70
     0
300
1:10
140
1.0
141
10.0
290
     0
  0
SCALE
  5
4E
102
{ACAD_REACTORS
330
47
102
}
330
47
100
AcDbScale
 70
     0
300
1:16
140
1.0
141
16.0
290
     0
  0
SCALE
  5
4F
102
{ACAD_REACTORS
330
47
102
}
330
47
100
AcDbScale
 70
     0
300
1:20
140
1.0
141
20.0
290
     0
  0
SCALE
  5
50
102
{ACAD_REACTORS
330
47
102
}
330
47
100
AcDbScale
 70
     0
300
1:30
140
1.0
141
30.0
290
     0
  0
SCALE
  5
51
102
{ACAD_REACTORS
330
47
102
}
330
47
100
AcDbScale
 70
     0
300
1:40
140
1.0
141
40.0
290
     0
  0
SCALE
  5
52
102
{ACAD_REACTORS
330
47
102
}
330
47
100
AcDbScale
 70
     0
300
1:50
140
1.0
141
50.0
290
     0
  0
SCALE
  5
53
102
{ACAD_REACTORS
330
47
102
}
330
47
100
AcDbScale
 70
     0
300
1:100
140
1.0
141
100.0
290
     0
  0
SCALE
  5
54
102
{ACAD_REACTORS
330
47
102
}
330
47
100
AcDbScale
 70
     0
300
2:1
140
2.0
141
1.0
290
     0
  0
SCALE
  5
55
102
{ACAD_REACTORS
330
47
102
}
330
47
100
AcDbScale
 70
     0
300
4:1
140
4.0
141
1.0
290
     0
  0
SCALE
  5
56
102
{ACAD_REACTORS
330
47
102
}
330
47
100
AcDbScale
 70
     0
300
8:1
140
8.0
141
1.0
290
     0
  0
SCALE
  5
57
102
{ACAD_REACTORS
330
47
102
}
330
47
100
AcDbScale
 70
     0
300
10:1
140
10.0
141
1.0
290
     0
  0
SCALE
  5
58
102
{ACAD_REACTORS
330
47
102
}
330
47
100
AcDbScale
 70
     0
300
100:1
140
100.0
141
1.0
290
     0
  0
SCALE
  5
59
102
{ACAD_REACTORS
330
47
102
}
330
47
100
AcDbScale
 70
     0
300
1/128" = 1'-0"
140
0.0078125
141
12.0
290
     0
  0
SCALE
  5
5A
102
{ACAD_REACTORS
330
47
102
}
330
47
100
AcDbScale
 70
     0
300
1/64" = 1'-0"
140
0.015625
141
12.0
290
     0
  0
SCALE
  5
5B
102
{ACAD_REACTORS
330
47
102
}
330
47
100
AcDbScale
 70
     0
300
1/32" = 1'-0"
140
0.03125
141
12.0
290
     0
  0
SCALE
  5
5C
102
{ACAD_REACTORS
330
47
102
}
330
47
100
AcDbScale
 70
     0
300
1/16" = 1'-0"
140
0.0625
141
12.0
290
     0
  0
SCALE
  5
5D
102
{ACAD_REACTORS
330
47
102
}
330
47
100
AcDbScale
 70
     0
300
3/32" = 1'-0"
140
0.09375
141
12.0
290
     0
  0
SCALE
  5
5E
102
{ACAD_REACTORS
330
47
102
}
330
47
100
AcDbScale
 70
     0
300
1/8" = 1'-0"
140
0.125
141
12.0
290
     0
  0
SCALE
  5
5F
102
{ACAD_REACTORS
330
47
102
}
330
47
100
AcDbScale
 70
     0
300
3/16" = 1'-0"
140
0.1875
141
12.0
290
     0
  0
SCALE
  5
60
102
{ACAD_REACTORS
330
47
102
}
330
47
100
AcDbScale
 70
     0
300
1/4" = 1'-0"
140
0.25
141
12.0
290
     0
  0
SCALE
  5
61
102
{ACAD_REACTORS
330
47
102
}
330
47
100
AcDbScale
 70
     0
300
3/8" = 1'-0"
140
0.375
141
12.0
290
     0
  0
SCALE
  5
62
102
{ACAD_REACTORS
330
47
102
}
330
47
100
AcDbScale
 70
     0
300
1/2" = 1'-0"
140
0.5
141
12.0
290
     0
  0
SCALE
  5
63
102
{ACAD_REACTORS
330
47
102
}
330
47
100
AcDbScale
 70
     0
300
3/4" = 1'-0"
140
0.75
141
12.0
290
     0
  0
SCALE
  5
64
102
{ACAD_REACTORS
330
47
102
}
330
47
100
AcDbScale
 70
     0
300
1" = 1'-0"
140
1.0
141
12.0
290
     0
  0
SCALE
  5
65
102
{ACAD_REACTORS
330
47
102
}
330
47
100
AcDbScale
 70
     0
300
1-1/2" = 1'-0"
140
1.5
141
12.0
290
     0
  0
SCALE
  5
66
102
{ACAD_REACTORS
330
47
102
}
330
47
100
AcDbScale
 70
     0
300
3" = 1'-0"
140
3.0
141
12.0
290
     0
  0
SCALE
  5
67
102
{ACAD_REACTORS
330
47
102
}
330
47
100
AcDbScale
 70
     0
300
6" = 1'-0"
140
6.0
141
12.0
290
     0
  0
SCALE
  5
68
102
{ACAD_REACTORS
330
47
102
}
330
47
100
AcDbScale
 70
     0
300
1'-0" = 1'-0"
140
12.0
141
12.0
290
     0
  0
ACDBSECTIONVIEWSTYLE
  5
118
102
{ACAD_XDICTIONARY
360
27E
102
}
102
{ACAD_REACTORS
330
113
102
}
330
113
100
AcDbModelDocViewStyle
 70
     0
  3
Imperial24
290
     0
100
AcDbSectionViewStyle
 70
     0
 71
     0
 90
       78
 71
     1
340
11
 62
   256
 40
0.24
340
0
340
0
 62
   256
 40
0.24
300
I, O, Q, S, X, Z
 40
0.48
 90
        3
 40
0.18
 90
        1
 71
     2
340
16
 90
       25
 62
   256
340
16
 90
       50
 62
   256
 40
0.24
 40
0.0
 40
0.24
 71
     3
340
11
 62
   256
 40
0.24
 90
        1
 40
0.75
 90
        1
300
%<\AcVar ViewType \f "%tc1">% %<\AcVar ViewSectionStartId>%-%<\AcVar ViewSectionEndId>%\PSCALE %<\AcVar ViewScale \f "%sn">%
 71
     4
 62
   256
 62
   257
300
ANSI31
 40
1.0
 90
        0
290
     0
290
     0
 90
        6
 40
0.0
 40
1.570796326794896
 40
0.2617993877991494
 40
1.308996938995747
 40
-0.2617993877991494
 40
1.832595714594046
  0
TABLESTYLE
  5
116
102
{ACAD_XDICTIONARY
360
28E
102
}
102
{ACAD_REACTORS
330
110
102
}
330
110
100
AcDbTableStyle
280
     0
  3
Standard
 70
     0
 71
     0
 40
0.06
 41
0.06
280
     0
281
     0
  7
Standard
140
0.18
170
     2
 62
     0
 63
     7
283
     0
 90
      512
 91
        0
  1

274
    -2
284
     1
 64
     0
275
    -2
285
     1
 65
     0
276
    -2
286
     1
 66
     0
277
    -2
287
     1
 67
     0
278
    -2
288
     1
 68
     0
279
    -2
289
     1
 69
     0
  7
Standard
140
0.25
170
     5
 62
     0
 63
     7
283
     0
 90
      512
 91
        0
  1

274
    -2
284
     1
 64
     0
275
    -2
285
     1
 65
     0
276
    -2
286
     1
 66
     0
277
    -2
287
     1
 67
     0
278
    -2
288
     1
 68
     0
279
    -2
289
     1
 69
     0
  7
Standard
140
0.18
170
     5
 62
     0
 63
     7
283
     0
 90
      512
 91
        0
  1

274
    -2
284
     1
 64
     0
275
    -2
285
     1
 65
     0
276
    -2
286
     1
 66
     0
277
    -2
287
     1
 67
     0
278
    -2
288
     1
 68
     0
279
    -2
289
     1
 69
     0
  0
VISUALSTYLE
  5
2F
102
{ACAD_REACTORS
330
2A
102
}
330
2A
100
AcDbVisualStyle
  2
2dWireframe
 70
     4
177
     3
291
     0
 70
    58
 90
        0
176
     1
 90
        2
176
     1
 90
        0
176
     1
 90
        0
176
     1
 40
0.6
176
     1
 40
30.0
176
     1
 62
     7
420
 16777215
176
     1
 90
        1
176
     1
 90
        4
176
     1
 62
     7
176
     1
 62
   257
176
     1
 90
        1
176
     1
 90
        1
176
     1
 40
1.0
176
     1
 90
        0
176
     1
 62
   257
176
     1
 40
1.0
176
     1
 90
        1
176
     1
 90
        6
176
     1
 90
        2
176
     1
 62
     7
176
     1
 90
        5
176
     1
 90
        0
176
     1
 90
        0
176
     1
290
     0
176
     1
 90
        1
176
     1
 40
0.0
176
     1
 90
        0
176
     1
290
     1
176
     1
290
     1
176
     1
290
     0
176
     1
290
     0
176
     1
290
     0
176
     1
290
     0
176
     1
290
     0
176
     1
290
     0
176
     1
290
     0
176
     1
 90
       50
176
     1
 40
0.0
176
     1
 40
1.0
176
     1
 90
        0
176
     1
 62
    18
420
        0
176
     1
 90
       50
176
     1
 90
        3
176
     1
 62
     5
420
      255
176
     1
290
     0
176
     1
 90
       50
176
     1
 90
       50
176
     1
 90
       50
176
     1
290
     0
176
     1
 90
       50
176
     1
 62
   256
176
     0
 40
1.0
176
     0
 90
        2
176
     1
  1
strokes_ogs.tif
176
     1
290
     0
176
     1
 40
1.0
176
     1
 40
1.0
176
     1
  0
VISUALSTYLE
  5
32
102
{ACAD_REACTORS
330
2A
102
}
330
2A
100
AcDbVisualStyle
  2
Basic
 70
     7
177
     3
291
     1
 70
    58
 90
        1
176
     1
 90
        0
176
     1
 90
        1
176
     1
 90
        0
176
     1
 40
0.6
176
     1
 40
30.0
176
     1
 62
     7
420
 16777215
176
     1
 90
        0
176
     1
 90
        4
176
     1
 62
     7
176
     1
 62
   257
176
     1
 90
        1
176
     1
 90
        1
176
     1
 40
1.0
176
     1
 90
        8
176
     1
 62
     7
176
     1
 40
1.0
176
     1
 90
        1
176
     1
 90
        6
176
     1
 90
        2
176
     1
 62
     7
176
     1
 90
        5
176
     1
 90
        0
176
     1
 90
        0
176
     1
290
     0
176
     1
 90
        1
176
     1
 40
0.0
176
     1
 90
        0
176
     1
290
     0
176
     1
290
     1
176
     1
290
     1
176
     1
290
     0
176
     1
290
     0
176
     1
290
     0
176
     1
290
     0
176
     1
290
     0
176
     1
290
     0
176
     1
 90
       50
176
     1
 40
0.0
176
     1
 40
1.0
176
     1
 90
        0
176
     1
 62
    18
420
        0
176
     1
 90
       50
176
     1
 90
        3
176
     1
 62
     5
420
      255
176
     1
290
     0
176
     1
 90
       50
176
     1
 90
       50
176
     1
 90
       50
176
     1
290
     0
176
     1
 90
       50
176
     1
 62
   256
176
     0
 40
1.0
176
     0
 90
        2
176
     1
  1
strokes_ogs.tif
176
     1
290
     0
176
     1
 40
1.0
176
     1
 40
1.0
176
     1
  0
VISUALSTYLE
  5
36
102
{ACAD_REACTORS
330
2A
102
}
330
2A
100
AcDbVisualStyle
  2
Brighten
 70
    12
177
     3
291
     1
 70
    58
 90
        2
176
     1
 90
        2
176
     1
 90
        0
176
     1
 90
        0
176
     1
 40
0.6
176
     1
 40
30.0
176
     1
 62
     7
420
 16777215
176
     1
 90
        1
176
     1
 90
        4
176
     1
 62
     7
176
     1
 62
   257
176
     1
 90
        1
176
     1
 90
        1
176
     1
 40
1.0
176
     1
 90
        8
176
     1
 62
     7
176
     1
 40
1.0
176
     1
 90
        1
176
     1
 90
        6
176
     1
 90
        2
176
     1
 62
     7
176
     1
 90
        5
176
     1
 90
        0
176
     1
 90
        0
176
     1
290
     0
176
     1
 90
        1
176
     1
 40
50.0
176
     1
 90
        0
176
     1
290
     0
176
     1
290
     1
176
     1
290
     1
176
     1
290
     0
176
     1
290
     0
176
     1
290
     0
176
     1
290
     0
176
     1
290
     0
176
     1
290
     0
176
     1
 90
       50
176
     1
 40
0.0
176
     1
 40
1.0
176
     1
 90
        0
176
     1
 62
    18
420
        0
176
     1
 90
       50
176
     1
 90
        3
176
     1
 62
     5
420
      255
176
     1
290
     0
176
     1
 90
       50
176
     1
 90
       50
176
     1
 90
       50
176
     1
290
     0
176
     1
 90
       50
176
     1
 62
   256
176
     0
 40
1.0
176
     0
 90
        2
176
     1
  1
strokes_ogs.tif
176
     1
290
     0
176
     1
 40
1.0
176
     1
 40
1.0
176
     1
  0
VISUALSTYLE
  5
3A
102
{ACAD_REACTORS
330
2A
102
}
330
2A
100
AcDbVisualStyle
  2
ColorChange
 70
    16
177
     3
291
     1
 70
    58
 90
        2
176
     1
 90
        2
176
     1
 90
        3
176
     1
 90
        0
176
     1
 40
0.6
176
     1
 40
30.0
176
     1
 62
     8
420
  8421504
176
     1
 90
        1
176
     1
 90
        4
176
     1
 62
     7
176
     1
 62
   257
176
     1
 90
        1
176
     1
 90
        1
176
     1
 40
1.0
176
     1
 90
        8
176
     1
 62
     8
420
  8421504
176
     1
 40
1.0
176
     1
 90
        1
176
     1
 90
        6
176
     1
 90
        2
176
     1
 62
     7
176
     1
 90
        5
176
     1
 90
        0
176
     1
 90
        0
176
     1
290
     0
176
     1
 90
        1
176
     1
 40
0.0
176
     1
 90
        0
176
     1
290
     0
176
     1
290
     1
176
     1
290
     1
176
     1
290
     0
176
     1
290
     0
176
     1
290
     0
176
     1
290
     0
176
     1
290
     0
176
     1
290
     0
176
     1
 90
       50
176
     1
 40
0.0
176
     1
 40
1.0
176
     1
 90
        0
176
     1
 62
    18
420
        0
176
     1
 90
       50
176
     1
 90
        3
176
     1
 62
     5
420
      255
176
     1
290
     0
176
     1
 90
       50
176
     1
 90
       50
176
     1
 90
       50
176
     1
290
     0
176
     1
 90
       50
176
     1
 62
   256
176
     0
 40
1.0
176
     0
 90
        2
176
     1
  1
strokes_ogs.tif
176
     1
290
     0
176
     1
 40
1.0
176
     1
 40
1.0
176
     1
  0
VISUALSTYLE
  5
34
102
{ACAD_REACTORS
330
2A
102
}
330
2A
100
AcDbVisualStyle
  2
Conceptual
 70
     9
177
     3
291
     0
 70
    58
 90
        3
176
     1
 90
        2
176
     1
 90
        0
176
     1
 90
        0
176
     1
 40
0.6
176
     1
 40
30.0
176
     1
 62
     7
420
 16777215
176
     1
 90
        2
176
     1
 90
        2
176
     1
 62
     7
176
     1
 62
   257
176
     1
 90
        1
176
     1
 90
        1
176
     1
 40
179.0
176
     1
 90
        8
176
     1
 62
     7
176
     1
 40
1.0
176
     1
 90
        1
176
     1
 90
        6
176
     1
 90
        2
176
     1
 62
     7
176
     1
 90
        3
176
     1
 90
        0
176
     1
 90
        0
176
     1
290
     0
176
     1
 90
        1
176
     1
 40
0.0
176
     1
 90
        0
176
     1
290
     0
176
     1
290
     1
176
     1
290
     1
176
     1
290
     0
176
     1
290
     0
176
     1
290
     0
176
     1
290
     0
176
     1
290
     0
176
     1
290
     0
176
     1
 90
       50
176
     1
 40
0.0
176
     1
 40
1.0
176
     1
 90
        0
176
     1
 62
    18
420
        0
176
     1
 90
       50
176
     1
 90
        3
176
     1
 62
     5
420
      255
176
     1
290
     0
176
     1
 90
       50
176
     1
 90
       50
176
     1
 90
       50
176
     1
290
     0
176
     1
 90
       50
176
     1
 62
   256
176
     0
 40
1.0
176
     0
 90
        2
176
     1
  1
strokes_ogs.tif
176
     1
290
     0
176
     1
 40
1.0
176
     1
 40
1.0
176
     1
  0
VISUALSTYLE
  5
35
102
{ACAD_REACTORS
330
2A
102
}
330
2A
100
AcDbVisualStyle
  2
Dim
 70
    11
177
     3
291
     1
 70
    58
 90
        2
176
     1
 90
        2
176
     1
 90
        0
176
     1
 90
        0
176
     1
 40
0.6
176
     1
 40
30.0
176
     1
 62
     7
420
 16777215
176
     1
 90
        1
176
     1
 90
        4
176
     1
 62
     7
176
     1
 62
   257
176
     1
 90
        1
176
     1
 90
        1
176
     1
 40
1.0
176
     1
 90
        8
176
     1
 62
     7
176
     1
 40
1.0
176
     1
 90
        1
176
     1
 90
        6
176
     1
 90
        2
176
     1
 62
     7
176
     1
 90
        5
176
     1
 90
        0
176
     1
 90
        0
176
     1
290
     0
176
     1
 90
        1
176
     1
 40
-50.0
176
     1
 90
        0
176
     1
290
     0
176
     1
290
     1
176
     1
290
     1
176
     1
290
     0
176
     1
290
     0
176
     1
290
     0
176
     1
290
     0
176
     1
290
     0
176
     1
290
     0
176
     1
 90
       50
176
     1
 40
0.0
176
     1
 40
1.0
176
     1
 90
        0
176
     1
 62
    18
420
        0
176
     1
 90
       50
176
     1
 90
        3
176
     1
 62
     5
420
      255
176
     1
290
     0
176
     1
 90
       50
176
     1
 90
       50
176
     1
 90
       50
176
     1
290
     0
176
     1
 90
       50
176
     1
 62
   256
176
     0
 40
1.0
176
     0
 90
        2
176
     1
  1
strokes_ogs.tif
176
     1
290
     0
176
     1
 40
1.0
176
     1
 40
1.0
176
     1
  0
VISUALSTYLE
  5
3D
102
{ACAD_REACTORS
330
2A
102
}
330
2A
100
AcDbVisualStyle
  2
EdgeColorOff
 70
    22
177
     3
291
     1
 70
    58
 90
        2
176
     0
 90
        2
176
     0
 90
        0
176
     0
 90
        0
176
     0
 40
0.6
176
     0
 40
30.0
176
     0
 62
     7
420
 16777215
176
     0
 90
        1
176
     0
 90
        4
176
     0
 62
     7
176
     0
 62
   257
176
     0
 90
        1
176
     0
 90
        1
176
     0
 40
1.0
176
     0
 90
        8
176
     2
 62
     7
176
     0
 40
1.0
176
     0
 90
        1
176
     0
 90
        6
176
     0
 90
        2
176
     0
 62
     7
176
     0
 90
        5
176
     0
 90
        0
176
     0
 90
        0
176
     0
290
     0
176
     0
 90
        1
176
     0
 40
0.0
176
     0
 90
        0
176
     0
290
     0
176
     0
290
     1
176
     0
290
     1
176
     0
290
     0
176
     0
290
     0
176
     0
290
     0
176
     0
290
     0
176
     0
290
     0
176
     0
290
     0
176
     0
 90
       50
176
     0
 40
0.0
176
     0
 40
1.0
176
     0
 90
        0
176
     0
 62
    18
420
        0
176
     0
 90
       50
176
     0
 90
        3
176
     0
 62
     5
420
      255
176
     0
290
     0
176
     0
 90
       50
176
     0
 90
       50
176
     0
 90
       50
176
     0
290
     0
176
     0
 90
       50
176
     0
 62
   256
176
     0
 40
1.0
176
     0
 90
        2
176
     0
  1
strokes_ogs.tif
176
     0
290
     0
176
     0
 40
1.0
176
     0
 40
1.0
176
     0
  0
VISUALSTYLE
  5
39
102
{ACAD_REACTORS
330
2A
102
}
330
2A
100
AcDbVisualStyle
  2
Facepattern
 70
    15
177
     3
291
     1
 70
    58
 90
        2
176
     1
 90
        2
176
     1
 90
        0
176
     1
 90
        0
176
     1
 40
0.6
176
     1
 40
30.0
176
     1
 62
     7
420
 16777215
176
     1
 90
        1
176
     1
 90
        4
176
     1
 62
     7
176
     1
 62
   257
176
     1
 90
        1
176
     1
 90
        1
176
     1
 40
1.0
176
     1
 90
        8
176
     1
 62
     7
176
     1
 40
1.0
176
     1
 90
        1
176
     1
 90
        6
176
     1
 90
        2
176
     1
 62
     7
176
     1
 90
        5
176
     1
 90
        0
176
     1
 90
        0
176
     1
290
     0
176
     1
 90
        1
176
     1
 40
0.0
176
     1
 90
        0
176
     1
290
     0
176
     1
290
     1
176
     1
290
     1
176
     1
290
     0
176
     1
290
     0
176
     1
290
     0
176
     1
290
     0
176
     1
290
     0
176
     1
290
     0
176
     1
 90
       50
176
     1
 40
0.0
176
     1
 40
1.0
176
     1
 90
        0
176
     1
 62
    18
420
        0
176
     1
 90
       50
176
     1
 90
        3
176
     1
 62
     5
420
      255
176
     1
290
     0
176
     1
 90
       50
176
     1
 90
       50
176
     1
 90
       50
176
     1
290
     0
176
     1
 90
       50
176
     1
 62
   256
176
     0
 40
1.0
176
     0
 90
        2
176
     1
  1
strokes_ogs.tif
176
     1
290
     0
176
     1
 40
1.0
176
     1
 40
1.0
176
     1
  0
VISUALSTYLE
  5
2B
102
{ACAD_REACTORS
330
2A
102
}
330
2A
100
AcDbVisualStyle
  2
Flat
 70
     0
177
     3
291
     1
 70
    58
 90
        2
176
     1
 90
        1
176
     1
 90
        1
176
     1
 90
        2
176
     1
 40
0.6
176
     1
 40
30.0
176
     1
 62
     7
420
 16777215
176
     1
 90
        0
176
     1
 90
        0
176
     1
 62
     7
176
     1
 62
   257
176
     1
 90
        1
176
     1
 90
        1
176
     1
 40
1.0
176
     1
 90
        8
176
     1
 62
     7
176
     1
 40
1.0
176
     1
 90
        1
176
     1
 90
        6
176
     1
 90
        2
176
     1
 62
     7
176
     1
 90
        5
176
     1
 90
        0
176
     1
 90
        0
176
     1
290
     0
176
     1
 90
       13
176
     1
 40
0.0
176
     1
 90
        0
176
     1
290
     0
176
     1
290
     1
176
     1
290
     1
176
     1
290
     0
176
     1
290
     0
176
     1
290
     0
176
     1
290
     0
176
     1
290
     0
176
     1
290
     0
176
     1
 90
       50
176
     1
 40
0.0
176
     1
 40
1.0
176
     1
 90
        0
176
     1
 62
    18
420
        0
176
     1
 90
       50
176
     1
 90
        3
176
     1
 62
     5
420
      255
176
     1
290
     0
176
     1
 90
       50
176
     1
 90
       50
176
     1
 90
       50
176
     1
290
     0
176
     1
 90
       50
176
     1
 62
   256
176
     0
 40
1.0
176
     0
 90
        2
176
     1
  1
strokes_ogs.tif
176
     1
290
     0
176
     1
 40
1.0
176
     1
 40
1.0
176
     1
  0
VISUALSTYLE
  5
2C
102
{ACAD_REACTORS
330
2A
102
}
330
2A
100
AcDbVisualStyle
  2
FlatWithEdges
 70
     1
177
     3
291
     1
 70
    58
 90
        2
176
     1
 90
        1
176
     1
 90
        1
176
     1
 90
        2
176
     1
 40
0.6
176
     1
 40
30.0
176
     1
 62
     7
420
 16777215
176
     1
 90
        1
176
     1
 90
        0
176
     1
 62
     7
176
     1
 62
   257
176
     1
 90
        1
176
     1
 90
        1
176
     1
 40
1.0
176
     1
 90
        0
176
     1
 62
   257
176
     1
 40
1.0
176
     1
 90
        1
176
     1
 90
        6
176
     1
 90
        2
176
     1
 62
     7
176
     1
 90
        5
176
     1
 90
        0
176
     1
 90
        0
176
     1
290
     0
176
     1
 90
       13
176
     1
 40
0.0
176
     1
 90
        0
176
     1
290
     0
176
     1
290
     1
176
     1
290
     1
176
     1
290
     0
176
     1
290
     0
176
     1
290
     0
176
     1
290
     0
176
     1
290
     0
176
     1
290
     0
176
     1
 90
       50
176
     1
 40
0.0
176
     1
 40
1.0
176
     1
 90
        0
176
     1
 62
    18
420
        0
176
     1
 90
       50
176
     1
 90
        3
176
     1
 62
     5
420
      255
176
     1
290
     0
176
     1
 90
       50
176
     1
 90
       50
176
     1
 90
       50
176
     1
290
     0
176
     1
 90
       50
176
     1
 62
   256
176
     0
 40
1.0
176
     0
 90
        2
176
     1
  1
strokes_ogs.tif
176
     1
290
     0
176
     1
 40
1.0
176
     1
 40
1.0
176
     1
  0
VISUALSTYLE
  5
2D
102
{ACAD_REACTORS
330
2A
102
}
330
2A
100
AcDbVisualStyle
  2
Gouraud
 70
     2
177
     3
291
     1
 70
    58
 90
        2
176
     1
 90
        2
176
     1
 90
        1
176
     1
 90
        2
176
     1
 40
0.6
176
     1
 40
30.0
176
     1
 62
     7
420
 16777215
176
     1
 90
        0
176
     1
 90
        0
176
     1
 62
     7
176
     1
 62
   257
176
     1
 90
        1
176
     1
 90
        1
176
     1
 40
1.0
176
     1
 90
        0
176
     1
 62
     7
176
     1
 40
1.0
176
     1
 90
        1
176
     1
 90
        6
176
     1
 90
        2
176
     1
 62
     7
176
     1
 90
        5
176
     1
 90
        0
176
     1
 90
        0
176
     1
290
     0
176
     1
 90
       13
176
     1
 40
0.0
176
     1
 90
        0
176
     1
290
     0
176
     1
290
     1
176
     1
290
     1
176
     1
290
     0
176
     1
290
     0
176
     1
290
     0
176
     1
290
     0
176
     1
290
     0
176
     1
290
     0
176
     1
 90
       50
176
     1
 40
0.0
176
     1
 40
1.0
176
     1
 90
        0
176
     1
 62
    18
420
        0
176
     1
 90
       50
176
     1
 90
        3
176
     1
 62
     5
420
      255
176
     1
290
     0
176
     1
 90
       50
176
     1
 90
       50
176
     1
 90
       50
176
     1
290
     0
176
     1
 90
       50
176
     1
 62
   256
176
     0
 40
1.0
176
     0
 90
        2
176
     1
  1
strokes_ogs.tif
176
     1
290
     0
176
     1
 40
1.0
176
     1
 40
1.0
176
     1
  0
VISUALSTYLE
  5
2E
102
{ACAD_REACTORS
330
2A
102
}
330
2A
100
AcDbVisualStyle
  2
GouraudWithEdges
 70
     3
177
     3
291
     1
 70
    58
 90
        2
176
     1
 90
        2
176
     1
 90
        1
176
     1
 90
        2
176
     1
 40
0.6
176
     1
 40
30.0
176
     1
 62
     7
420
 16777215
176
     1
 90
        1
176
     1
 90
        0
176
     1
 62
     7
176
     1
 62
   257
176
     1
 90
        1
176
     1
 90
        1
176
     1
 40
1.0
176
     1
 90
        0
176
     1
 62
   257
176
     1
 40
1.0
176
     1
 90
        1
176
     1
 90
        6
176
     1
 90
        2
176
     1
 62
     7
176
     1
 90
        5
176
     1
 90
        0
176
     1
 90
        0
176
     1
290
     0
176
     1
 90
       13
176
     1
 40
0.0
176
     1
 90
        0
176
     1
290
     0
176
     1
290
     1
176
     1
290
     1
176
     1
290
     0
176
     1
290
     0
176
     1
290
     0
176
     1
290
     0
176
     1
290
     0
176
     1
290
     0
176
     1
 90
       50
176
     1
 40
0.0
176
     1
 40
1.0
176
     1
 90
        0
176
     1
 62
    18
420
        0
176
     1
 90
       50
176
     1
 90
        3
176
     1
 62
     5
420
      255
176
     1
290
     0
176
     1
 90
       50
176
     1
 90
       50
176
     1
 90
       50
176
     1
290
     0
176
     1
 90
       50
176
     1
 62
   256
176
     0
 40
1.0
176
     0
 90
        2
176
     1
  1
strokes_ogs.tif
176
     1
290
     0
176
     1
 40
1.0
176
     1
 40
1.0
176
     1
  0
VISUALSTYLE
  5
31
102
{ACAD_REACTORS
330
2A
102
}
330
2A
100
AcDbVisualStyle
  2
Hidden
 70
     6
177
     3
291
     0
 70
    58
 90
        1
176
     1
 90
        2
176
     1
 90
        2
176
     1
 90
        0
176
     1
 40
0.6
176
     1
 40
30.0
176
     1
 62
     7
420
 16777215
176
     1
 90
        2
176
     1
 90
        2
176
     1
 62
     7
176
     1
 62
   257
176
     1
 90
        2
176
     1
 90
        1
176
     1
 40
40.0
176
     1
 90
        0
176
     1
 62
   257
176
     1
 40
1.0
176
     1
 90
        1
176
     1
 90
        6
176
     1
 90
        2
176
     1
 62
     7
176
     1
 90
        3
176
     1
 90
        0
176
     1
 90
        0
176
     1
290
     0
176
     1
 90
        1
176
     1
 40
0.0
176
     1
 90
        0
176
     1
290
     0
176
     1
290
     1
176
     1
290
     1
176
     1
290
     0
176
     1
290
     0
176
     1
290
     0
176
     1
290
     0
176
     1
290
     0
176
     1
290
     0
176
     1
 90
       50
176
     1
 40
0.0
176
     1
 40
1.0
176
     1
 90
        0
176
     1
 62
    18
420
        0
176
     1
 90
       50
176
     1
 90
        3
176
     1
 62
     5
420
      255
176
     1
290
     0
176
     1
 90
       50
176
     1
 90
       50
176
     1
 90
       50
176
     1
290
     0
176
     1
 90
       50
176
     1
 62
   256
176
     0
 40
1.0
176
     0
 90
        2
176
     1
  1
strokes_ogs.tif
176
     1
290
     0
176
     1
 40
1.0
176
     1
 40
1.0
176
     1
  0
VISUALSTYLE
  5
3B
102
{ACAD_REACTORS
330
2A
102
}
330
2A
100
AcDbVisualStyle
  2
JitterOff
 70
    20
177
     3
291
     1
 70
    58
 90
        2
176
     0
 90
        2
176
     0
 90
        0
176
     0
 90
        0
176
     0
 40
0.6
176
     0
 40
30.0
176
     0
 62
     7
420
 16777215
176
     0
 90
        1
176
     0
 90
        4
176
     0
 62
     7
176
     0
 62
   257
176
     0
 90
        1
176
     0
 90
        1
176
     0
 40
1.0
176
     0
 90
       10
176
     2
 62
     7
176
     0
 40
1.0
176
     0
 90
        1
176
     0
 90
        6
176
     0
 90
        2
176
     0
 62
     7
176
     0
 90
        5
176
     0
 90
        0
176
     0
 90
        0
176
     0
290
     0
176
     0
 90
        1
176
     0
 40
0.0
176
     0
 90
        0
176
     0
290
     0
176
     0
290
     1
176
     0
290
     1
176
     0
290
     0
176
     0
290
     0
176
     0
290
     0
176
     0
290
     0
176
     0
290
     0
176
     0
290
     0
176
     0
 90
       50
176
     0
 40
0.0
176
     0
 40
1.0
176
     0
 90
        0
176
     0
 62
    18
420
        0
176
     0
 90
       50
176
     0
 90
        3
176
     0
 62
     5
420
      255
176
     0
290
     0
176
     0
 90
       50
176
     0
 90
       50
176
     0
 90
       50
176
     0
290
     0
176
     0
 90
       50
176
     0
 62
   256
176
     0
 40
1.0
176
     0
 90
        2
176
     0
  1
strokes_ogs.tif
176
     0
290
     0
176
     0
 40
1.0
176
     0
 40
1.0
176
     0
  0
VISUALSTYLE
  5
38
102
{ACAD_REACTORS
330
2A
102
}
330
2A
100
AcDbVisualStyle
  2
Linepattern
 70
    14
177
     3
291
     1
 70
    58
 90
        2
176
     1
 90
        2
176
     1
 90
        0
176
     1
 90
        0
176
     1
 40
0.6
176
     1
 40
30.0
176
     1
 62
     7
420
 16777215
176
     1
 90
        1
176
     1
 90
        4
176
     1
 62
     7
176
     1
 62
   257
176
     1
 90
        7
176
     1
 90
        7
176
     1
 40
1.0
176
     1
 90
        8
176
     1
 62
     7
176
     1
 40
1.0
176
     1
 90
        1
176
     1
 90
        6
176
     1
 90
        2
176
     1
 62
     7
176
     1
 90
        5
176
     1
 90
        0
176
     1
 90
        0
176
     1
290
     0
176
     1
 90
        1
176
     1
 40
0.0
176
     1
 90
        0
176
     1
290
     0
176
     1
290
     1
176
     1
290
     1
176
     1
290
     0
176
     1
290
     0
176
     1
290
     0
176
     1
290
     0
176
     1
290
     0
176
     1
290
     0
176
     1
 90
       50
176
     1
 40
0.0
176
     1
 40
1.0
176
     1
 90
        0
176
     1
 62
    18
420
        0
176
     1
 90
       50
176
     1
 90
        3
176
     1
 62
     5
420
      255
176
     1
290
     0
176
     1
 90
       50
176
     1
 90
       50
176
     1
 90
       50
176
     1
290
     0
176
     1
 90
       50
176
     1
 62
   256
176
     0
 40
1.0
176
     0
 90
        2
176
     1
  1
strokes_ogs.tif
176
     1
290
     0
176
     1
 40
1.0
176
     1
 40
1.0
176
     1
  0
VISUALSTYLE
  5
3C
102
{ACAD_REACTORS
330
2A
102
}
330
2A
100
AcDbVisualStyle
  2
OverhangOff
 70
    21
177
     3
291
     1
 70
    58
 90
        2
176
     0
 90
        2
176
     0
 90
        0
176
     0
 90
        0
176
     0
 40
0.6
176
     0
 40
30.0
176
     0
 62
     7
420
 16777215
176
     0
 90
        1
176
     0
 90
        4
176
     0
 62
     7
176
     0
 62
   257
176
     0
 90
        1
176
     0
 90
        1
176
     0
 40
1.0
176
     0
 90
        9
176
     2
 62
     7
176
     0
 40
1.0
176
     0
 90
        1
176
     0
 90
        6
176
     0
 90
        2
176
     0
 62
     7
176
     0
 90
        5
176
     0
 90
        0
176
     0
 90
        0
176
     0
290
     0
176
     0
 90
        1
176
     0
 40
0.0
176
     0
 90
        0
176
     0
290
     0
176
     0
290
     1
176
     0
290
     1
176
     0
290
     0
176
     0
290
     0
176
     0
290
     0
176
     0
290
     0
176
     0
290
     0
176
     0
290
     0
176
     0
 90
       50
176
     0
 40
0.0
176
     0
 40
1.0
176
     0
 90
        0
176
     0
 62
    18
420
        0
176
     0
 90
       50
176
     0
 90
        3
176
     0
 62
     5
420
      255
176
     0
290
     0
176
     0
 90
       50
176
     0
 90
       50
176
     0
 90
       50
176
     0
290
     0
176
     0
 90
       50
176
     0
 62
   256
176
     0
 40
1.0
176
     0
 90
        2
176
     0
  1
strokes_ogs.tif
176
     0
290
     0
176
     0
 40
1.0
176
     0
 40
1.0
176
     0
  0
VISUALSTYLE
  5
33
102
{ACAD_REACTORS
330
2A
102
}
330
2A
100
AcDbVisualStyle
  2
Realistic
 70
     8
177
     3
291
     0
 70
    58
 90
        2
176
     1
 90
        3
176
     1
 90
        0
176
     1
 90
        2
176
     1
 40
0.6
176
     1
 40
30.0
176
     1
 62
     7
420
 16777215
176
     1
 90
        0
176
     1
 90
        0
176
     1
 62
     7
176
     1
 62
   257
176
     1
 90
        1
176
     1
 90
        1
176
     1
 40
1.0
176
     1
 90
        8
176
     1
 62
   257
176
     1
 40
1.0
176
     1
 90
        1
176
     1
 90
        6
176
     1
 90
        2
176
     1
 62
     7
176
     1
 90
        3
176
     1
 90
        0
176
     1
 90
        0
176
     1
290
     0
176
     1
 90
       13
176
     1
 40
0.0
176
     1
 90
        0
176
     1
290
     0
176
     1
290
     1
176
     1
290
     1
176
     1
290
     0
176
     1
290
     0
176
     1
290
     0
176
     1
290
     0
176
     1
290
     0
176
     1
290
     0
176
     1
 90
       50
176
     1
 40
0.0
176
     1
 40
1.0
176
     1
 90
        0
176
     1
 62
    18
420
        0
176
     1
 90
       50
176
     1
 90
        3
176
     1
 62
     5
420
      255
176
     1
290
     0
176
     1
 90
       50
176
     1
 90
       50
176
     1
 90
       50
176
     1
290
     0
176
     1
 90
       50
176
     1
 62
   256
176
     0
 40
1.0
176
     0
 90
        2
176
     1
  1
strokes_ogs.tif
176
     1
290
     0
176
     1
 40
1.0
176
     1
 40
1.0
176
     1
  0
VISUALSTYLE
  5
42
102
{ACAD_REACTORS
330
2A
102
}
330
2A
100
AcDbVisualStyle
  2
Shaded
 70
    27
177
     3
291
     0
 70
    58
 90
        2
176
     1
 90
        2
176
     1
 90
        1
176
     1
 90
        2
176
     1
 40
0.6
176
     1
 40
30.0
176
     1
 62
     7
420
 16777215
176
     1
 90
        0
176
     1
 90
        4
176
     1
 62
     7
176
     1
 62
   257
176
     1
 90
        1
176
     1
 90
        1
176
     1
 40
1.0
176
     1
 90
        8
176
     1
 62
   257
176
     1
 40
1.0
176
     1
 90
        1
176
     1
 90
        6
176
     1
 90
        2
176
     1
 62
     8
420
  7895160
176
     1
 90
        3
176
     1
 90
        0
176
     1
 90
        0
176
     1
290
     0
176
     1
 90
        5
176
     1
 40
0.0
176
     1
 90
        0
176
     1
290
     0
176
     1
290
     1
176
     1
290
     1
176
     1
290
     0
176
     1
290
     0
176
     1
290
     0
176
     1
290
     0
176
     1
290
     0
176
     1
290
     0
176
     1
 90
       50
176
     1
 40
0.0
176
     1
 40
1.0
176
     1
 90
        0
176
     1
 62
    18
420
        0
176
     1
 90
       50
176
     1
 90
        3
176
     1
 62
     5
420
      255
176
     1
290
     0
176
     1
 90
       50
176
     1
 90
       50
176
     1
 90
       50
176
     1
290
     0
176
     1
 90
       50
176
     1
 62
   256
176
     0
 40
1.0
176
     0
 90
        2
176
     1
  1
strokes_ogs.tif
176
     1
290
     0
176
     1
 40
1.0
176
     1
 40
1.0
176
     1
  0
VISUALSTYLE
  5
41
102
{ACAD_REACTORS
330
2A
102
}
330
2A
100
AcDbVisualStyle
  2
Shaded with edges
 70
    26
177
     3
291
     0
 70
    58
 90
        2
176
     1
 90
        2
176
     1
 90
        1
176
     1
 90
        2
176
     1
 40
0.6
176
     1
 40
30.0
176
     1
 62
     7
420
 16777215
176
     1
 90
        1
176
     1
 90
       10
176
     1
 62
     7
176
     1
 62
   257
176
     1
 90
        2
176
     1
 90
        1
176
     1
 40
1.0
176
     1
 90
        8
176
     1
 62
   257
176
     1
 40
1.0
176
     1
 90
        1
176
     1
 90
        6
176
     1
 90
        2
176
     1
 62
     7
176
     1
 90
        3
176
     1
 90
        0
176
     1
 90
        0
176
     1
290
     0
176
     1
 90
        5
176
     1
 40
0.0
176
     1
 90
        0
176
     1
290
     0
176
     1
290
     1
176
     1
290
     1
176
     1
290
     0
176
     1
290
     0
176
     1
290
     0
176
     1
290
     0
176
     1
290
     0
176
     1
290
     0
176
     1
 90
       50
176
     1
 40
0.0
176
     1
 40
1.0
176
     1
 90
        0
176
     1
 62
    18
420
        0
176
     1
 90
       50
176
     1
 90
        3
176
     1
 62
     5
420
      255
176
     1
290
     0
176
     1
 90
       50
176
     1
 90
       50
176
     1
 90
       50
176
     1
290
     0
176
     1
 90
       50
176
     1
 62
   256
176
     0
 40
1.0
176
     0
 90
        2
176
     1
  1
strokes_ogs.tif
176
     1
290
     0
176
     1
 40
1.0
176
     1
 40
1.0
176
     1
  0
VISUALSTYLE
  5
3E
102
{ACAD_REACTORS
330
2A
102
}
330
2A
100
AcDbVisualStyle
  2
Shades of Gray
 70
    23
177
     3
291
     0
 70
    58
 90
        2
176
     1
 90
        2
176
     1
 90
        3
176
     1
 90
        0
176
     1
 40
0.6
176
     1
 40
30.0
176
     1
 62
     7
420
 16777215
176
     1
 90
        2
176
     1
 90
        2
176
     1
 62
     7
176
     1
 62
     7
176
     1
 90
        1
176
     1
 90
        1
176
     1
 40
40.0
176
     1
 90
        8
176
     1
 62
     7
176
     1
 40
1.0
176
     1
 90
        1
176
     1
 90
        6
176
     1
 90
        2
176
     1
 62
     7
176
     1
 90
        3
176
     1
 90
        0
176
     1
 90
        0
176
     1
290
     0
176
     1
 90
        1
176
     1
 40
0.0
176
     1
 90
        0
176
     1
290
     0
176
     1
290
     1
176
     1
290
     1
176
     1
290
     0
176
     1
290
     0
176
     1
290
     0
176
     1
290
     0
176
     1
290
     0
176
     1
290
     0
176
     1
 90
       50
176
     1
 40
0.0
176
     1
 40
1.0
176
     1
 90
        0
176
     1
 62
    18
420
        0
176
     1
 90
       50
176
     1
 90
        3
176
     1
 62
     5
420
      255
176
     1
290
     0
176
     1
 90
       50
176
     1
 90
       50
176
     1
 90
       50
176
     1
290
     0
176
     1
 90
       50
176
     1
 62
   256
176
     0
 40
1.0
176
     0
 90
        2
176
     1
  1
strokes_ogs.tif
176
     1
290
     0
176
     1
 40
1.0
176
     1
 40
1.0
176
     1
  0
VISUALSTYLE
  5
3F
102
{ACAD_REACTORS
330
2A
102
}
330
2A
100
AcDbVisualStyle
  2
Sketchy
 70
    24
177
     3
291
     0
 70
    58
 90
        1
176
     1
 90
        2
176
     1
 90
        2
176
     1
 90
        0
176
     1
 40
0.6
176
     1
 40
30.0
176
     1
 62
     7
420
 16777215
176
     1
 90
        2
176
     1
 90
        2
176
     1
 62
     7
176
     1
 62
     7
176
     1
 90
        1
176
     1
 90
        1
176
     1
 40
40.0
176
     1
 90
       11
176
     1
 62
     7
176
     1
 40
1.0
176
     1
 90
        1
176
     1
 90
        6
176
     1
 90
        2
176
     1
 62
     7
176
     1
 90
        6
176
     1
 90
        0
176
     1
 90
        0
176
     1
290
     0
176
     1
 90
        1
176
     1
 40
0.0
176
     1
 90
        0
176
     1
290
     0
176
     1
290
     1
176
     1
290
     1
176
     1
290
     0
176
     1
290
     0
176
     1
290
     0
176
     1
290
     0
176
     1
290
     0
176
     1
290
     0
176
     1
 90
       50
176
     1
 40
0.0
176
     1
 40
1.0
176
     1
 90
        0
176
     1
 62
    18
420
        0
176
     1
 90
       50
176
     1
 90
        3
176
     1
 62
     5
420
      255
176
     1
290
     0
176
     1
 90
       50
176
     1
 90
       50
176
     1
 90
       50
176
     1
290
     0
176
     1
 90
       50
176
     1
 62
   256
176
     0
 40
1.0
176
     0
 90
        2
176
     1
  1
strokes_ogs.tif
176
     1
290
     0
176
     1
 40
1.0
176
     1
 40
1.0
176
     1
  0
VISUALSTYLE
  5
37
102
{ACAD_REACTORS
330
2A
102
}
330
2A
100
AcDbVisualStyle
  2
Thicken
 70
    13
177
     3
291
     1
 70
    58
 90
        2
176
     1
 90
        2
176
     1
 90
        0
176
     1
 90
        0
176
     1
 40
0.6
176
     1
 40
30.0
176
     1
 62
     7
420
 16777215
176
     1
 90
        1
176
     1
 90
        4
176
     1
 62
     7
176
     1
 62
   257
176
     1
 90
        1
176
     1
 90
        1
176
     1
 40
1.0
176
     1
 90
       12
176
     1
 62
     7
176
     1
 40
1.0
176
     1
 90
        1
176
     1
 90
        6
176
     1
 90
        2
176
     1
 62
     7
176
     1
 90
        5
176
     1
 90
        0
176
     1
 90
        0
176
     1
290
     0
176
     1
 90
        1
176
     1
 40
0.0
176
     1
 90
        0
176
     1
290
     0
176
     1
290
     1
176
     1
290
     1
176
     1
290
     0
176
     1
290
     0
176
     1
290
     0
176
     1
290
     0
176
     1
290
     0
176
     1
290
     0
176
     1
 90
       50
176
     1
 40
0.0
176
     1
 40
1.0
176
     1
 90
        0
176
     1
 62
    18
420
        0
176
     1
 90
       50
176
     1
 90
        3
176
     1
 62
     5
420
      255
176
     1
290
     0
176
     1
 90
       50
176
     1
 90
       50
176
     1
 90
       50
176
     1
290
     0
176
     1
 90
       50
176
     1
 62
   256
176
     0
 40
1.0
176
     0
 90
        2
176
     1
  1
strokes_ogs.tif
176
     1
290
     0
176
     1
 40
1.0
176
     1
 40
1.0
176
     1
  0
VISUALSTYLE
  5
30
102
{ACAD_REACTORS
330
2A
102
}
330
2A
100
AcDbVisualStyle
  2
Wireframe
 70
     5
177
     3
291
     0
 70
    58
 90
        0
176
     1
 90
        2
176
     1
 90
        0
176
     1
 90
        0
176
     1
 40
0.6
176
     1
 40
30.0
176
     1
 62
     7
420
 16777215
176
     1
 90
        1
176
     1
 90
        4
176
     1
 62
     7
176
     1
 62
   257
176
     1
 90
        1
176
     1
 90
        1
176
     1
 40
1.0
176
     1
 90
        0
176
     1
 62
   257
176
     1
 40
1.0
176
     1
 90
        1
176
     1
 90
        6
176
     1
 90
        2
176
     1
 62
     7
176
     1
 90
        3
176
     1
 90
        0
176
     1
 90
        0
176
     1
290
     0
176
     1
 90
        1
176
     1
 40
0.0
176
     1
 90
        0
176
     1
290
     0
176
     1
290
     1
176
     1
290
     1
176
     1
290
     0
176
     1
290
     0
176
     1
290
     0
176
     1
290
     0
176
     1
290
     0
176
     1
290
     0
176
     1
 90
       50
176
     1
 40
0.0
176
     1
 40
1.0
176
     1
 90
        0
176
     1
 62
    18
420
        0
176
     1
 90
       50
176
     1
 90
        3
176
     1
 62
     5
420
      255
176
     1
290
     0
176
     1
 90
       50
176
     1
 90
       50
176
     1
 90
       50
176
     1
290
     0
176
     1
 90
       50
176
     1
 62
   256
176
     0
 40
1.0
176
     0
 90
        2
176
     1
  1
strokes_ogs.tif
176
     1
290
     0
176
     1
 40
1.0
176
     1
 40
1.0
176
     1
  0
VISUALSTYLE
  5
40
102
{ACAD_REACTORS
330
2A
102
}
330
2A
100
AcDbVisualStyle
  2
X-Ray
 70
    25
177
     3
291
     0
 70
    58
 90
        2
176
     1
 90
        2
176
     1
 90
        1
176
     1
 90
        1
176
     1
 40
0.5
176
     1
 40
30.0
176
     1
 62
     7
420
 16777215
176
     1
 90
        1
176
     1
 90
        0
176
     1
 62
     7
176
     1
 62
   257
176
     1
 90
        1
176
     1
 90
        1
176
     1
 40
1.0
176
     1
 90
        8
176
     1
 62
     7
176
     1
 40
1.0
176
     1
 90
        1
176
     1
 90
        6
176
     1
 90
        2
176
     1
 62
     7
176
     1
 90
        3
176
     1
 90
        0
176
     1
 90
        0
176
     1
290
     0
176
     1
 90
       13
176
     1
 40
0.0
176
     1
 90
        0
176
     1
290
     0
176
     1
290
     1
176
     1
290
     1
176
     1
290
     0
176
     1
290
     0
176
     1
290
     0
176
     1
290
     0
176
     1
290
     0
176
     1
290
     0
176
     1
 90
       50
176
     1
 40
0.0
176
     1
 40
1.0
176
     1
 90
        0
176
     1
 62
    18
420
        0
176
     1
 90
       50
176
     1
 90
        3
176
     1
 62
     5
420
      255
176
     1
290
     0
176
     1
 90
       50
176
     1
 90
       50
176
     1
 90
       50
176
     1
290
     0
176
     1
 90
       50
176
     1
 62
   256
176
     0
 40
1.0
176
     0
 90
        2
176
     1
  1
strokes_ogs.tif
176
     1
290
     0
176
     1
 40
1.0
176
     1
 40
1.0
176
     1
  0
DICTIONARYVAR
  5
D8
102
{ACAD_REACTORS
330
D7
102
}
330
D7
100
DictionaryVariables
280
     0
  1
1:1
  0
DICTIONARYVAR
  5
284
102
{ACAD_REACTORS
330
D7
102
}
330
D7
100
DictionaryVariables
280
     0
  1
STANDARD
  0
DICTIONARYVAR
  5
283
102
{ACAD_REACTORS
330
D7
102
}
330
D7
100
DictionaryVariables
280
     0
  1
STANDARD
  0
DICTIONARYVAR
  5
285
102
{ACAD_REACTORS
330
D7
102
}
330
D7
100
DictionaryVariables
280
     0
  1
Imperial24
  0
DICTIONARYVAR
  5
286
102
{ACAD_REACTORS
330
D7
102
}
330
D7
100
DictionaryVariables
280
     0
  1
Imperial24
  0
DICTIONARYVAR
  5
288
102
{ACAD_REACTORS
330
D7
102
}
330
D7
100
DictionaryVariables
280
     0
  1
1
  0
DICTIONARYVAR
  5
289
102
{ACAD_REACTORS
330
D7
102
}
330
D7
100
DictionaryVariables
280
     0
  1
15
  0
DICTIONARYVAR
  5
287
102
{ACAD_REACTORS
330
D7
102
}
330
D7
100
DictionaryVariables
280
     0
  1
0
  0
DICTIONARYVAR
  5
D9
102
{ACAD_REACTORS
330
D7
102
}
330
D7
100
DictionaryVariables
280
     0
  1
1
  0
DICTIONARY
  5
280
330
119
100
AcDbDictionary
280
     1
281
     1
  3
ACAD_XREC_ROUNDTRIP
360
291
  0
DICTIONARY
  5
27E
330
118
100
AcDbDictionary
280
     1
281
     1
  3
ACAD_XREC_ROUNDTRIP
360
290
  0
DICTIONARY
  5
28E
330
116
100
AcDbDictionary
280
     1
281
     1
  3
ACAD_ROUNDTRIP_2008_TABLESTYLE_CELLSTYLEMAP
360
28F
  0
XRECORD
  5
291
102
{ACAD_REACTORS
330
280
102
}
330
280
100
AcDbXrecord
280
     1
102
DISPLAYNAME
  1
Imperial24
102
FLAGS
 90
        0
  0
XRECORD
  5
290
102
{ACAD_REACTORS
330
27E
102
}
330
27E
100
AcDbXrecord
280
     1
102
DISPLAYNAME
  1
Imperial24
102
FLAGS
 90
        0
  0
CELLSTYLEMAP
  5
28F
102
{ACAD_REACTORS
330
28E
102
}
330
28E
100
AcDbCellStyleMap
 90
        3
300
CELLSTYLE
  1
TABLEFORMAT_BEGIN
 90
        5
170
     1
 91
        0
 92
    32768
 62
   257
 93
        1
300
CONTENTFORMAT
  1
CONTENTFORMAT_BEGIN
 90
        0
 91
        0
 92
      512
 93
        0
300

 40
0.0
140
1.0
 94
        5
 62
     0
340
11
144
0.25
309
CONTENTFORMAT_END
171
     0
 94
        0
309
TABLEFORMAT_END
  1
CELLSTYLE_BEGIN
 90
        1
 91
        1
300
_TITLE
309
CELLSTYLE_END
300
CELLSTYLE
  1
TABLEFORMAT_BEGIN
 90
        5
170
     1
 91
        0
 92
        0
 62
   257
 93
        1
300
CONTENTFORMAT
  1
CONTENTFORMAT_BEGIN
 90
        0
 91
        0
 92
      512
 93
        0
300

 40
0.0
140
1.0
 94
        5
 62
     0
340
11
144
0.18
309
CONTENTFORMAT_END
171
     0
 94
        0
309
TABLEFORMAT_END
  1
CELLSTYLE_BEGIN
 90
        2
 91
        1
300
_HEADER
309
CELLSTYLE_END
300
CELLSTYLE
  1
TABLEFORMAT_BEGIN
 90
        5
170
     1
 91
        0
 92
        0
 62
   257
 93
        1
300
CONTENTFORMAT
  1
CONTENTFORMAT_BEGIN
 90
        0
 91
        0
 92
      512
 93
        0
300

 40
0.0
140
1.0
 94
        2
 62
     0
340
11
144
0.18
309
CONTENTFORMAT_END
171
     0
 94
        0
309
TABLEFORMAT_END
  1
CELLSTYLE_BEGIN
 90
        3
 91
        2
300
_DATA
309
CELLSTYLE_END
  0
ENDSEC
  0
SECTION
  2
ACDSDATA
 70
     2
 71
     8
  0
ACDSSCHEMA
 90
        0
  1
AcDb_Thumbnail_Schema
  2
AcDbDs::ID
280
    10
 91
        8
  2
Thumbnail_Data
280
    15
 91
        0
101
ACDSRECORD
 95
        0
 90
        2
  2
AcDbDs::TreatedAsObjectData
280
     1
291
     1
101
ACDSRECORD
 95
        0
 90
        3
  2
AcDbDs::Legacy
280
     1
291
     1
101
ACDSRECORD
  1
AcDbDs::ID
 90
        4
  2
AcDs:Indexable
280
     1
291
     1
101
ACDSRECORD
  1
AcDbDs::ID
 90
        5
  2
AcDbDs::HandleAttribute
280
     7
282
     1
  0
ACDSSCHEMA
 90
        1
  1
AcDb3DSolid_ASM_Data
  2
AcDbDs::ID
280
    10
 91
        8
  2
ASM_Data
280
    15
 91
        0
101
ACDSRECORD
 95
        1
 90
        2
  2
AcDbDs::TreatedAsObjectData
280
     1
291
     1
101
ACDSRECORD
 95
        1
 90
        3
  2
AcDbDs::Legacy
280
     1
291
     1
101
ACDSRECORD
  1
AcDbDs::ID
 90
        4
  2
AcDs:Indexable
280
     1
291
     1
101
ACDSRECORD
  1
AcDbDs::ID
 90
        5
  2
AcDbDs::HandleAttribute
280
     7
282
     1
  0
ACDSSCHEMA
 90
        2
  1
AcDbDs::TreatedAsObjectDataSchema
  2
AcDbDs::TreatedAsObjectData
280
     1
 91
        0
  0
ACDSSCHEMA
 90
        3
  1
AcDbDs::LegacySchema
  2
AcDbDs::Legacy
280
     1
 91
        0
  0
ACDSSCHEMA
 90
        4
  1
AcDbDs::IndexedPropertySchema
  2
AcDs:Indexable
280
     1
 91
        0
  0
ACDSSCHEMA
 90
        5
  1
AcDbDs::HandleAttributeSchema
  2
AcDbDs::HandleAttribute
280
     7
 91
        1
284
     1
  0
ACDSRECORD
 90
        0
  2
AcDbDs::ID
280
    10
320
22
  2
Thumbnail_Data
280
    15
 94
     1630
310
89504E470D0A1A0A0000000D4948445200000100000000670803000000D82A6C0200000300504C5445000000000000C8C8C80000000000000000000000000000000000000000000000000000330000660000990000CC0000FF0033000033330033660033990033CC0033FF0066000066330066660066990066CC0066FF0099
310
000099330099660099990099CC0099FF00CC0000CC3300CC6600CC9900CCCC00CCFF00FF0000FF3300FF6600FF9900FFCC00FFFF3300003300333300663300993300CC3300FF3333003333333333663333993333CC3333FF3366003366333366663366993366CC3366FF3399003399333399663399993399CC3399FF33CC00
310
33CC3333CC6633CC9933CCCC33CCFF33FF0033FF3333FF6633FF9933FFCC33FFFF6600006600336600666600996600CC6600FF6633006633336633666633996633CC6633FF6666006666336666666666996666CC6666FF6699006699336699666699996699CC6699FF66CC0066CC3366CC6666CC9966CCCC66CCFF66FF0066
310
FF3366FF6666FF9966FFCC66FFFF9900009900339900669900999900CC9900FF9933009933339933669933999933CC9933FF9966009966339966669966999966CC9966FF9999009999339999669999999999CC9999FF99CC0099CC3399CC6699CC9999CCCC99CCFF99FF0099FF3399FF6699FF9999FFCC99FFFFCC0000CC00
310
33CC0066CC0099CC00CCCC00FFCC3300CC3333CC3366CC3399CC33CCCC33FFCC6600CC6633CC6666CC6699CC66CCCC66FFCC9900CC9933CC9966CC9999CC99CCCC99FFCCCC00CCCC33CCCC66CCCC99CCCCCCCCCCFFCCFF00CCFF33CCFF66CCFF99CCFFCCCCFFFFFF0000FF0033FF0066FF0099FF00CCFF00FFFF3300FF3333
310
FF3366FF3399FF33CCFF33FFFF6600FF6633FF6666FF6699FF66CCFF66FFFF9900FF9933FF9966FF9999FF99CCFF99FFFFCC00FFCC33FFCC66FFCC99FFCCCCFFCCFFFFFF00FFFF33FFFF66FFFF99FFFFCCFFFFFF0000000D0D0D1A1A1A2828283535354343435050505D5D5D6B6B6B787878868686939393A1A1A1AEAEAEBB
310
BBBBC9C9C9D6D6D6E4E4E4F1F1F1FFFFFF00000000000000000000000000000000000000000000000000000000000008F1915C000001E04944415478DAED9D61AF83200C45FBFFFFEFFDFE92656F028A19B22DD473FB6D9A90F520A52DB546FC5EA4B1EBB7131D6B2A0C8050683FEBC5450A01BD84A6FF43DD4658FA3F67FF
310
F0078700D40076340602C0EE819D093700140119800118001A4018007D1BC43B4276856B02420643E870584D4A0498107ACDFC73F28129C166F183087454E510C01F8C582C164BE9068869FD2AADE907433C0482BB011ABA8CD19F42E0EC511779FA210434793F7B98A7F709650C1A3BFFEDA300D6DE2DFFBDDAD2C1ADD2BF
310
438B641B41C5C0AB2F71B5F56F1A5DE00D8172B40459234539F74DA0330AA079927214D3553A5FD1BF25703CF2DA6BE058810B0094AF9AEEECD4F30A8053BC0B6F0317F7C0DD4E982E6A3EAB7CD0C03AEA8F4602A05B00880F03503213300720B201C03F01B601DE05E87E00DE137C4483DF8A059244434DF9D77434A80EDB
310
A5F301DA02F8C97C4094A3E55801D1947FCD668422D3EB957532686FC8267282291C217A56D8E7026316EED2FDFC423F1B3CD7917E3E4EAF9020D5C8E876D67D3E6A0C9AD42F0D0551D895A2168B852A6EA6467F6B6C53B52A01723335941970333537537333357630E8666A582FA80FC09DA40CC0000CC046D0DBA01D21BB
310
C244026EA6E6666A6EA6066DA656D6448192C2F46F8C2C7530F207C98B10F26BE296080000000049454E44AE42608207C070164F8438B67ECE2E701B0D5D12A1E6050598A02D606654B8B3014B78722A1CAE55A1196043F96531C4DB62285EAB800DB45647673DC8CBE12B00102B866A0D11DF05980280AB8648BD5D32E7B7
310
48B562DC134C01985CAB685394210B0CBC2FEB09629D5EF1BB5DE14AF7FDF2ABD7E6021507237F3619AA3A1ABB9D0D82E900B58E09DC478107E3F1C5E7E3BC5991597D4524B47619EBA8C5E5CE02D6176F031C7A490AE2D23C93CF0410A0C98CA620808E90595124A43BC6E7068B339CD71D00491B00A492092CC571B7FCAC
310
6D4259F54DC35B517F283F3A1B9AE7B24769693E3DCC9243AFDF0E80FE140D6801100F5101B58FD1913E48A92FD2E851C07D9496F6515A503D4E0FB35D32C52000D9A3B4FC7E942C172EF428C47F2886E283351F265F41C73CD005DAC7450000000049454E44AE426082
  0
ENDSEC
  0
EOF
