  0
SECTION
  2
HEADER
  9
$ACADVER
  1
AC1027
  9
$ACADMAINTVER
 70
   105
  9
$DWGCODEPAGE
  3
ANSI_1252
  9
$LASTSAVEDBY
  1
Sandra
  9
$REQUIREDVERSIONS
160
                 0
  9
$INSBASE
 10
0.0
 20
0.0
 30
0.0
  9
$EXTMIN
 10
-1485.143450428177
 20
-1332.431684366458
 30
0.0
  9
$EXTMAX
 10
1485.143413434279
 20
1519.490100659008
 30
4.185207900610024
  9
$LIMMIN
 10
0.0
 20
0.0
  9
$LIMMAX
 10
12.0
 20
9.0
  9
$ORTHOMODE
 70
     1
  9
$REGENMODE
 70
     1
  9
$FILLMODE
 70
     1
  9
$QTEXTMODE
 70
     0
  9
$MIRRTEXT
 70
     1
  9
$LTSCALE
 40
0.0393700787401575
  9
$ATTMODE
 70
     1
  9
$TEXTSIZE
 40
0.2
  9
$TRACEWID
 40
0.05
  9
$TEXTSTYLE
  7
Standard
  9
$CLAYER
  8
Default
  9
$CELTYPE
  6
ByLayer
  9
$CECOLOR
 62
   256
  9
$CELTSCALE
 40
1.0
  9
$DISPSILH
 70
     0
  9
$DIMSCALE
 40
1.0
  9
$DIMASZ
 40
0.18
  9
$DIMEXO
 40
0.0625
  9
$DIMDLI
 40
0.38
  9
$DIMRND
 40
0.0
  9
$DIMDLE
 40
0.0
  9
$DIMEXE
 40
0.18
  9
$DIMTP
 40
0.0
  9
$DIMTM
 40
0.0
  9
$DIMTXT
 40
0.18
  9
$DIMCEN
 40
0.09
  9
$DIMTSZ
 40
0.0
  9
$DIMTOL
 70
     0
  9
$DIMLIM
 70
     0
  9
$DIMTIH
 70
     1
  9
$DIMTOH
 70
     1
  9
$DIMSE1
 70
     0
  9
$DIMSE2
 70
     0
  9
$DIMTAD
 70
     0
  9
$DIMZIN
 70
     0
  9
$DIMBLK
  1

  9
$DIMASO
 70
     1
  9
$DIMSHO
 70
     1
  9
$DIMPOST
  1

  9
$DIMAPOST
  1

  9
$DIMALT
 70
     0
  9
$DIMALTD
 70
     2
  9
$DIMALTF
 40
25.4
  9
$DIMLFAC
 40
1.0
  9
$DIMTOFL
 70
     0
  9
$DIMTVP
 40
0.0
  9
$DIMTIX
 70
     0
  9
$DIMSOXD
 70
     0
  9
$DIMSAH
 70
     0
  9
$DIMBLK1
  1

  9
$DIMBLK2
  1

  9
$DIMSTYLE
  2
Standard
  9
$DIMCLRD
 70
     0
  9
$DIMCLRE
 70
     0
  9
$DIMCLRT
 70
     0
  9
$DIMTFAC
 40
1.0
  9
$DIMGAP
 40
0.09
  9
$DIMJUST
 70
     0
  9
$DIMSD1
 70
     0
  9
$DIMSD2
 70
     0
  9
$DIMTOLJ
 70
     1
  9
$DIMTZIN
 70
     0
  9
$DIMALTZ
 70
     0
  9
$DIMALTTZ
 70
     0
  9
$DIMUPT
 70
     0
  9
$DIMDEC
 70
     4
  9
$DIMTDEC
 70
     4
  9
$DIMALTU
 70
     2
  9
$DIMALTTD
 70
     2
  9
$DIMTXSTY
  7
Standard
  9
$DIMAUNIT
 70
     0
  9
$DIMADEC
 70
     0
  9
$DIMALTRND
 40
0.0
  9
$DIMAZIN
 70
     0
  9
$DIMDSEP
 70
    46
  9
$DIMATFIT
 70
     3
  9
$DIMFRAC
 70
     0
  9
$DIMLDRBLK
  1

  9
$DIMLUNIT
 70
     2
  9
$DIMLWD
 70
    -2
  9
$DIMLWE
 70
    -2
  9
$DIMTMOVE
 70
     2
  9
$DIMFXL
 40
1.0
  9
$DIMFXLON
 70
     0
  9
$DIMJOGANG
 40
0.7853981633974483
  9
$DIMTFILL
 70
     0
  9
$DIMTFILLCLR
 70
     0
  9
$DIMARCSYM
 70
     0
  9
$DIMLTYPE
  6

  9
$DIMLTEX1
  6

  9
$DIMLTEX2
  6

  9
$DIMTXTDIRECTION
 70
     0
  9
$LUNITS
 70
     2
  9
$LUPREC
 70
     3
  9
$SKETCHINC
 40
0.1
  9
$FILLETRAD
 40
0.5
  9
$AUNITS
 70
     0
  9
$AUPREC
 70
     0
  9
$MENU
  1
.
  9
$ELEVATION
 40
0.0
  9
$PELEVATION
 40
0.0
  9
$THICKNESS
 40
0.0
  9
$LIMCHECK
 70
     0
  9
$CHAMFERA
 40
0.5
  9
$CHAMFERB
 40
0.5
  9
$CHAMFERC
 40
1.0
  9
$CHAMFERD
 40
0.0
  9
$SKPOLY
 70
     0
  9
$TDCREATE
 40
2456535.403213808
  9
$TDUCREATE
 40
2456535.569880474
  9
$TDUPDATE
 40
2457842.455869792
  9
$TDUUPDATE
 40
2457842.622536459
  9
$TDINDWG
 40
0.0071168056
  9
$TDUSRTIMER
 40
0.0071168056
  9
$USRTIMER
 70
     1
  9
$ANGBASE
 50
0.0
  9
$ANGDIR
 70
     0
  9
$PDMODE
 70
     0
  9
$PDSIZE
 40
0.0
  9
$PLINEWID
 40
0.0
  9
$SPLFRAME
 70
     0
  9
$SPLINETYPE
 70
     6
  9
$SPLINESEGS
 70
     8
  9
$HANDSEED
  5
4B7
  9
$SURFTAB1
 70
     6
  9
$SURFTAB2
 70
     6
  9
$SURFTYPE
 70
     6
  9
$SURFU
 70
     6
  9
$SURFV
 70
     6
  9
$UCSBASE
  2

  9
$UCSNAME
  2

  9
$UCSORG
 10
0.0
 20
0.0
 30
0.0
  9
$UCSXDIR
 10
1.0
 20
0.0
 30
0.0
  9
$UCSYDIR
 10
0.0
 20
1.0
 30
0.0
  9
$UCSORTHOREF
  2

  9
$UCSORTHOVIEW
 70
     0
  9
$UCSORGTOP
 10
0.0
 20
0.0
 30
0.0
  9
$UCSORGBOTTOM
 10
0.0
 20
0.0
 30
0.0
  9
$UCSORGLEFT
 10
0.0
 20
0.0
 30
0.0
  9
$UCSORGRIGHT
 10
0.0
 20
0.0
 30
0.0
  9
$UCSORGFRONT
 10
0.0
 20
0.0
 30
0.0
  9
$UCSORGBACK
 10
0.0
 20
0.0
 30
0.0
  9
$PUCSBASE
  2

  9
$PUCSNAME
  2

  9
$PUCSORG
 10
0.0
 20
0.0
 30
0.0
  9
$PUCSXDIR
 10
1.0
 20
0.0
 30
0.0
  9
$PUCSYDIR
 10
0.0
 20
1.0
 30
0.0
  9
$PUCSORTHOREF
  2

  9
$PUCSORTHOVIEW
 70
     0
  9
$PUCSORGTOP
 10
0.0
 20
0.0
 30
0.0
  9
$PUCSORGBOTTOM
 10
0.0
 20
0.0
 30
0.0
  9
$PUCSORGLEFT
 10
0.0
 20
0.0
 30
0.0
  9
$PUCSORGRIGHT
 10
0.0
 20
0.0
 30
0.0
  9
$PUCSORGFRONT
 10
0.0
 20
0.0
 30
0.0
  9
$PUCSORGBACK
 10
0.0
 20
0.0
 30
0.0
  9
$USERI1
 70
     0
  9
$USERI2
 70
     0
  9
$USERI3
 70
     0
  9
$USERI4
 70
     0
  9
$USERI5
 70
     0
  9
$USERR1
 40
0.0
  9
$USERR2
 40
0.0
  9
$USERR3
 40
0.0
  9
$USERR4
 40
0.0
  9
$USERR5
 40
0.0
  9
$WORLDVIEW
 70
     1
  9
$SHADEDGE
 70
     3
  9
$SHADEDIF
 70
    70
  9
$TILEMODE
 70
     1
  9
$MAXACTVP
 70
    64
  9
$PINSBASE
 10
0.0
 20
0.0
 30
0.0
  9
$PLIMCHECK
 70
     0
  9
$PEXTMIN
 10
1.000000000000000E+20
 20
1.000000000000000E+20
 30
1.000000000000000E+20
  9
$PEXTMAX
 10
-1.000000000000000E+20
 20
-1.000000000000000E+20
 30
-1.000000000000000E+20
  9
$PLIMMIN
 10
0.0
 20
0.0
  9
$PLIMMAX
 10
12.0
 20
9.0
  9
$UNITMODE
 70
     0
  9
$VISRETAIN
 70
     1
  9
$PLINEGEN
 70
     0
  9
$PSLTSCALE
 70
     1
  9
$TREEDEPTH
 70
  3020
  9
$CMLSTYLE
  2
Standard
  9
$CMLJUST
 70
     0
  9
$CMLSCALE
 40
1.0
  9
$PROXYGRAPHICS
 70
     1
  9
$MEASUREMENT
 70
     0
  9
$CELWEIGHT
370
    -1
  9
$ENDCAPS
280
     0
  9
$JOINSTYLE
280
     0
  9
$LWDISPLAY
290
     0
  9
$INSUNITS
 70
     4
  9
$HYPERLINKBASE
  1

  9
$STYLESHEET
  1

  9
$XEDIT
290
     1
  9
$CEPSNTYPE
380
     0
  9
$PSTYLEMODE
290
     1
  9
$FINGERPRINTGUID
  2
{8EF2B514-8F05-4A00-86FD-EFD5FAE2B6B1}
  9
$VERSIONGUID
  2
{104A9D70-2F8C-4BF9-BB25-89A0DD8E7CF0}
  9
$EXTNAMES
290
     1
  9
$PSVPSCALE
 40
0.0
  9
$OLESTARTUP
290
     0
  9
$SORTENTS
280
   127
  9
$INDEXCTL
280
     0
  9
$HIDETEXT
280
     1
  9
$XCLIPFRAME
280
     0
  9
$HALOGAP
280
     0
  9
$OBSCOLOR
 70
   257
  9
$OBSLTYPE
280
     0
  9
$INTERSECTIONDISPLAY
280
     0
  9
$INTERSECTIONCOLOR
 70
   257
  9
$DIMASSOC
280
     2
  9
$PROJECTNAME
  1

  9
$CAMERADISPLAY
290
     0
  9
$LENSLENGTH
 40
50.0
  9
$CAMERAHEIGHT
 40
0.0
  9
$STEPSPERSEC
 40
2.0
  9
$STEPSIZE
 40
6.0
  9
$3DDWFPREC
 40
2.0
  9
$PSOLWIDTH
 40
0.25
  9
$PSOLHEIGHT
 40
4.0
  9
$LOFTANG1
 40
1.570796326794896
  9
$LOFTANG2
 40
1.570796326794896
  9
$LOFTMAG1
 40
0.0
  9
$LOFTMAG2
 40
0.0
  9
$LOFTPARAM
 70
     7
  9
$LOFTNORMALS
280
     1
  9
$LATITUDE
 40
37.795
  9
$LONGITUDE
 40
-122.394
  9
$NORTHDIRECTION
 40
0.0
  9
$TIMEZONE
 70
 -8000
  9
$LIGHTGLYPHDISPLAY
280
     1
  9
$TILEMODELIGHTSYNCH
280
     1
  9
$CMATERIAL
347
DF
  9
$SOLIDHIST
280
     0
  9
$SHOWHIST
280
     1
  9
$DWFFRAME
280
     2
  9
$DGNFRAME
280
     0
  9
$REALWORLDSCALE
290
     1
  9
$INTERFERECOLOR
 62
     1
  9
$INTERFEREOBJVS
345
33
  9
$INTERFEREVPVS
346
F7
  9
$CSHADOW
280
     0
  9
$SHADOWPLANELOCATION
 40
0.0
  0
ENDSEC
  0
SECTION
  2
CLASSES
  0
CLASS
  1
ACDBDICTIONARYWDFLT
  2
AcDbDictionaryWithDefault
  3
ObjectDBX Classes
 90
        0
 91
        1
280
     0
281
     0
  0
CLASS
  1
VISUALSTYLE
  2
AcDbVisualStyle
  3
ObjectDBX Classes
 90
     4095
 91
       26
280
     0
281
     0
  0
CLASS
  1
MATERIAL
  2
AcDbMaterial
  3
ObjectDBX Classes
 90
     1153
 91
        3
280
     0
281
     0
  0
CLASS
  1
TABLESTYLE
  2
AcDbTableStyle
  3
ObjectDBX Classes
 90
     4095
 91
        1
280
     0
281
     0
  0
CLASS
  1
SCALE
  2
AcDbScale
  3
ObjectDBX Classes
 90
     1153
 91
       17
280
     0
281
     0
  0
CLASS
  1
MLEADERSTYLE
  2
AcDbMLeaderStyle
  3
ACDB_MLEADERSTYLE_CLASS
 90
     4095
 91
        1
280
     0
281
     0
  0
CLASS
  1
ACDBSECTIONVIEWSTYLE
  2
AcDbSectionViewStyle
  3
ObjectDBX Classes
 90
     1025
 91
        1
280
     0
281
     0
  0
CLASS
  1
ACDBDETAILVIEWSTYLE
  2
AcDbDetailViewStyle
  3
ObjectDBX Classes
 90
     1025
 91
        1
280
     0
281
     0
  0
CLASS
  1
SOLID_BACKGROUND
  2
AcDbSolidBackground
  3
SCENEOE
 90
     4095
 91
        0
280
     0
281
     0
  0
CLASS
  1
NPOCOLLECTION
  2
AcDbImpNonPersistentObjectsCollection
  3
ObjectDBX Classes
 90
     1153
 91
        0
280
     0
281
     0
  0
CLASS
  1
DICTIONARYVAR
  2
AcDbDictionaryVar
  3
ObjectDBX Classes
 90
        0
 91
        9
280
     0
281
     0
  0
CLASS
  1
SORTENTSTABLE
  2
AcDbSortentsTable
  3
ObjectDBX Classes
 90
        0
 91
        1
280
     0
281
     0
  0
CLASS
  1
ACARRAYJIGENTITY
  2
AcArrayJigEntity
  3
ACAD_ARRAY
 90
      129
 91
        0
280
     0
281
     1
  0
CLASS
  1
ACDBASSOCNETWORK
  2
AcDbAssocNetwork
  3
ObjectDBX Classes
 90
     1025
 91
        0
280
     0
281
     0
  0
CLASS
  1
ACDBASSOCACTION
  2
AcDbAssocAction
  3
ObjectDBX Classes
 90
     1025
 91
        0
280
     0
281
     0
  0
CLASS
  1
ACDBASSOCARRAYACTIONBODY
  2
AcDbAssocArrayActionBody
  3
ObjectDBX Classes
 90
     1025
 91
        0
280
     0
281
     0
  0
CLASS
  1
ACDBASSOCVERTEXACTIONPARAM
  2
AcDbAssocVertexActionParam
  3
ObjectDBX Classes
 90
     1025
 91
        0
280
     0
281
     0
  0
CLASS
  1
ACDBASSOCDEPENDENCY
  2
AcDbAssocDependency
  3
ObjectDBX Classes
 90
     1025
 91
        0
280
     0
281
     0
  0
CLASS
  1
ACDBASSOCARRAYPOLARPARAMETERS
  2
AcDbAssocArrayPolarParameters
  3
ObjectDBX Classes
 90
     1025
 91
        0
280
     0
281
     0
  0
CLASS
  1
CELLSTYLEMAP
  2
AcDbCellStyleMap
  3
ObjectDBX Classes
 90
     1152
 91
        1
280
     0
281
     0
  0
ENDSEC
  0
SECTION
  2
TABLES
  0
TABLE
  2
VPORT
  5
8
330
0
100
AcDbSymbolTable
 70
     1
  0
VPORT
  5
29
330
8
100
AcDbSymbolTableRecord
100
AcDbViewportTableRecord
  2
*Active
 70
     0
 10
0.0
 20
0.0
 11
1.0
 21
1.0
 12
-56.4880386623654
 22
196.7314321185258
 13
0.0
 23
0.0
 14
0.5
 24
0.5
 15
0.5
 25
0.5
 16
-0.000000000000199
 26
0.0
 36
901.8907098282783
 17
56.48805205049885
 27
-17.99089464348957
 37
20.01949882507324
 40
3044.463761719403
 41
2.334549878345498
 42
50.0
 43
0.0
 44
0.0
 50
0.0
 51
0.0
 71
     0
 72
   100
 73
     1
 74
     3
 75
     0
 76
     0
 77
     0
 78
     0
281
     0
 65
     1
110
0.0
120
0.0
130
0.0
111
1.0
121
0.0
131
0.0
112
0.0
122
1.0
132
0.0
 79
     0
146
0.0
348
2F
 60
     3
 61
     5
292
     1
282
     1
141
0.0
142
0.0
 63
   250
421
  3355443
1001
ACAD_NAV_VCDISPLAY
1070
     3
  0
ENDTAB
  0
TABLE
  2
LTYPE
  5
5
330
0
100
AcDbSymbolTable
 70
     1
  0
LTYPE
  5
14
330
5
100
AcDbSymbolTableRecord
100
AcDbLinetypeTableRecord
  2
ByBlock
 70
     0
  3

 72
    65
 73
     0
 40
0.0
  0
LTYPE
  5
15
330
5
100
AcDbSymbolTableRecord
100
AcDbLinetypeTableRecord
  2
ByLayer
 70
     0
  3

 72
    65
 73
     0
 40
0.0
  0
LTYPE
  5
16
330
5
100
AcDbSymbolTableRecord
100
AcDbLinetypeTableRecord
  2
Continuous
 70
     0
  3
Solid line
 72
    65
 73
     0
 40
0.0
  0
ENDTAB
  0
TABLE
  2
LAYER
  5
2
102
{ACAD_XDICTIONARY
360
474
102
}
330
0
100
AcDbSymbolTable
 70
     2
  0
LAYER
  5
10
102
{ACAD_XDICTIONARY
360
121
102
}
330
2
100
AcDbSymbolTableRecord
100
AcDbLayerTableRecord
  2
0
 70
     0
 62
     7
  6
Continuous
370
    -3
390
F
347
EF
348
0
  0
LAYER
  5
3B
102
{ACAD_XDICTIONARY
360
123
102
}
330
2
100
AcDbSymbolTableRecord
100
AcDbLayerTableRecord
  2
Default
 70
     0
 62
     7
  6
Continuous
370
    -3
390
F
347
EF
348
0
  0
ENDTAB
  0
TABLE
  2
STYLE
  5
3
330
0
100
AcDbSymbolTable
 70
     1
  0
STYLE
  5
11
330
3
100
AcDbSymbolTableRecord
100
AcDbTextStyleTableRecord
  2
Standard
 70
     0
 40
0.0
 41
1.0
 50
0.0
 71
     0
 42
0.2
  3
txt
  4

  0
ENDTAB
  0
TABLE
  2
VIEW
  5
6
330
0
100
AcDbSymbolTable
 70
     0
  0
ENDTAB
  0
TABLE
  2
UCS
  5
7
330
0
100
AcDbSymbolTable
 70
     0
  0
ENDTAB
  0
TABLE
  2
APPID
  5
9
330
0
100
AcDbSymbolTable
 70
     2
  0
APPID
  5
12
330
9
100
AcDbSymbolTableRecord
100
AcDbRegAppTableRecord
  2
ACAD
 70
     0
  0
APPID
  5
125
330
9
100
AcDbSymbolTableRecord
100
AcDbRegAppTableRecord
  2
ACAD_NAV_VCDISPLAY
 70
     0
  0
ENDTAB
  0
TABLE
  2
DIMSTYLE
  5
A
330
0
100
AcDbSymbolTable
 70
     1
100
AcDbDimStyleTable
 71
     0
  0
DIMSTYLE
105
27
330
A
100
AcDbSymbolTableRecord
100
AcDbDimStyleTableRecord
  2
Standard
 70
     0
340
11
  0
ENDTAB
  0
TABLE
  2
BLOCK_RECORD
  5
1
330
0
100
AcDbSymbolTable
 70
     1
  0
BLOCK_RECORD
  5
1F
102
{ACAD_XDICTIONARY
360
363
102
}
330
1
100
AcDbSymbolTableRecord
100
AcDbBlockTableRecord
  2
*Model_Space
340
22
 70
     0
280
     1
281
     0
  0
BLOCK_RECORD
  5
1B
330
1
100
AcDbSymbolTableRecord
100
AcDbBlockTableRecord
  2
*Paper_Space
340
1E
 70
     0
280
     1
281
     0
  0
BLOCK_RECORD
  5
23
330
1
100
AcDbSymbolTableRecord
100
AcDbBlockTableRecord
  2
*Paper_Space0
340
26
 70
     0
280
     1
281
     0
  0
ENDTAB
  0
ENDSEC
  0
SECTION
  2
BLOCKS
  0
BLOCK
  5
20
330
1F
100
AcDbEntity
  8
0
100
AcDbBlockBegin
  2
*Model_Space
 70
     0
 10
0.0
 20
0.0
 30
0.0
  3
*Model_Space
  1

  0
ENDBLK
  5
21
330
1F
100
AcDbEntity
  8
0
100
AcDbBlockEnd
  0
BLOCK
  5
1C
330
1B
100
AcDbEntity
 67
     1
  8
0
100
AcDbBlockBegin
  2
*Paper_Space
 70
     0
 10
0.0
 20
0.0
 30
0.0
  3
*Paper_Space
  1

  0
ENDBLK
  5
1D
330
1B
100
AcDbEntity
 67
     1
  8
0
100
AcDbBlockEnd
  0
BLOCK
  5
24
330
23
100
AcDbEntity
 67
     1
  8
0
100
AcDbBlockBegin
  2
*Paper_Space0
 70
     0
 10
0.0
 20
0.0
 30
0.0
  3
*Paper_Space0
  1

  0
ENDBLK
  5
25
330
23
100
AcDbEntity
 67
     1
  8
0
100
AcDbBlockEnd
  0
ENDSEC
  0
SECTION
  2
ENTITIES
  0
CIRCLE
  5
2A8
330
1F
100
AcDbEntity
  8
Default
100
AcDbCircle
 10
-357.229920643586
 20
866.4404211821283
 30
4.185207900610024
 40
199.9375
  0
SPLINE
  5
2A9
330
1F
100
AcDbEntity
  8
Default
100
AcDbSpline
210
0.0
220
0.0
230
1.0
 70
     8
 71
     3
 72
    21
 73
    17
 74
     0
 42
0.000000001
 43
0.0000000001
 40
0.0
 40
0.0
 40
0.0
 40
0.0
 40
0.2588469591229587
 40
0.6477254461891114
 40
1.024641027840087
 40
1.817983982162573
 40
2.582167143679937
 40
4.062052734317923
 40
7.850412104674
 40
9.497260537102542
 40
10.543391206404
 40
10.8432833113025
 40
12.15829953678302
 40
13.34949093133962
 40
14.77372714428499
 40
15.46884750610318
 40
15.46884750610318
 40
15.46884750610318
 40
15.46884750610318
 10
-196.4759589025438
 20
1430.643969867166
 30
4.185207900610024
 10
-196.2727395302867
 20
1428.447148283288
 30
4.185207900610024
 10
-197.2561383367784
 20
1423.002325149268
 30
4.185207900610024
 10
-200.4173913276409
 20
1414.914870443668
 30
4.185207900610024
 10
-206.1124722780349
 20
1403.007491231436
 30
4.185207900610024
 10
-213.9317125503136
 20
1388.619403643513
 30
4.185207900610024
 10
-225.1898553858249
 20
1365.505422118327
 30
4.185207900610024
 10
-246.8041319383917
 20
1319.252565859764
 30
4.185207900610024
 10
-269.121977376688
 20
1265.124011484444
 30
4.185207900610024
 10
-288.9210891718908
 20
1213.980849863945
 30
4.185207900610024
 10
-297.8102336329267
 20
1190.261697617102
 30
4.185207900610024
 10
-305.4621999088868
 20
1169.068432433885
 30
4.185207900610024
 10
-309.9944966382618
 20
1145.62391180308
 30
4.185207900610024
 10
-311.7424431677958
 20
1112.402567933815
 30
4.185207900610024
 10
-311.4437779201443
 20
1084.358533863843
 30
4.185207900610024
 10
-310.118669777755
 20
1066.46611100591
 30
4.185207900610024
 10
-309.5551862398852
 20
1060.610768057718
 30
4.185207900610024
  0
SPLINE
  5
2AA
330
1F
100
AcDbEntity
  8
Default
100
AcDbSpline
210
0.0
220
0.0
230
1.0
 70
     8
 71
     3
 72
    10
 73
     6
 74
     0
 42
0.000000001
 43
0.0000000001
 40
-6.708248473681532
 40
-6.708248473681532
 40
-6.708248473681532
 40
-6.708248473681532
 40
-3.774519558109396
 40
-1.88935509827327
 40
0.0
 40
0.0
 40
0.0
 40
0.0
 10
-157.4419039776721
 20
858.7104598011329
 30
4.185207900610024
 10
-138.2103246234502
 20
843.0132768811414
 30
4.185207900610024
 10
-102.6543126435882
 20
822.0766096147013
 30
4.185207900610024
 10
-47.93308805624445
 20
806.0413480440342
 30
4.185207900610024
 10
-15.98756385692496
 20
802.9689517036024
 30
4.185207900610024
 10
0.0006506360628207
 20
802.9672311773005
 30
4.185207900610024
  0
SPLINE
  5
2AB
330
1F
100
AcDbEntity
  8
Default
100
AcDbSpline
210
0.0
220
0.0
230
1.0
 70
     8
 71
     3
 72
     8
 73
     4
 74
     0
 42
0.000000001
 43
0.0000000001
 40
-14.89017236839833
 40
-14.89017236839833
 40
-14.89017236839833
 40
-14.89017236839833
 40
-14.55234360913006
 40
-14.55234360913006
 40
-14.55234360913006
 40
-14.55234360913006
 10
-244.367076301188
 20
1039.943026671741
 30
4.185207900610024
 10
-244.3678425887342
 20
1037.083610963491
 30
4.185207900610024
 10
-244.3142633849352
 20
1034.224298448402
 30
4.185207900610024
 10
-244.2068257589329
 20
1031.367022823419
 30
4.185207900610024
  0
SPLINE
  5
2AC
330
1F
100
AcDbEntity
  8
Default
100
AcDbSpline
210
0.0
220
0.0
230
1.0
 70
     8
 71
     3
 72
    34
 73
    30
 74
     0
 42
0.000000001
 43
0.0000000001
 40
49.54977648871967
 40
49.54977648871967
 40
49.54977648871967
 40
49.54977648871967
 40
50.0
 40
51.0
 40
52.0
 40
53.0
 40
53.0
 40
53.0
 40
54.0
 40
55.0
 40
56.0
 40
57.0
 40
58.0
 40
59.0
 40
60.0
 40
60.0
 40
60.0
 40
61.0
 40
62.0
 40
63.0
 40
64.0
 40
65.0
 40
66.0
 40
67.0
 40
68.0
 40
69.0
 40
70.0
 40
71.0
 40
72.0
 40
72.0
 40
72.0
 40
72.0
 10
-302.3193249010203
 20
1058.689817491834
 30
4.185207900610024
 10
-302.6470036047499
 20
1063.713137715759
 30
4.185207900610024
 10
-303.4515264866997
 20
1079.909397235988
 30
4.185207900610024
 10
-303.5118783584922
 20
1107.302736583711
 30
4.185207900610024
 10
-302.1381927720309
 20
1140.867253403184
 30
4.185207900610024
 10
-297.7819736616674
 20
1162.891444406282
 30
4.185207900610024
 10
-294.3767590574775
 20
1173.548765196957
 30
4.185207900610024
 10
-291.0537110281978
 20
1184.017872226584
 30
4.185207900610024
 10
-284.3045255122338
 20
1204.923782512967
 30
4.185207900610024
 10
-273.6570588946968
 20
1236.109276361246
 30
4.185207900610024
 10
-262.4050032559143
 20
1267.082061278972
 30
4.185207900610024
 10
-250.4693134460096
 20
1297.79891556654
 30
4.185207900610024
 10
-237.7473128079727
 20
1328.19796661584
 30
4.185207900610024
 10
-224.2145487870196
 20
1358.248727982978
 30
4.185207900610024
 10
-214.3715648808499
 20
1377.892783432455
 30
4.185207900610024
 10
-209.3096794993432
 20
1387.640456072211
 30
4.185207900610024
 10
-208.2750790420645
 20
1389.642358654082
 30
4.185207900610024
 10
-206.2162455664146
 20
1393.651633093494
 30
4.185207900610024
 10
-203.2550520742541
 20
1399.729764206755
 30
4.185207900610024
 10
-200.5071233594731
 20
1405.907601866055
 30
4.185207900610024
 10
-198.1079533309636
 20
1412.234567670781
 30
4.185207900610024
 10
-196.2821325890304
 20
1418.74544899026
 30
4.185207900610024
 10
-195.3498581265848
 20
1425.495957773593
 30
4.185207900610024
 10
-196.4971837576459
 20
1432.233543775011
 30
4.185207900610024
 10
-199.4481321039546
 20
1438.354645088071
 30
4.185207900610024
 10
-202.388134887901
 20
1444.433241560679
 30
4.185207900610024
 10
-205.841159248613
 20
1450.258272648318
 30
4.185207900610024
 10
-209.8000853280789
 20
1455.74277075978
 30
4.185207900610024
 10
-216.4881589557392
 20
1462.70153664027
 30
4.185207900610024
 10
-217.9101536364594
 20
1464.44979294077
 30
4.185207900610024
  0
SPLINE
  5
2AD
330
1F
100
AcDbEntity
  8
Default
100
AcDbSpline
210
0.0
220
0.0
230
1.0
 70
     8
 71
     3
 72
    12
 73
     8
 74
     0
 42
0.000000001
 43
0.0000000001
 40
36.00001859054296
 40
36.00001859054296
 40
36.00001859054296
 40
36.00001859054296
 40
37.0
 40
38.0
 40
39.0
 40
40.0
 40
40.99791129719946
 40
40.99791129719946
 40
40.99791129719946
 40
40.99791129719946
 10
-0.000000328094737
 20
787.1516008858807
 30
4.185207900610024
 10
-11.18023697695169
 20
787.1326834409391
 30
4.185207900610024
 10
-33.54314973666344
 20
788.047795676865
 30
4.185207900610024
 10
-66.84309372280495
 20
792.3278960386973
 30
4.185207900610024
 10
-99.61624449835568
 20
799.646252270214
 30
4.185207900610024
 10
-131.4838085493944
 20
810.1736392128582
 30
4.185207900610024
 10
-151.8520204100666
 20
819.4401516010159
 30
4.185207900610024
 10
-161.7035258135115
 20
824.6740132565742
 30
4.185207900610024
  0
SPLINE
  5
2AE
330
1F
100
AcDbEntity
  8
Default
100
AcDbSpline
210
0.0
220
0.0
230
1.0
 70
     8
 71
     3
 72
    12
 73
     8
 74
     0
 42
0.000000001
 43
0.0000000001
 40
0.0
 40
0.0
 40
0.0
 40
0.0
 40
1.918305221504867
 40
3.868777778011241
 40
7.624449324857683
 40
11.42846767657462
 40
15.35241906764609
 40
15.35241906764609
 40
15.35241906764609
 40
15.35241906764609
 10
0.0006495897942674
 20
1290.073248796539
 30
4.185207900610024
 10
-16.23232242352253
 20
1290.086722290245
 30
4.185207900610024
 10
-48.98023909845298
 20
1286.91792824207
 30
4.185207900610024
 10
-111.0796480350009
 20
1268.280325056857
 30
4.185207900610024
 10
-179.1195301420476
 20
1222.206946778546
 30
4.185207900610024
 10
-232.5499425104265
 20
1138.685227231204
 30
4.185207900610024
 10
-244.3676184234911
 20
1073.136019851342
 30
4.185207900610024
 10
-244.367076301188
 20
1039.943026671741
 30
4.185207900610024
  0
SPLINE
  5
2AF
330
1F
100
AcDbEntity
  8
Default
100
AcDbSpline
210
0.0
220
0.0
230
1.0
 70
     8
 71
     3
 72
    47
 73
    43
 74
     0
 42
0.000000001
 43
0.0000000001
 40
36.00001859054296
 40
36.00001859054296
 40
36.00001859054296
 40
36.00001859054296
 40
37.0
 40
38.0
 40
39.0
 40
40.0
 40
41.0
 40
42.0
 40
43.0
 40
44.0
 40
45.0
 40
46.0
 40
47.0
 40
48.0
 40
49.0
 40
50.0
 40
51.0
 40
52.0
 40
53.0
 40
53.0
 40
53.0
 40
54.0
 40
55.0
 40
56.0
 40
57.0
 40
58.0
 40
59.0
 40
60.0
 40
60.0
 40
60.0
 40
61.0
 40
62.0
 40
63.0
 40
64.0
 40
65.0
 40
66.0
 40
67.0
 40
68.0
 40
69.0
 40
70.0
 40
71.0
 40
72.0
 40
72.0
 40
72.0
 40
72.0
 10
-0.000000328094737
 20
787.1516008858807
 30
4.185207900610024
 10
11.18023632076222
 20
787.1326834409391
 30
4.185207900610024
 10
33.54314908047397
 20
788.047795676865
 30
4.185207900610024
 10
66.84309306661548
 20
792.3278960386973
 30
4.185207900610024
 10
99.61624384216619
 20
799.646252270214
 30
4.185207900610024
 10
131.5060106416125
 20
810.1809738470118
 30
4.185207900610024
 10
162.088904311032
 20
824.0988070052546
 30
4.185207900610024
 10
190.7306565091966
 20
841.6651129510363
 30
4.185207900610024
 10
217.137240020702
 20
862.4523807388843
 30
4.185207900610024
 10
240.5875792397387
 20
886.5342585933365
 30
4.185207900610024
 10
260.7917356711689
 20
913.3945508913624
 30
4.185207900610024
 10
277.1223232085577
 20
942.8003147855886
 30
4.185207900610024
 10
288.7912801441989
 20
974.338779955266
 30
4.185207900610024
 10
296.4594037733131
 20
1007.038751007295
 30
4.185207900610024
 10
301.1708011134104
 20
1040.272039359541
 30
4.185207900610024
 10
303.4379841923664
 20
1073.762931882291
 30
4.185207900610024
 10
303.5118777023027
 20
1107.302736583711
 30
4.185207900610024
 10
302.1381921158415
 20
1140.867253403184
 30
4.185207900610024
 10
297.7819730054779
 20
1162.891444406282
 30
4.185207900610024
 10
294.376758401288
 20
1173.548765196957
 30
4.185207900610024
 10
291.0537103720083
 20
1184.017872226584
 30
4.185207900610024
 10
284.3045248560443
 20
1204.923782512967
 30
4.185207900610024
 10
273.6570582385073
 20
1236.109276361246
 30
4.185207900610024
 10
262.4050025997248
 20
1267.082061278972
 30
4.185207900610024
 10
250.46931278982
 20
1297.79891556654
 30
4.185207900610024
 10
237.7473121517832
 20
1328.19796661584
 30
4.185207900610024
 10
224.2145481308302
 20
1358.248727982978
 30
4.185207900610024
 10
214.3715642246604
 20
1377.892783432455
 30
4.185207900610024
 10
209.3096788431537
 20
1387.640456072211
 30
4.185207900610024
 10
208.275078385875
 20
1389.642358654082
 30
4.185207900610024
 10
206.2162449102251
 20
1393.651633093494
 30
4.185207900610024
 10
203.2550514180646
 20
1399.729764206755
 30
4.185207900610024
 10
200.5071227032836
 20
1405.907601866055
 30
4.185207900610024
 10
198.1079526747741
 20
1412.234567670781
 30
4.185207900610024
 10
196.282131932841
 20
1418.74544899026
 30
4.185207900610024
 10
195.3498574703953
 20
1425.495957773593
 30
4.185207900610024
 10
196.4971831014564
 20
1432.233543775011
 30
4.185207900610024
 10
199.4481314477652
 20
1438.354645088071
 30
4.185207900610024
 10
202.3881342317115
 20
1444.433241560679
 30
4.185207900610024
 10
205.8411585924235
 20
1450.258272648318
 30
4.185207900610024
 10
209.8000846718894
 20
1455.74277075978
 30
4.185207900610024
 10
216.4881582995497
 20
1462.70153664027
 30
4.185207900610024
 10
217.9101529802699
 20
1464.44979294077
 30
4.185207900610024
  0
SPLINE
  5
2C9
330
1F
100
AcDbEntity
  8
Default
100
AcDbSpline
210
0.0
220
0.0
230
1.0
 70
     8
 71
     3
 72
    12
 73
     8
 74
     0
 42
0.000000001
 43
0.0000000001
 40
-14.89017236839833
 40
-14.89017236839833
 40
-14.89017236839833
 40
-14.89017236839833
 40
-11.21816917573749
 40
-7.516682162771167
 40
-3.774519558109396
 40
-1.88935509827327
 40
0.0
 40
0.0
 40
0.0
 40
0.0
 10
244.3670756449985
 20
1039.943026671741
 30
4.185207900610024
 10
244.3754047473613
 20
1008.862831982035
 30
4.185207900610024
 10
231.4993537153551
 20
946.4773699237007
 30
4.185207900610024
 10
176.8623158823553
 20
867.5985954500077
 30
4.185207900610024
 10
109.2489516520162
 20
824.0090731657984
 30
4.185207900610024
 10
47.93308740005498
 20
806.0413480440342
 30
4.185207900610024
 10
15.98756320073549
 20
802.9689517036024
 30
4.185207900610024
 10
-0.0006512922522946
 20
802.9672311773005
 30
4.185207900610024
  0
SPLINE
  5
2CA
330
1F
100
AcDbEntity
  8
Default
100
AcDbSpline
210
0.0
220
0.0
230
1.0
 70
     8
 71
     3
 72
    12
 73
     8
 74
     0
 42
0.000000001
 43
0.0000000001
 40
0.0
 40
0.0
 40
0.0
 40
0.0
 40
1.918305221504867
 40
3.868777778011241
 40
7.624449324857683
 40
11.42846767657462
 40
15.35241906764609
 40
15.35241906764609
 40
15.35241906764609
 40
15.35241906764609
 10
-0.0006502459837413
 20
1290.073248796539
 30
4.185207900610024
 10
16.23232176733305
 20
1290.086722290245
 30
4.185207900610024
 10
48.98023844226351
 20
1286.91792824207
 30
4.185207900610024
 10
111.0796473788114
 20
1268.280325056857
 30
4.185207900610024
 10
179.1195294858582
 20
1222.206946778546
 30
4.185207900610024
 10
232.549941854237
 20
1138.685227231204
 30
4.185207900610024
 10
244.3676177673016
 20
1073.136019851342
 30
4.185207900610024
 10
244.3670756449985
 20
1039.943026671741
 30
4.185207900610024
  0
SPLINE
  5
2CC
330
1F
100
AcDbEntity
  8
Default
100
AcDbSpline
210
0.0
220
0.0
230
1.0
 70
    12
 71
     2
 72
     6
 73
     3
 74
     0
 42
0.000000001
 43
0.0000000001
 40
0.0
 40
0.0
 40
0.0
 40
1.278324852146924
 40
1.278324852146924
 40
1.278324852146924
 10
-9.368500328123595
 20
754.802266396311
 30
4.185207900610024
 41
1.0
 10
-9.547417013494497
 20
771.0289038547885
 30
4.185207900610024
 41
0.9999999996076647
 10
-9.726646759766225
 20
787.2555378584022
 30
4.185207900610024
 41
0.9999999993083845
  0
SPLINE
  5
2CD
330
1F
100
AcDbEntity
  8
Default
100
AcDbSpline
210
0.0
220
0.0
230
1.0
 70
     8
 71
     3
 72
    14
 73
    10
 74
     0
 42
0.000000001
 43
0.0000000001
 40
0.0
 40
0.0
 40
0.0
 40
0.0
 40
1.0
 40
2.0
 40
3.0
 40
4.0
 40
5.0
 40
6.0
 40
7.0
 40
7.0
 40
7.0
 40
7.0
 10
9.374316488654875
 20
754.7037868690146
 30
4.185207900610024
 10
9.347660980528074
 20
752.9188054711489
 30
4.185207900610024
 10
8.832341012481478
 20
749.5513262667503
 30
4.185207900610024
 10
6.654358818084122
 20
744.920972516294
 30
4.185207900610024
 10
2.607497716001093
 20
741.4982699305195
 30
4.185207900610024
 10
-2.805095143951206
 20
741.5840161877756
 30
4.185207900610024
 10
-6.76973186709149
 20
745.0869545334909
 30
4.185207900610024
 10
-8.887689088544407
 20
749.7430044713448
 30
4.185207900610024
 10
-9.367742644256461
 20
753.1155959729805
 30
4.185207900610024
 10
-9.368500328123595
 20
754.802266396311
 30
4.185207900610024
  0
SPLINE
  5
2CE
330
1F
100
AcDbEntity
  8
Default
100
AcDbSpline
210
0.0
220
0.0
230
1.0
 70
    12
 71
     2
 72
     6
 73
     3
 74
     0
 42
0.000000001
 43
0.0000000001
 40
-1.281345128275034
 40
-1.281345128275034
 40
-1.281345128275034
 40
0.0
 40
0.0
 40
0.0
 10
9.734857985788016
 20
787.2557563899554
 30
4.185207900610024
 41
0.9999999993069707
 10
9.554478880927044
 20
770.9804691457255
 30
4.185207900610024
 41
0.9999999996067375
 10
9.374316488654875
 20
754.7037868690146
 30
4.185207900610024
 41
1.0
  0
SPLINE
  5
2CF
330
1F
100
AcDbEntity
  8
Default
100
AcDbSpline
210
0.0
220
0.0
230
1.0
 70
    12
 71
     2
 72
     6
 73
     3
 74
     0
 42
0.000000001
 43
0.0000000001
 40
0.0
 40
0.0
 40
0.0
 40
1.112498698414412
 40
1.112498698414412
 40
1.112498698414412
 10
339.3986663385711
 20
1084.832433062949
 30
4.185207900610024
 41
1.0
 10
325.2769718248785
 20
1084.676725709489
 30
4.185207900610024
 41
0.9999999996585591
 10
311.1552799275504
 20
1084.520781248473
 30
4.185207900610024
 41
0.9999999993875963
  0
SPLINE
  5
2D0
330
1F
100
AcDbEntity
  8
Default
100
AcDbSpline
210
0.0
220
0.0
230
1.0
 70
     8
 71
     3
 72
    14
 73
    10
 74
     0
 42
0.000000001
 43
0.0000000001
 40
0.0
 40
0.0
 40
0.0
 40
0.0
 40
1.0
 40
2.0
 40
3.0
 40
4.0
 40
5.0
 40
6.0
 40
7.0
 40
7.0
 40
7.0
 40
7.0
 10
339.4971458658674
 20
1103.575249879727
 30
4.185207900610024
 10
341.2821272637331
 20
1103.548594371601
 30
4.185207900610024
 10
344.6496064681318
 20
1103.033274403554
 30
4.185207900610024
 10
349.2799602185882
 20
1100.855292209157
 30
4.185207900610024
 10
352.7026628043627
 20
1096.808431107074
 30
4.185207900610024
 10
352.6169165471066
 20
1091.395838247121
 30
4.185207900610024
 10
349.1139782013914
 20
1087.431201523981
 30
4.185207900610024
 10
344.4579282635372
 20
1085.313244302528
 30
4.185207900610024
 10
341.0853367619015
 20
1084.833190746816
 30
4.185207900610024
 10
339.3986663385711
 20
1084.832433062949
 30
4.185207900610024
  0
SPLINE
  5
2D1
330
1F
100
AcDbEntity
  8
Default
100
AcDbSpline
210
0.0
220
0.0
230
1.0
 70
    12
 71
     2
 72
     6
 73
     3
 74
     0
 42
0.000000001
 43
0.0000000001
 40
-1.102413928352738
 40
-1.102413928352738
 40
-1.102413928352738
 40
0.0
 40
0.0
 40
0.0
 10
311.4906716072496
 20
1103.885418153407
 30
4.185207900610024
 41
0.9999999993925147
 10
325.4933924256144
 20
1103.730253809749
 30
4.185207900610024
 41
0.9999999996616539
 10
339.4971458658674
 20
1103.575249879727
 30
4.185207900610024
 41
1.0
  0
SPLINE
  5
2D2
330
1F
100
AcDbEntity
  8
Default
100
AcDbSpline
210
0.0
220
0.0
230
1.0
 70
    12
 71
     2
 72
     6
 73
     3
 74
     0
 42
0.000000001
 43
0.0000000001
 40
0.0
 40
0.0
 40
0.0
 40
5.654573080352872
 40
5.654573080352872
 40
5.654573080352872
 10
-0.0011765868213429
 20
1519.490100659008
 30
4.185207900610024
 41
1.0
 10
-71.93833831909905
 20
1519.334109517386
 30
4.185207900610024
 41
0.9967681786255456
 10
-142.9215509120991
 20
1507.659884785485
 30
4.185207900610024
 41
1.0
  0
SPLINE
  5
2D3
330
1F
100
AcDbEntity
  8
Default
100
AcDbSpline
210
0.0
220
0.0
230
1.0
 70
    12
 71
     2
 72
     6
 73
     3
 74
     0
 42
0.000000001
 43
0.0000000001
 40
-5.654573080352872
 40
-5.654573080352872
 40
-5.654573080352872
 40
0.0
 40
0.0
 40
0.0
 10
142.9191977384568
 20
1507.659884785485
 30
4.185207900610024
 41
1.0
 10
71.93598514545637
 20
1519.334109517386
 30
4.185207900610024
 41
0.9967681786255456
 10
-0.0011765868213429
 20
1519.490100659008
 30
4.185207900610024
 41
1.0
  0
SPLINE
  5
2D4
330
1F
100
AcDbEntity
  8
Default
100
AcDbSpline
210
0.0
220
0.0
230
1.0
 70
    12
 71
     2
 72
     6
 73
     3
 74
     0
 42
0.000000001
 43
0.0000000001
 40
0.0
 40
0.0
 40
0.0
 40
0.443505275079806
 40
0.443505275079806
 40
0.443505275079806
 10
223.1358268962969
 20
1474.500524050379
 30
4.185207900610024
 41
1.0
 10
221.5110504774934
 20
1468.876878233232
 30
4.185207900610024
 41
0.9799943751373794
 10
217.9101529802699
 20
1464.44979294077
 30
4.185207900610024
 41
1.0
  0
SPLINE
  5
2D5
330
1F
100
AcDbEntity
  8
Default
100
AcDbSpline
210
0.0
220
0.0
230
1.0
 70
     8
 71
     3
 72
    12
 73
     8
 74
     0
 42
0.000000001
 43
0.0000000001
 40
0.0
 40
0.0
 40
0.0
 40
0.0
 40
0.8495817757806477
 40
1.391422022197968
 40
2.191064820612614
 40
2.689385262996221
 40
3.111933853859593
 40
3.111933853859593
 40
3.111933853859593
 40
3.111933853859593
 10
157.6047928551398
 20
1505.292800679589
 30
4.185207900610024
 10
164.7083154945153
 20
1504.021450190807
 30
4.185207900610024
 10
176.2966252992941
 20
1502.245260792292
 30
4.185207900610024
 10
194.4973963447978
 20
1498.400905178281
 30
4.185207900610024
 10
209.4911262605403
 20
1494.349451181507
 30
4.185207900610024
 10
222.3246184109801
 20
1486.609772478946
 30
4.185207900610024
 10
224.2466118868287
 20
1478.015917012381
 30
4.185207900610024
 10
223.1358268962969
 20
1474.500524050379
 30
4.185207900610024
  0
SPLINE
  5
2D6
330
1F
100
AcDbEntity
  8
Default
100
AcDbSpline
210
0.0
220
0.0
230
1.0
 70
    12
 71
     2
 72
     6
 73
     3
 74
     0
 42
0.000000001
 43
0.0000000001
 40
-6.233889429224446
 40
-6.233889429224446
 40
-6.233889429224446
 40
0.0
 40
0.0
 40
0.0
 10
-0.0011765868213429
 20
1517.77427503751
 30
4.185207900610024
 41
1.0
 10
79.30791709396487
 20
1517.921595183423
 30
4.185207900610024
 41
0.996730330589404
 10
157.6047928551398
 20
1505.292800679589
 30
4.185207900610024
 41
1.0
  0
SPLINE
  5
2D7
330
1F
100
AcDbEntity
  8
Default
100
AcDbSpline
210
0.0
220
0.0
230
1.0
 70
    12
 71
     2
 72
     6
 73
     3
 74
     0
 42
0.000000001
 43
0.0000000001
 40
0.0
 40
0.0
 40
0.0
 40
6.233889429224446
 40
6.233889429224446
 40
6.233889429224446
 10
-157.6059697700562
 20
1505.292800679589
 30
4.185207900610024
 41
0.9999999519924591
 10
-79.30968612107957
 20
1517.921594098339
 30
4.185207900610024
 41
0.9967303545933507
 10
-0.0011765868213429
 20
1517.77427503751
 30
4.185207900610024
 41
1.0
  0
SPLINE
  5
2D8
330
1F
100
AcDbEntity
  8
Default
100
AcDbSpline
210
0.0
220
0.0
230
1.0
 70
     8
 71
     3
 72
    12
 73
     8
 74
     0
 42
0.000000001
 43
0.0000000001
 40
-3.111933853859593
 40
-3.111933853859593
 40
-3.111933853859593
 40
-3.111933853859593
 40
-2.689379093202719
 40
-2.191051374651839
 40
-1.391396900347014
 40
-0.8495487423131249
 40
0.0
 40
0.0
 40
0.0
 40
0.0
 10
-223.1358275524871
 20
1474.500524050379
 30
4.185207900610024
 10
-224.2466125430188
 20
1478.015917012381
 30
4.185207900610024
 10
-222.3246190671703
 20
1486.609772478946
 30
4.185207900610024
 10
-209.4911269167305
 20
1494.349451181507
 30
4.185207900610024
 10
-194.497397000988
 20
1498.400905178281
 30
4.185207900610024
 10
-176.2970033995033
 20
1502.2451810688
 30
4.185207900610024
 10
-164.7090729996139
 20
1504.02133418465
 30
4.185207900610024
 10
-157.6059697700562
 20
1505.292800679589
 30
4.185207900610024
  0
SPLINE
  5
2D9
330
1F
100
AcDbEntity
  8
Default
100
AcDbSpline
210
0.0
220
0.0
230
1.0
 70
    12
 71
     2
 72
     6
 73
     3
 74
     0
 42
0.000000001
 43
0.0000000001
 40
-0.443505275079806
 40
-0.443505275079806
 40
-0.443505275079806
 40
0.0
 40
0.0
 40
0.0
 10
-217.9101536364601
 20
1464.44979294077
 30
4.185207900610024
 41
1.0
 10
-221.5110511336836
 20
1468.876878233232
 30
4.185207900610024
 41
0.9799943751373794
 10
-223.1358275524871
 20
1474.500524050379
 30
4.185207900610024
 41
1.0
  0
SPLINE
  5
2DA
330
1F
100
AcDbEntity
  8
Default
100
AcDbSpline
210
0.0
220
0.0
230
1.0
 70
     8
 71
     3
 72
    19
 73
    15
 74
     0
 42
0.000000001
 43
0.0000000001
 40
0.0
 40
0.0
 40
0.0
 40
0.0
 40
1.0
 40
2.0
 40
3.0
 40
4.0
 40
5.0
 40
6.0
 40
7.0
 40
8.0
 40
9.0
 40
10.0
 40
11.0
 40
12.0
 40
12.0
 40
12.0
 40
12.0
 10
-0.0011765868213429
 20
1504.376901113532
 30
4.185207900610024
 10
-6.330977991529547
 20
1504.376083937964
 30
4.185207900610024
 10
-18.99063192204473
 20
1504.30651163384
 30
4.185207900610024
 10
-37.97737860515937
 20
1503.962663757276
 30
4.185207900610024
 10
-56.95726969761624
 20
1503.34351755607
 30
4.185207900610024
 10
-75.92465493400347
 20
1502.413281648323
 30
4.185207900610024
 10
-94.87179846175349
 20
1501.135972667864
 30
4.185207900610024
 10
-113.7902456142286
 20
1499.47678629253
 30
4.185207900610024
 10
-132.6641921545013
 20
1497.392448044721
 30
4.185207900610024
 10
-151.4935730378956
 20
1494.865288993624
 30
4.185207900610024
 10
-170.2060740780056
 20
1491.776696465829
 30
4.185207900610024
 10
-188.9827058901232
 20
1488.372624942631
 30
4.185207900610024
 10
-207.0901934021529
 20
1483.788146985257
 30
4.185207900610024
 10
-219.9062689797145
 20
1479.722363588532
 30
4.185207900610024
 10
-223.0999221400861
 20
1474.36098973296
 30
4.185207900610024
  0
SPLINE
  5
2DB
330
1F
100
AcDbEntity
  8
Default
100
AcDbSpline
210
0.0
220
0.0
230
1.0
 70
     8
 71
     3
 72
    19
 73
    15
 74
     0
 42
0.000000001
 43
0.0000000001
 40
-12.0
 40
-12.0
 40
-12.0
 40
-12.0
 40
-11.0
 40
-10.0
 40
-9.0
 40
-8.0
 40
-7.0
 40
-6.0
 40
-5.0
 40
-4.0
 40
-3.0
 40
-2.0
 40
-1.0
 40
0.0
 40
0.0
 40
0.0
 40
0.0
 10
223.0975689664434
 20
1474.36098973296
 30
4.185207900610024
 10
219.9039158060718
 20
1479.722363588532
 30
4.185207900610024
 10
207.0878402285103
 20
1483.788146985257
 30
4.185207900610024
 10
188.9803527164809
 20
1488.372624942631
 30
4.185207900610024
 10
170.203720904363
 20
1491.776696465829
 30
4.185207900610024
 10
151.491219864253
 20
1494.865288993624
 30
4.185207900610024
 10
132.6618389808587
 20
1497.392448044721
 30
4.185207900610024
 10
113.7878924405859
 20
1499.47678629253
 30
4.185207900610024
 10
94.86944528811115
 20
1501.135972667864
 30
4.185207900610024
 10
75.92230176036115
 20
1502.413281648323
 30
4.185207900610024
 10
56.95491652397356
 20
1503.34351755607
 30
4.185207900610024
 10
37.97502543151669
 20
1503.962663757276
 30
4.185207900610024
 10
18.98827874840241
 20
1504.30651163384
 30
4.185207900610024
 10
6.328624817887222
 20
1504.376083937964
 30
4.185207900610024
 10
-0.0011765868213429
 20
1504.376901113532
 30
4.185207900610024
  0
SPLINE
  5
2DC
330
1F
100
AcDbEntity
  8
Default
100
AcDbSpline
210
0.0
220
0.0
230
1.0
 70
     8
 71
     3
 72
    22
 73
    18
 74
     0
 42
0.000000001
 43
0.0000000001
 40
0.0
 40
0.0
 40
0.0
 40
0.0
 40
0.2588469591229587
 40
0.6477254461891114
 40
1.024641027840087
 40
1.817983982162573
 40
2.582167143679937
 40
4.062052734317923
 40
7.850412104674
 40
9.497260537102542
 40
10.543391206404
 40
10.8432833113025
 40
12.15829953678302
 40
13.34949093133962
 40
14.77372714428499
 40
17.25709974516987
 40
21.82793658798906
 40
21.82793658798906
 40
21.82793658798906
 40
21.82793658798906
 10
196.4759582463543
 20
1430.643969867166
 30
4.185207900610024
 10
196.2727388740972
 20
1428.447148283288
 30
4.185207900610024
 10
197.2561376805889
 20
1423.002325149268
 30
4.185207900610024
 10
200.4173906714514
 20
1414.914870443668
 30
4.185207900610024
 10
206.1124716218455
 20
1403.007491231436
 30
4.185207900610024
 10
213.9317118941241
 20
1388.619403643513
 30
4.185207900610024
 10
225.1898547296354
 20
1365.505422118327
 30
4.185207900610024
 10
246.8041312822023
 20
1319.252565859764
 30
4.185207900610024
 10
269.1219767204986
 20
1265.124011484444
 30
4.185207900610024
 10
288.9210885157013
 20
1213.980849863945
 30
4.185207900610024
 10
297.8102329767372
 20
1190.261697617102
 30
4.185207900610024
 10
305.4621992526973
 20
1169.068432433885
 30
4.185207900610024
 10
309.9944959820723
 20
1145.62391180308
 30
4.185207900610024
 10
311.7424425116063
 20
1112.402567933815
 30
4.185207900610024
 10
311.282447839704
 20
1069.210042682671
 30
4.185207900610024
 10
302.1538825993306
 20
997.837283744014
 30
4.185207900610024
 10
279.4631444621523
 20
941.5494656749309
 30
4.185207900610024
 10
257.4723214594575
 20
909.6192669616055
 30
4.185207900610024
  0
SPLINE
  5
34A
330
1F
100
AcDbEntity
  8
Default
100
AcDbSpline
210
0.0
220
0.0
230
1.0
 70
    12
 71
     2
 72
     6
 73
     3
 74
     0
 42
0.000000001
 43
0.0000000001
 40
0.0
 40
0.0
 40
0.0
 40
0.0586712320260919
 40
0.0586712320260919
 40
0.0586712320260919
 10
-0.0000003258834072
 20
722.5887559989781
 30
4.185207900610024
 41
1.0
 10
-0.7487337049410503
 20
722.5898599383667
 30
4.185207900610024
 41
0.9921343149382712
 10
-1.473728323271266
 20
722.7769045720489
 30
4.185207900610024
 41
1.0
  0
SPLINE
  5
34B
330
1F
100
AcDbEntity
  8
Default
100
AcDbSpline
210
0.0
220
0.0
230
1.0
 70
    24
 71
     2
 72
     6
 73
     3
 74
     0
 42
0.000000001
 43
0.0000000001
 40
0.0
 40
0.0
 40
0.0
 40
0.0114467396849787
 40
0.0114467396849787
 40
0.0114467396849787
 10
-0.0000003258834072
 20
722.5887559989781
 30
4.185207900610024
 10
-0.0000002603888629
 20
722.4434459979772
 30
4.185207900610024
 10
-0.0000001948943186
 20
722.2981359969761
 30
4.185207900610024
  0
SPLINE
  5
34C
330
1F
100
AcDbEntity
  8
Default
100
AcDbSpline
210
0.0
220
0.0
230
1.0
 70
    12
 71
     2
 72
     6
 73
     3
 74
     0
 42
0.000000001
 43
0.0000000001
 40
0.0
 40
0.0
 40
0.0
 40
0.0587632096241838
 40
0.0587632096241838
 40
0.0587632096241838
 10
1.476004149845121
 20
722.7774876423508
 30
4.185207900610024
 41
1.0
 10
0.7499334666334884
 20
722.5898679671786
 30
4.185207900610024
 41
0.9921107855315545
 10
0.0000144422994634
 20
722.5887559989978
 30
4.185207900610024
 41
1.0
  0
SPLINE
  5
34D
330
1F
100
AcDbEntity
  8
Default
100
AcDbSpline
210
0.0
220
0.0
230
1.0
 70
    12
 71
     2
 72
     6
 73
     3
 74
     0
 42
0.000000001
 43
0.0000000001
 40
-0.1297405451143296
 40
-0.1297405451143296
 40
-0.1297405451143296
 40
0.0
 40
0.0
 40
0.0
 10
344.5108594699491
 20
1103.483130578497
 30
4.185207900610024
 41
0.9999960316975588
 10
342.8641370717641
 20
1103.512518798273
 30
4.185207900610024
 41
0.999996865512317
 10
341.2175114025231
 20
1103.546902363277
 30
4.185207900610024
 41
1.0
  0
ARC
  5
34E
330
1F
100
AcDbEntity
  8
Default
100
AcDbCircle
 10
344.7373747146763
 20
1116.17555393249
 30
4.185207900610024
 40
12.69444444444444
100
AcDbArc
 50
268.9775798079559
 51
281.7179678781667
  0
SPLINE
  5
34F
330
1F
100
AcDbEntity
  8
Default
100
AcDbSpline
210
0.0
220
0.0
230
1.0
 70
     8
 71
     3
 72
    14
 73
    10
 74
     0
 42
0.000000001
 43
0.0000000001
 40
-7.0
 40
-7.0
 40
-7.0
 40
-7.0
 40
-6.0
 40
-5.0
 40
-4.0
 40
-3.0
 40
-2.0
 40
-1.0
 40
-0.2482205602640466
 40
-0.2482205602640466
 40
-0.2482205602640466
 40
-0.2482205602640466
 10
371.5463570575798
 20
1094.200945815907
 30
4.185207900610024
 10
371.5592420635837
 20
1095.640089533618
 30
4.185207900610024
 10
370.4111513415214
 20
1098.382329337981
 30
4.185207900610024
 10
367.0862354246844
 20
1101.177775687567
 30
4.185207900610024
 10
363.1797096768281
 20
1102.967397187508
 30
4.185207900610024
 10
359.0223858717646
 20
1104.021781596645
 30
4.185207900610024
 10
354.7627316852859
 20
1104.479147035628
 30
4.185207900610024
 10
350.8328311455952
 20
1104.357484908948
 30
4.185207900610024
 10
348.3646260855979
 20
1103.963269657005
 30
4.185207900610024
 10
347.3155448902359
 20
1103.745672263748
 30
4.185207900610024
  0
SPLINE
  5
350
330
1F
100
AcDbEntity
  8
Default
100
AcDbSpline
210
0.0
220
0.0
230
1.0
 70
     8
 71
     3
 72
    14
 73
    10
 74
     0
 42
0.000000001
 43
0.0000000001
 40
0.2772630823298201
 40
0.2772630823298201
 40
0.2772630823298201
 40
0.2772630823298201
 40
1.0
 40
2.0
 40
3.0
 40
4.0
 40
5.0
 40
6.0
 40
7.0
 40
7.0
 40
7.0
 40
7.0
 10
347.4371735093915
 20
1084.631218248219
 30
4.185207900610024
 10
348.4464754085146
 20
1084.425637754432
 30
4.185207900610024
 10
350.8743076612971
 20
1084.043122690088
 30
4.185207900610024
 10
354.7627316852859
 20
1083.922744596185
 30
4.185207900610024
 10
359.0223858717646
 20
1084.380110035169
 30
4.185207900610024
 10
363.1797096768281
 20
1085.434494444307
 30
4.185207900610024
 10
367.0862354246844
 20
1087.224115944247
 30
4.185207900610024
 10
370.4111513415214
 20
1090.019562293833
 30
4.185207900610024
 10
371.5592420635837
 20
1092.761802098196
 30
4.185207900610024
 10
371.5463570575798
 20
1094.200945815907
 30
4.185207900610024
  0
ARC
  5
351
330
1F
100
AcDbEntity
  8
Default
100
AcDbCircle
 10
344.903518988631
 20
1072.192186351704
 30
4.185207900610024
 40
12.69444444444444
100
AcDbArc
 50
78.48715217353497
 51
90.94225522513259
  0
SPLINE
  5
352
330
1F
100
AcDbEntity
  8
Default
100
AcDbSpline
210
0.0
220
0.0
230
1.0
 70
    12
 71
     2
 72
     6
 73
     3
 74
     0
 42
0.000000001
 43
0.0000000001
 40
0.0
 40
0.0
 40
0.0
 40
0.1369528492222414
 40
0.1369528492222414
 40
0.1369528492222414
 10
341.2175114025231
 20
1084.867703876254
 30
4.185207900610024
 41
1.0
 10
342.9556429941176
 20
1084.903998197229
 30
4.185207900610024
 41
0.9999966913238282
 10
344.6947624702553
 20
1084.884914209383
 30
4.185207900610024
 41
0.9999959461296658
  0
SPLINE
  5
353
330
1F
100
AcDbEntity
  8
Default
100
AcDbSpline
210
0.0
220
0.0
230
1.0
 70
     8
 71
     3
 72
    12
 73
     8
 74
     0
 42
0.000000001
 43
0.0000000001
 40
-1.014583801502342
 40
-1.014583801502342
 40
-1.014583801502342
 40
-1.014583801502342
 40
-0.8249401141264362
 40
-0.5900965017365678
 40
-0.3037660471064116
 40
-0.1510110321465192
 40
0.0
 40
0.0
 40
0.0
 40
0.0
 10
371.930798358273
 20
1094.200933208799
 30
4.185207900610024
 10
371.9626228148189
 20
1095.834727079759
 30
4.185207900610024
 10
370.3188312323045
 20
1099.232198024467
 30
4.185207900610024
 10
365.2193519347374
 20
1102.653295655667
 30
4.185207900610024
 10
359.6809365712448
 20
1104.188113310442
 30
4.185207900610024
 10
354.6933447221737
 20
1104.625103926052
 30
4.185207900610024
 10
352.1214539781562
 20
1104.527870105437
 30
4.185207900610024
 10
350.8489568644419
 20
1104.403052682188
 30
4.185207900610024
  0
SPLINE
  5
354
330
1F
100
AcDbEntity
  8
Default
100
AcDbSpline
210
0.0
220
0.0
230
1.0
 70
     8
 71
     3
 72
    12
 73
     8
 74
     0
 42
0.000000001
 43
0.0000000001
 40
0.0
 40
0.0
 40
0.0
 40
0.0
 40
0.1510110321465192
 40
0.3037660471064116
 40
0.5900965017365678
 40
0.8249401141264362
 40
1.014583801502342
 40
1.014583801502342
 40
1.014583801502342
 40
1.014583801502342
 10
350.8489568644419
 20
1083.998813735409
 30
4.185207900610024
 10
352.1214539781562
 20
1083.873996312161
 30
4.185207900610024
 10
354.6933447221737
 20
1083.776762491545
 30
4.185207900610024
 10
359.6809365712448
 20
1084.213753107155
 30
4.185207900610024
 10
365.2193519347374
 20
1085.74857076193
 30
4.185207900610024
 10
370.3188312323045
 20
1089.16966839313
 30
4.185207900610024
 10
371.9626228148189
 20
1092.567139337838
 30
4.185207900610024
 10
371.930798358273
 20
1094.200933208799
 30
4.185207900610024
  0
SPLINE
  5
355
330
1F
100
AcDbEntity
  8
Default
100
AcDbSpline
210
0.0
220
0.0
230
1.0
 70
    12
 71
     2
 72
     6
 73
     3
 74
     0
 42
0.000000001
 43
0.0000000001
 40
0.0
 40
0.0
 40
0.0
 40
0.0853474550214741
 40
0.0853474550214741
 40
0.0853474550214741
 10
351.7387465657521
 20
1104.478220118927
 30
4.185207900610024
 41
1.0
 10
352.81996384271
 20
1104.554066326093
 30
4.185207900610024
 41
0.9993970637774639
 10
353.9038379372591
 20
1104.554694257648
 30
4.185207900610024
 41
1.0
  0
SPLINE
  5
356
330
1F
100
AcDbEntity
  8
Default
100
AcDbSpline
210
0.0
220
0.0
230
1.0
 70
    12
 71
     2
 72
     6
 73
     3
 74
     0
 42
0.000000001
 43
0.0000000001
 40
0.0
 40
0.0
 40
0.0
 40
0.0853474550214741
 40
0.0853474550214741
 40
0.0853474550214741
 10
10.2772867278548
 20
742.46218616913
 30
4.185207900610024
 41
1.0
 10
10.35313293501991
 20
741.3809688921722
 30
4.185207900610024
 41
0.9993970637774639
 10
10.35376086657544
 20
740.2970947976228
 30
4.185207900610024
 41
1.0
  0
SPLINE
  5
357
330
1F
100
AcDbEntity
  8
Default
100
AcDbSpline
210
0.0
220
0.0
230
1.0
 70
    12
 71
     2
 72
     6
 73
     3
 74
     0
 42
0.000000001
 43
0.0000000001
 40
-0.1297405451143296
 40
-0.1297405451143296
 40
-0.1297405451143296
 40
0.0
 40
0.0
 40
0.0
 10
9.282197187424625
 20
749.6900732649328
 30
4.185207900610024
 41
0.9999960316975588
 10
9.311585407201002
 20
751.3367956631178
 30
4.185207900610024
 41
0.999996865512317
 10
9.345968972204547
 20
752.9834213323591
 30
4.185207900610024
 41
1.0
  0
ARC
  5
358
330
1F
100
AcDbEntity
  8
Default
100
AcDbCircle
 10
21.9746205414179
 20
749.4635580202059
 30
4.185207900610024
 40
12.69444444444444
100
AcDbArc
 50
178.9775798079559
 51
191.7179678781666
  0
SPLINE
  5
359
330
1F
100
AcDbEntity
  8
Default
100
AcDbSpline
210
0.0
220
0.0
230
1.0
 70
     8
 71
     3
 72
    14
 73
    10
 74
     0
 42
0.000000001
 43
0.0000000001
 40
-7.0
 40
-7.0
 40
-7.0
 40
-7.0
 40
-6.0
 40
-5.0
 40
-4.0
 40
-3.0
 40
-2.0
 40
-1.0
 40
-0.2482205602640466
 40
-0.2482205602640466
 40
-0.2482205602640466
 40
-0.2482205602640466
 10
0.0000124248346399
 20
722.6545756773021
 30
4.185207900610024
 10
1.439156142545821
 20
722.6416906712984
 30
4.185207900610024
 10
4.181395946908674
 20
723.7897813933606
 30
4.185207900610024
 10
6.976842296494767
 20
727.1146973101974
 30
4.185207900610024
 10
8.766463796434932
 20
731.0212230580538
 30
4.185207900610024
 10
9.820848205572465
 20
735.1785468631176
 30
4.185207900610024
 10
10.27821364455594
 20
739.4382010495961
 30
4.185207900610024
 10
10.1565515178753
 20
743.3681015892869
 30
4.185207900610024
 10
9.76233626593226
 20
745.8363066492839
 30
4.185207900610024
 10
9.544738872675166
 20
746.885387844646
 30
4.185207900610024
  0
SPLINE
  5
35A
330
1F
100
AcDbEntity
  8
Default
100
AcDbSpline
210
0.0
220
0.0
230
1.0
 70
     8
 71
     3
 72
    14
 73
    10
 74
     0
 42
0.000000001
 43
0.0000000001
 40
0.2772630823298201
 40
0.2772630823298201
 40
0.2772630823298201
 40
0.2772630823298201
 40
1.0
 40
2.0
 40
3.0
 40
4.0
 40
5.0
 40
6.0
 40
7.0
 40
7.0
 40
7.0
 40
7.0
 10
-9.569715142853471
 20
746.7637592254905
 30
4.185207900610024
 10
-9.775295636640844
 20
745.7544573263674
 30
4.185207900610024
 10
-10.15781070098397
 20
743.3266250735848
 30
4.185207900610024
 10
-10.27818879488666
 20
739.4382010495961
 30
4.185207900610024
 10
-9.820823355903186
 20
735.1785468631176
 30
4.185207900610024
 10
-8.766438946765651
 20
731.0212230580538
 30
4.185207900610024
 10
-6.976817446825487
 20
727.1146973101974
 30
4.185207900610024
 10
-4.181371097239395
 20
723.7897813933606
 30
4.185207900610024
 10
-1.439131292876541
 20
722.6416906712984
 30
4.185207900610024
 10
0.0000124248346399
 20
722.6545756773021
 30
4.185207900610024
  0
ARC
  5
35B
330
1F
100
AcDbEntity
  8
Default
100
AcDbCircle
 10
-22.00874703936847
 20
749.297413746251
 30
4.185207900610024
 40
12.69444444444444
100
AcDbArc
 50
348.487152173535
 51
0.9422552251317732
  0
SPLINE
  5
35C
330
1F
100
AcDbEntity
  8
Default
100
AcDbSpline
210
0.0
220
0.0
230
1.0
 70
    12
 71
     2
 72
     6
 73
     3
 74
     0
 42
0.000000001
 43
0.0000000001
 40
0.0
 40
0.0
 40
0.0
 40
0.1369528492222414
 40
0.1369528492222414
 40
0.1369528492222414
 10
-9.333229514817761
 20
752.9834213323591
 30
4.185207900610024
 41
1.0
 10
-9.296935193843479
 20
751.2452897407639
 30
4.185207900610024
 41
0.9999966913238282
 10
-9.316019181688876
 20
749.5061702646268
 30
4.185207900610024
 41
0.9999959461296658
  0
SPLINE
  5
35D
330
1F
100
AcDbEntity
  8
Default
100
AcDbSpline
210
0.0
220
0.0
230
1.0
 70
     8
 71
     3
 72
    12
 73
     8
 74
     0
 42
0.000000001
 43
0.0000000001
 40
-1.014583801502342
 40
-1.014583801502342
 40
-1.014583801502342
 40
-1.014583801502342
 40
-0.8249401141264362
 40
-0.5900965017365678
 40
-0.3037660471064116
 40
-0.1510110321465192
 40
0.0
 40
0.0
 40
0.0
 40
0.0
 10
-0.0000001822736111
 20
722.2701343766092
 30
4.185207900610024
 10
1.633793688687051
 20
722.2383099200633
 30
4.185207900610024
 10
5.031264633395204
 20
723.8821015025769
 30
4.185207900610024
 10
8.452362264594496
 20
728.9815808001447
 30
4.185207900610024
 10
9.987179919369586
 20
734.5199961636373
 30
4.185207900610024
 10
10.42417053498043
 20
739.5075880127084
 30
4.185207900610024
 10
10.32693671436451
 20
742.0794787567258
 30
4.185207900610024
 10
10.20211929111569
 20
743.35197587044
 30
4.185207900610024
  0
SPLINE
  5
35E
330
1F
100
AcDbEntity
  8
Default
100
AcDbSpline
210
0.0
220
0.0
230
1.0
 70
     8
 71
     3
 72
    12
 73
     8
 74
     0
 42
0.000000001
 43
0.0000000001
 40
0.0
 40
0.0
 40
0.0
 40
0.0
 40
0.1510110321465192
 40
0.3037660471064116
 40
0.5900965017365678
 40
0.8249401141264362
 40
1.014583801502342
 40
1.014583801502342
 40
1.014583801502342
 40
1.014583801502342
 10
-10.20211965566327
 20
743.35197587044
 30
4.185207900610024
 10
-10.32693707891209
 20
742.0794787567258
 30
4.185207900610024
 10
-10.42417089952801
 20
739.5075880127084
 30
4.185207900610024
 10
-9.987180283917167
 20
734.5199961636373
 30
4.185207900610024
 10
-8.452362629142077
 20
728.9815808001447
 30
4.185207900610024
 10
-5.031264997942427
 20
723.8821015025769
 30
4.185207900610024
 10
-1.633794053234633
 20
722.2383099200633
 30
4.185207900610024
 10
-0.0000001822736111
 20
722.2701343766092
 30
4.185207900610024
  0
CIRCLE
  5
367
330
1F
100
AcDbEntity
  8
Default
100
AcDbCircle
 10
0.0
 20
0.0
 30
0.0
 40
457.0
  0
CIRCLE
  5
3B0
330
1F
100
AcDbEntity
  8
Default
100
AcDbCircle
 10
-934.4239249248623
 20
-72.00102908501794
 30
4.185207900610024
 40
199.9375
  0
SPLINE
  5
3B1
330
1F
100
AcDbEntity
  8
Default
100
AcDbSpline
210
0.0
220
0.0
230
1.0
 70
     8
 71
     3
 72
    21
 73
    17
 74
     0
 42
0.000000001
 43
0.0000000001
 40
0.0
 40
0.0
 40
0.0
 40
0.0
 40
0.2588469591229587
 40
0.6477254461891114
 40
1.024641027840087
 40
1.817983982162573
 40
2.582167143679937
 40
4.062052734317923
 40
7.850412104674
 40
9.497260537102542
 40
10.543391206404
 40
10.8432833113025
 40
12.15829953678302
 40
13.34949093133962
 40
14.77372714428499
 40
15.46884750610318
 40
15.46884750610318
 40
15.46884750610318
 40
15.46884750610318
 10
-1421.337680327535
 20
255.2335585793919
 30
4.185207900610024
 10
-1419.185580605436
 20
254.7479764845862
 30
4.185207900610024
 10
-1414.311133027206
 20
252.1301657617776
 30
4.185207900610024
 10
-1407.596387426899
 20
246.6244745598922
 30
4.185207900610024
 10
-1398.03167363312
 20
237.5285481761448
 30
4.185207900610024
 10
-1386.764067302837
 20
225.6458451814935
 30
4.185207900610024
 10
-1368.260322017056
 20
207.7961019774478
 30
4.185207900610024
 10
-1330.950420450949
 20
172.9467847948456
 30
4.185207900610024
 10
-1286.367699612932
 20
134.9946092781637
 30
4.185207900610024
 10
-1243.845924508067
 20
100.3604289016811
 30
4.185207900610024
 10
-1224.034566906624
 20
84.5767290012829
 30
4.185207900610024
 10
-1206.243161572211
 20
70.75019750415129
 30
4.185207900610024
 10
-1185.346654167793
 20
59.19497186600304
 30
4.185207900610024
 10
-1154.291423783732
 20
47.26661609737745
 30
4.185207900610024
 10
-1127.527669801128
 20
38.88458050889584
 30
4.185207900610024
 10
-1110.1014835144
 20
34.61577050886707
 30
4.185207900610024
 10
-1104.358595459126
 20
33.34227472049818
 30
4.185207900610024
  0
SPLINE
  5
3B2
330
1F
100
AcDbEntity
  8
Default
100
AcDbSpline
210
0.0
220
0.0
230
1.0
 70
     8
 71
     3
 72
    10
 73
     6
 74
     0
 42
0.000000001
 43
0.0000000001
 40
-6.708248473681532
 40
-6.708248473681532
 40
-6.708248473681532
 40
-6.708248473681532
 40
-3.774519558109396
 40
-1.88935509827327
 40
0.0
 40
0.0
 40
0.0
 40
0.0
 10
-865.3344023605242
 20
115.6199766101946
 30
4.185207900610024
 10
-844.4626094078644
 20
129.059599187585
 30
4.185207900610024
 10
-813.5632436206364
 20
156.4055900835977
 30
4.185207900610024
 10
-781.4030152628588
 20
203.4933989724579
 30
4.185207900610024
 10
-768.609282830844
 20
232.9259752460365
 30
4.185207900610024
 10
-763.6670165250481
 20
248.1311391516505
 30
4.185207900610024
  0
SPLINE
  5
3B3
330
1F
100
AcDbEntity
  8
Default
100
AcDbSpline
210
0.0
220
0.0
230
1.0
 70
     8
 71
     3
 72
     8
 73
     4
 74
     0
 42
0.000000001
 43
0.0000000001
 40
-14.89017236839833
 40
-14.89017236839833
 40
-14.89017236839833
 40
-14.89017236839833
 40
-14.55234360913006
 40
-14.55234360913006
 40
-14.55234360913006
 40
-14.55234360913006
 10
-1064.55817153465
 20
88.95316813904772
 30
4.185207900610024
 10
-1061.838942388397
 20
88.06883130845152
 30
4.185207900610024
 10
-1059.103017704278
 20
87.23621199997095
 30
4.185207900610024
 10
-1056.352387050016
 20
86.45544452854261
 30
4.185207900610024
  0
SPLINE
  5
3B4
330
1F
100
AcDbEntity
  8
Default
100
AcDbSpline
210
0.0
220
0.0
230
1.0
 70
     8
 71
     3
 72
    34
 73
    30
 74
     0
 42
0.000000001
 43
0.0000000001
 40
49.54977648871967
 40
49.54977648871967
 40
49.54977648871967
 40
49.54977648871967
 40
50.0
 40
51.0
 40
52.0
 40
53.0
 40
53.0
 40
53.0
 40
54.0
 40
55.0
 40
56.0
 40
57.0
 40
58.0
 40
59.0
 40
60.0
 40
60.0
 40
60.0
 40
61.0
 40
62.0
 40
63.0
 40
64.0
 40
65.0
 40
66.0
 40
67.0
 40
68.0
 40
69.0
 40
70.0
 40
71.0
 40
72.0
 40
72.0
 40
72.0
 40
72.0
 10
-1100.295658783313
 20
39.63038142762173
 30
4.185207900610024
 10
-1105.17437850386
 20
40.87103177856838
 30
4.185207900610024
 10
-1120.826547903068
 20
45.11080448623943
 30
4.185207900610024
 10
-1146.897811546831
 20
53.51841383642701
 30
4.185207900610024
 10
-1178.395071793143
 20
65.19687256997248
 30
4.185207900610024
 10
-1197.995176426446
 20
76.14573244861045
 30
4.185207900610024
 10
-1207.078621628477
 20
82.6775772261328
 30
4.185207900610024
 10
-1216.008455774624
 20
89.07311569642589
 30
4.185207900610024
 10
-1233.805544958948
 20
101.9522541224387
 30
4.185207900610024
 10
-1260.174463965377
 20
121.7154442081758
 30
4.185207900610024
 10
-1286.154256475152
 20
141.9879019478531
 30
4.185207900610024
 10
-1311.679389914584
 20
162.831447506638
 30
4.185207900610024
 10
-1336.659291104608
 20
184.3246125008595
 30
4.185207900610024
 10
-1361.057409459115
 20
206.4812318628233
 30
4.185207900610024
 10
-1376.698367098437
 20
221.9128128189065
 30
4.185207900610024
 10
-1384.404746074725
 20
229.7391483970158
 30
4.185207900610024
 10
-1385.988959446515
 20
231.3417338225541
 30
4.185207900610024
 10
-1389.16579149517
 20
234.5387347524288
 30
4.185207900610024
 10
-1394.031378584623
 20
239.2332429271957
 30
4.185207900610024
 10
-1399.057694674915
 20
243.7557352629159
 30
4.185207900610024
 10
-1404.333612420672
 20
247.9926215087194
 30
4.185207900610024
 10
-1409.961618888447
 20
251.7410531989991
 30
4.185207900610024
 10
-1416.093645602827
 20
254.713720836211
 30
4.185207900610024
 10
-1422.856013791653
 20
255.7045778939786
 30
4.185207900610024
 10
-1429.589420270874
 20
254.7895835699977
 30
4.185207900610024
 10
-1436.279019879826
 20
253.8718643763831
 30
4.185207900610024
 10
-1442.885996862797
 20
252.3878766560449
 30
4.185207900610024
 10
-1449.325439968341
 20
250.317517332697
 30
4.185207900610024
 10
-1458.010348014932
 20
246.1071582445971
 30
4.185207900610024
 10
-1460.11245908393
 20
245.2950018447387
 30
4.185207900610024
  0
SPLINE
  5
3B5
330
1F
100
AcDbEntity
  8
Default
100
AcDbSpline
210
0.0
220
0.0
230
1.0
 70
     8
 71
     3
 72
    12
 73
     8
 74
     0
 42
0.000000001
 43
0.0000000001
 40
36.00001859054296
 40
36.00001859054296
 40
36.00001859054296
 40
36.00001859054296
 40
37.0
 40
38.0
 40
39.0
 40
40.0
 40
40.99791129719946
 40
40.99791129719946
 40
40.99791129719946
 40
40.99791129719946
 10
-748.6256594360656
 20
243.2432215111467
 30
4.185207900610024
 10
-752.0625510024127
 20
232.6043387805523
 30
4.185207900610024
 10
-759.8433945440066
 20
211.6187301097498
 30
4.185207900610024
 10
-774.2042604869761
 20
181.271225138903
 30
4.185207900610024
 10
-791.291891418387
 20
152.3636029807203
 30
4.185207900610024
 10
-811.1516502308523
 20
125.3088900031647
 30
4.185207900610024
 10
-826.2587508309165
 20
108.801079194319
 30
4.185207900610024
 10
-834.2807316536637
 20
101.0490929828307
 30
4.185207900610024
  0
SPLINE
  5
3B6
330
1F
100
AcDbEntity
  8
Default
100
AcDbSpline
210
0.0
220
0.0
230
1.0
 70
     8
 71
     3
 72
    12
 73
     8
 74
     0
 42
0.000000001
 43
0.0000000001
 40
0.0
 40
0.0
 40
0.0
 40
0.0
 40
1.918305221504867
 40
3.868777778011241
 40
7.624449324857683
 40
11.42846767657462
 40
15.35241906764609
 40
15.35241906764609
 40
15.35241906764609
 40
15.35241906764609
 10
-1226.932369031721
 20
398.6551756632373
 30
4.185207900610024
 10
-1231.961447307035
 20
383.2208653896642
 30
4.185207900610024
 10
-1239.067407861649
 20
351.0965346283206
 30
4.185207900610024
 10
-1240.531766606263
 20
286.277150982492
 30
4.185207900610024
 10
-1217.738859833288
 20
207.3299208603672
 30
4.185207900610024
 10
-1154.815889643903
 20
130.7049482695365
 30
4.185207900610024
 10
-1096.126751518456
 20
99.20985153676731
 30
4.185207900610024
 10
-1064.55817153465
 20
88.95316813904772
 30
4.185207900610024
  0
SPLINE
  5
3B7
330
1F
100
AcDbEntity
  8
Default
100
AcDbSpline
210
0.0
220
0.0
230
1.0
 70
     8
 71
     3
 72
    47
 73
    43
 74
     0
 42
0.000000001
 43
0.0000000001
 40
36.00001859054296
 40
36.00001859054296
 40
36.00001859054296
 40
36.00001859054296
 40
37.0
 40
38.0
 40
39.0
 40
40.0
 40
41.0
 40
42.0
 40
43.0
 40
44.0
 40
45.0
 40
46.0
 40
47.0
 40
48.0
 40
49.0
 40
50.0
 40
51.0
 40
52.0
 40
53.0
 40
53.0
 40
53.0
 40
54.0
 40
55.0
 40
56.0
 40
57.0
 40
58.0
 40
59.0
 40
60.0
 40
60.0
 40
60.0
 40
61.0
 40
62.0
 40
63.0
 40
64.0
 40
65.0
 40
66.0
 40
67.0
 40
68.0
 40
69.0
 40
70.0
 40
71.0
 40
72.0
 40
72.0
 40
72.0
 40
72.0
 10
-748.6256594360656
 20
243.2432215111467
 30
4.185207900610024
 10
-745.1527847511519
 20
253.8704126177869
 30
4.185207900610024
 10
-739.1125881197951
 20
275.4215917539123
 30
4.185207900610024
 10
-732.8929568558615
 20
308.4143442236323
 30
4.185207900610024
 10
-729.7256666895572
 20
341.8449592746719
 30
4.185207900610024
 10
-729.8903024048429
 20
375.4293377906571
 30
4.185207900610024
 10
-733.6763144416859
 20
408.8162450728924
 30
4.185207900610024
 10
-741.5320760007469
 20
441.4844572047041
 30
4.185207900610024
 10
-753.1418594179158
 20
473.0222295394814
 30
4.185207900610024
 10
-768.7985329334769
 20
502.7665369765656
 30
4.185207900610024
 10
-788.1007612587852
 20
530.2821184008924
 30
4.185207900610024
 10
-811.0208755498447
 20
554.9003108691477
 30
4.185207900610024
 10
-837.4098323636719
 20
575.7440701150893
 30
4.185207900610024
 10
-866.1397723990027
 20
593.141735830961
 30
4.185207900610024
 10
-896.2906059989787
 20
607.8921918519231
 30
4.185207900610024
 10
-927.4417394685244
 20
620.3976660391132
 30
4.185207900610024
 10
-959.3171549347326
 20
630.8323125840058
 30
4.185207900610024
 10
-991.6633995633343
 20
639.8978660608616
 30
4.185207900610024
 10
-1013.955795669283
 20
642.5607047968582
 30
4.185207900610024
 10
-1025.143779235691
 20
642.615446496984
 30
4.185207900610024
 10
-1036.127370010181
 20
642.6901720028608
 30
4.185207900610024
 10
-1058.09568523975
 20
642.7315966995886
 30
4.185207900610024
 10
-1091.045100509896
 20
642.2421017680385
 30
4.185207900610024
 10
-1123.979045847744
 20
641.1118778337563
 30
4.185207900610024
 10
-1156.880841268872
 20
639.252392252166
 30
4.185207900610024
 10
-1189.723371258101
 20
636.5468740321554
 30
4.185207900610024
 10
-1222.485197739289
 20
632.9626465828952
 30
4.185207900610024
 10
-1244.209453983343
 20
629.6717595714763
 30
4.185207900610024
 10
-1255.044250172558
 20
627.8698169959434
 30
4.185207900610024
 10
-1257.267881791723
 20
627.5044754081679
 30
4.185207900610024
 10
-1261.717142905504
 20
626.7853423520756
 30
4.185207900610024
 10
-1268.412848220378
 20
625.8473257933826
 30
4.185207900610024
 10
-1275.137477655066
 20
625.1429471080887
 30
4.185207900610024
 10
-1281.896164023232
 20
624.8163407752644
 30
4.185207900610024
 10
-1288.652589766887
 20
625.0918550371393
 30
4.185207900610024
 10
-1295.360793785901
 20
626.2912312693821
 30
4.185207900610024
 10
-1301.414075738568
 20
629.4644313626159
 30
4.185207900610024
 10
-1306.323695840725
 20
634.1624743466497
 30
4.185207900610024
 10
-1311.196273802179
 20
638.8369727642313
 30
4.185207900610024
 10
-1315.669164366248
 20
643.9210276822551
 30
4.185207900610024
 10
-1319.661856595734
 20
649.380993249721
 30
4.185207900610024
 10
-1324.213307821169
 20
657.8921061717172
 30
4.185207900610024
 10
-1325.43657784566
 20
659.7847443863307
 30
4.185207900610024
  0
SPLINE
  5
3B8
330
1F
100
AcDbEntity
  8
Default
100
AcDbSpline
210
0.0
220
0.0
230
1.0
 70
     8
 71
     3
 72
    12
 73
     8
 74
     0
 42
0.000000001
 43
0.0000000001
 40
-14.89017236839833
 40
-14.89017236839833
 40
-14.89017236839833
 40
-14.89017236839833
 40
-11.21816917573749
 40
-7.516682162771167
 40
-3.774519558109396
 40
-1.88935509827327
 40
0.0
 40
0.0
 40
0.0
 40
0.0
 10
-913.5310128518511
 20
553.766968083454
 30
4.185207900610024
 10
-883.9694173303067
 20
544.1705811829301
 30
4.185207900610024
 10
-828.6162357069724
 20
512.6465609668326
 30
4.185207900610024
 10
-770.4818364590947
 20
436.3087682968533
 30
4.185207900610024
 10
-749.9194158425425
 20
358.5347344944456
 30
4.185207900610024
 10
-751.7787378611318
 20
294.667549832466
 30
4.185207900610024
 10
-758.7284251727287
 20
263.33612819359
 30
4.185207900610024
 10
-763.6674188430228
 20
248.1299009442427
 30
4.185207900610024
  0
SPLINE
  5
3B9
330
1F
100
AcDbEntity
  8
Default
100
AcDbSpline
210
0.0
220
0.0
230
1.0
 70
     8
 71
     3
 72
    12
 73
     8
 74
     0
 42
0.000000001
 43
0.0000000001
 40
0.0
 40
0.0
 40
0.0
 40
0.0
 40
1.918305221504867
 40
3.868777778011241
 40
7.624449324857683
 40
11.42846767657462
 40
15.35241906764609
 40
15.35241906764609
 40
15.35241906764609
 40
15.35241906764609
 10
-1226.932770703066
 20
398.6539394459505
 30
4.185207900610024
 10
-1221.929320535725
 20
414.096576796581
 30
4.185207900610024
 10
-1208.795955524483
 20
444.2624851328041
 30
4.185207900610024
 10
-1171.88076886503
 20
497.5631965413382
 30
4.185207900610024
 10
-1107.036902359365
 20
548.035512910935
 30
4.185207900610024
 10
-1011.092121293399
 20
573.0412240226721
 30
4.185207900610024
 10
-945.0992577856471
 20
564.0246826590716
 30
4.185207900610024
 10
-913.5310128518511
 20
553.766968083454
 30
4.185207900610024
  0
SPLINE
  5
3BA
330
1F
100
AcDbEntity
  8
Default
100
AcDbSpline
210
0.0
220
0.0
230
1.0
 70
    12
 71
     2
 72
     6
 73
     3
 74
     0
 42
0.000000001
 43
0.0000000001
 40
0.0
 40
0.0
 40
0.0
 40
1.278324852146924
 40
1.278324852146924
 40
1.278324852146924
 10
-720.7546397837595
 20
224.3367544242114
 30
4.185207900610024
 41
1.0
 10
-736.2423773725602
 20
229.1809012809461
 30
4.185207900610024
 41
0.9999999996076647
 10
-751.7302084167292
 20
234.0247493314596
 30
4.185207900610024
 41
0.9999999993083845
  0
SPLINE
  5
3BB
330
1F
100
AcDbEntity
  8
Default
100
AcDbSpline
210
0.0
220
0.0
230
1.0
 70
     8
 71
     3
 72
    14
 73
    10
 74
     0
 42
0.000000001
 43
0.0000000001
 40
0.0
 40
0.0
 40
0.0
 40
0.0
 40
1.0
 40
2.0
 40
3.0
 40
4.0
 40
5.0
 40
6.0
 40
7.0
 40
7.0
 40
7.0
 40
7.0
 10
-714.8691312687616
 20
242.1318006440024
 30
4.185207900610024
 10
-713.1797500838605
 20
241.5548601627196
 30
4.185207900610024
 10
-710.136329670696
 20
240.0241534467685
 30
4.185207900610024
 10
-706.4056350750877
 20
236.5219112895533
 30
4.185207900610024
 10
-704.401000331965
 20
231.6154444021804
 30
4.185207900610024
 10
-706.1551330460341
 20
226.4942597433663
 30
4.185207900610024
 10
-710.7117655098801
 20
223.8061336321544
 30
4.185207900610024
 10
-715.79441691826
 20
223.2306351729125
 30
4.185207900610024
 10
-719.1502867496174
 20
223.8162651996718
 30
4.185207900610024
 10
-720.7546397837595
 20
224.3367544242114
 30
4.185207900610024
  0
SPLINE
  5
3BC
330
1F
100
AcDbEntity
  8
Default
100
AcDbSpline
210
0.0
220
0.0
230
1.0
 70
    12
 71
     2
 72
     6
 73
     3
 74
     0
 42
0.000000001
 43
0.0000000001
 40
-1.281345128275034
 40
-1.281345128275034
 40
-1.281345128275034
 40
0.0
 40
0.0
 40
0.0
 10
-745.7164805501019
 20
252.5338077665917
 30
4.185207900610024
 41
0.9999999993069707
 10
-730.2935027707339
 20
247.3329166967093
 30
4.185207900610024
 41
0.9999999996067375
 10
-714.8691312687616
 20
242.1318006440024
 30
4.185207900610024
 41
1.0
  0
SPLINE
  5
3BD
330
1F
100
AcDbEntity
  8
Default
100
AcDbSpline
210
0.0
220
0.0
230
1.0
 70
    12
 71
     2
 72
     6
 73
     3
 74
     0
 42
0.000000001
 43
0.0000000001
 40
0.0
 40
0.0
 40
0.0
 40
1.112498698414412
 40
1.112498698414412
 40
1.112498698414412
 10
-926.8569987860324
 20
658.0189711087566
 30
4.185207900610024
 41
1.0
 10
-931.0727558869922
 20
644.5403253020115
 30
4.185207900610024
 41
0.9999999996585591
 10
-935.2882866767638
 20
631.0616087133126
 30
4.185207900610024
 41
0.9999999993875963
  0
SPLINE
  5
3BE
330
1F
100
AcDbEntity
  8
Default
100
AcDbSpline
210
0.0
220
0.0
230
1.0
 70
     8
 71
     3
 72
    14
 73
    10
 74
     0
 42
0.000000001
 43
0.0000000001
 40
0.0
 40
0.0
 40
0.0
 40
0.0
 40
1.0
 40
2.0
 40
3.0
 40
4.0
 40
5.0
 40
6.0
 40
7.0
 40
7.0
 40
7.0
 40
7.0
 10
-944.6520450058239
 20
663.9044796237547
 30
4.185207900610024
 10
-944.0751045245411
 20
665.5938608086556
 30
4.185207900610024
 10
-942.5443978085899
 20
668.6372812218203
 30
4.185207900610024
 10
-939.0421556513743
 20
672.3679758174287
 30
4.185207900610024
 10
-934.1356887640019
 20
674.3726105605512
 30
4.185207900610024
 10
-929.0145041051871
 20
672.6184778464819
 30
4.185207900610024
 10
-926.3263779939755
 20
668.0618453826361
 30
4.185207900610024
 10
-925.7508795347337
 20
662.9791939742561
 30
4.185207900610024
 10
-926.3365095614933
 20
659.6233241428986
 30
4.185207900610024
 10
-926.8569987860324
 20
658.0189711087566
 30
4.185207900610024
  0
SPLINE
  5
3BF
330
1F
100
AcDbEntity
  8
Default
100
AcDbSpline
210
0.0
220
0.0
230
1.0
 70
    12
 71
     2
 72
     6
 73
     3
 74
     0
 42
0.000000001
 43
0.0000000001
 40
-1.102413928352738
 40
-1.102413928352738
 40
-1.102413928352738
 40
0.0
 40
0.0
 40
0.0
 10
-953.6015090620923
 20
637.3645870493267
 30
4.185207900610024
 41
0.9999999993925147
 10
-949.1268603015965
 20
650.6340175103827
 30
4.185207900610024
 41
0.9999999996616539
 10
-944.6520450058239
 20
663.9044796237547
 30
4.185207900610024
 41
1.0
  0
SPLINE
  5
3C0
330
1F
100
AcDbEntity
  8
Default
100
AcDbSpline
210
0.0
220
0.0
230
1.0
 70
    12
 71
     2
 72
     6
 73
     3
 74
     0
 42
0.000000001
 43
0.0000000001
 40
0.0
 40
0.0
 40
0.0
 40
5.654573080352872
 40
5.654573080352872
 40
5.654573080352872
 10
-1445.121325263051
 20
469.5471448875699
 30
4.185207900610024
 41
1.0
 10
-1467.2027743737
 20
401.0826345445757
 30
4.185207900610024
 41
0.9967681786255456
 10
-1478.034945876299
 20
329.9660538221292
 30
4.185207900610024
 41
1.0
  0
SPLINE
  5
3C1
330
1F
100
AcDbEntity
  8
Default
100
AcDbSpline
210
0.0
220
0.0
230
1.0
 70
    12
 71
     2
 72
     6
 73
     3
 74
     0
 42
0.000000001
 43
0.0000000001
 40
-5.654573080352872
 40
-5.654573080352872
 40
-5.654573080352872
 40
0.0
 40
0.0
 40
0.0
 10
-1389.70529685842
 20
601.8167604489256
 30
4.185207900610024
 41
1.0
 10
-1422.743163368954
 20
537.9152474030977
 30
4.185207900610024
 41
0.9967681786255456
 10
-1445.121325263051
 20
469.5471448875699
 30
4.185207900610024
 41
1.0
  0
SPLINE
  5
3C2
330
1F
100
AcDbEntity
  8
Default
100
AcDbSpline
210
0.0
220
0.0
230
1.0
 70
    12
 71
     2
 72
     6
 73
     3
 74
     0
 42
0.000000001
 43
0.0000000001
 40
0.0
 40
0.0
 40
0.0
 40
0.443505275079806
 40
0.443505275079806
 40
0.443505275079806
 10
-1333.380569113869
 20
667.8605023349639
 30
4.185207900610024
 41
1.0
 10
-1328.534247639606
 20
664.5774460064943
 30
4.185207900610024
 41
0.9799943751373794
 10
-1325.43657784566
 20
659.7847443863307
 30
4.185207900610024
 41
1.0
  0
SPLINE
  5
3C3
330
1F
100
AcDbEntity
  8
Default
100
AcDbSpline
210
0.0
220
0.0
230
1.0
 70
     8
 71
     3
 72
    12
 73
     8
 74
     0
 42
0.000000001
 43
0.0000000001
 40
0.0
 40
0.0
 40
0.0
 40
0.0
 40
0.8495817757806477
 40
1.391422022197968
 40
2.191064820612614
 40
2.689385262996221
 40
3.111933853859593
 40
3.111933853859593
 40
3.111933853859593
 40
3.111933853859593
 10
-1382.915967631323
 20
615.0521221644822
 30
4.185207900610024
 10
-1379.511732248978
 20
621.4151047524699
 30
4.185207900610024
 10
-1374.241491081588
 20
631.8873695957822
 30
4.185207900610024
 10
-1364.960944060138
 20
648.0093602830542
 30
4.185207900610024
 10
-1356.474464983003
 20
661.0172766860594
 30
4.185207900610024
 10
-1345.147825947239
 20
670.8309607724648
 30
4.185207900610024
 10
-1336.380655058549
 20
670.0032378055767
 30
4.185207900610024
 10
-1333.380569113869
 20
667.8605023349639
 30
4.185207900610024
  0
SPLINE
  5
3C4
330
1F
100
AcDbEntity
  8
Default
100
AcDbSpline
210
0.0
220
0.0
230
1.0
 70
    12
 71
     2
 72
     6
 73
     3
 74
     0
 42
0.000000001
 43
0.0000000001
 40
-6.233889429224446
 40
-6.233889429224446
 40
-6.233889429224446
 40
0.0
 40
0.0
 40
0.0
 10
-1443.4894781249
 20
469.0169256111431
 30
4.185207900610024
 41
1.0
 10
-1419.121730153814
 20
544.4898803864184
 30
4.185207900610024
 41
0.996730330589404
 10
-1382.915967631323
 20
615.0521221644822
 30
4.185207900610024
 41
1.0
  0
SPLINE
  5
3C5
330
1F
100
AcDbEntity
  8
Default
100
AcDbSpline
210
0.0
220
0.0
230
1.0
 70
    12
 71
     2
 72
     6
 73
     3
 74
     0
 42
0.000000001
 43
0.0000000001
 40
0.0
 40
0.0
 40
0.0
 40
6.233889429224446
 40
6.233889429224446
 40
6.233889429224446
 10
-1480.321450092396
 20
315.2688723634249
 30
4.185207900610024
 41
0.9999999519924591
 10
-1468.137264122309
 20
393.6355749143222
 30
4.185207900610024
 41
0.9967303545933507
 10
-1443.4894781249
 20
469.0169256111431
 30
4.185207900610024
 41
1.0
  0
SPLINE
  5
3C6
330
1F
100
AcDbEntity
  8
Default
100
AcDbSpline
210
0.0
220
0.0
230
1.0
 70
     8
 71
     3
 72
    12
 73
     8
 74
     0
 42
0.000000001
 43
0.0000000001
 40
-3.111933853859593
 40
-3.111933853859593
 40
-3.111933853859593
 40
-3.111933853859593
 40
-2.689379093202719
 40
-2.191051374651839
 40
-1.391396900347014
 40
-0.8495487423131249
 40
0.0
 40
0.0
 40
0.0
 40
0.0
 10
-1471.286094446368
 20
243.4309373336289
 30
4.185207900610024
 10
-1474.972683269389
 20
243.4608341973456
 30
4.185207900610024
 10
-1482.551996863849
 20
247.9444060031988
 30
4.185207900610024
 10
-1485.947101556287
 20
262.5414745897903
 30
4.185207900610024
 10
-1485.166945927356
 20
278.0533272666581
 30
4.185207900610024
 10
-1483.198838636299
 20
296.5508767817232
 30
4.185207900610024
 10
-1481.307193207867
 20
308.1205149963224
 30
4.185207900610024
 10
-1480.321450092396
 20
315.2688723634248
 30
4.185207900610024
  0
SPLINE
  5
3C7
330
1F
100
AcDbEntity
  8
Default
100
AcDbSpline
210
0.0
220
0.0
230
1.0
 70
    12
 71
     2
 72
     6
 73
     3
 74
     0
 42
0.000000001
 43
0.0000000001
 40
-0.443505275079806
 40
-0.443505275079806
 40
-0.443505275079806
 40
0.0
 40
0.0
 40
0.0
 10
-1460.11245908393
 20
245.295001844738
 30
4.185207900610024
 41
1.0
 10
-1465.435605921165
 20
243.2383894064108
 30
4.185207900610024
 41
0.9799943751373794
 10
-1471.286094446368
 20
243.4309373336289
 30
4.185207900610024
 41
1.0
  0
SPLINE
  5
3C8
330
1F
100
AcDbEntity
  8
Default
100
AcDbSpline
210
0.0
220
0.0
230
1.0
 70
     8
 71
     3
 72
    19
 73
    15
 74
     0
 42
0.000000001
 43
0.0000000001
 40
0.0
 40
0.0
 40
0.0
 40
0.0
 40
1.0
 40
2.0
 40
3.0
 40
4.0
 40
5.0
 40
6.0
 40
7.0
 40
8.0
 40
9.0
 40
10.0
 40
11.0
 40
12.0
 40
12.0
 40
12.0
 40
12.0
 10
-1430.747818353258
 20
464.8769093886381
 30
4.185207900610024
 10
-1432.703057378181
 20
458.8566579946981
 30
4.185207900610024
 10
-1436.548938392426
 20
446.7951126057283
 30
4.185207900610024
 10
-1442.08914702178
 20
428.6313886121686
 30
4.185207900610024
 10
-1447.365412891538
 20
410.3891128119396
 30
4.185207900610024
 10
-1452.341950346684
 20
392.0625987815215
 30
4.185207900610024
 10
-1456.982146662432
 20
373.6480842822457
 30
4.185207900610024
 10
-1461.250288325722
 20
355.1428550528852
 30
4.185207900610024
 10
-1465.100335084848
 20
336.5485692669538
 30
4.185207900610024
 10
-1468.515462688116
 20
317.859828785721
 30
4.185207900610024
 10
-1471.36051746703
 20
299.1087551555565
 30
4.185207900610024
 10
-1473.925351390022
 20
280.199201165831
 30
4.185207900610024
 10
-1475.1607751215
 20
261.5612755746162
 30
4.185207900610024
 10
-1475.25437048286
 20
248.1160672182094
 30
4.185207900610024
 10
-1471.142294041918
 20
243.4219669346822
 30
4.185207900610024
  0
SPLINE
  5
3C9
330
1F
100
AcDbEntity
  8
Default
100
AcDbSpline
210
0.0
220
0.0
230
1.0
 70
     8
 71
     3
 72
    19
 73
    15
 74
     0
 42
0.000000001
 43
0.0000000001
 40
-12.0
 40
-12.0
 40
-12.0
 40
-12.0
 40
-11.0
 40
-10.0
 40
-9.0
 40
-8.0
 40
-7.0
 40
-6.0
 40
-5.0
 40
-4.0
 40
-3.0
 40
-2.0
 40
-1.0
 40
0.0
 40
0.0
 40
0.0
 40
0.0
 10
-1333.259686442536
 20
667.7809984060959
 30
4.185207900610024
 10
-1339.345549084866
 20
666.400409391707
 30
4.185207900610024
 10
-1347.172724032826
 20
655.4679933653716
 30
4.185207900610024
 10
-1357.128343034647
 20
639.6634309724889
 30
4.185207900610024
 10
-1366.168105765786
 20
622.8577088842354
 30
4.185207900610024
 10
-1374.888012644179
 20
606.015490413647
 30
4.185207900610024
 10
-1383.110082413966
 20
588.8886201209686
 30
4.185207900610024
 10
-1390.924776118576
 20
571.5825262162345
 30
4.185207900610024
 10
-1398.348877809884
 20
554.1027305605016
 30
4.185207900610024
 10
-1405.418660184009
 20
536.4776364252849
 30
4.185207900610024
 10
-1412.164611482663
 20
518.7260398034096
 30
4.185207900610024
 10
-1418.618563410815
 20
500.8664173995317
 30
4.185207900610024
 10
-1424.81280956741
 20
482.9152030806485
 30
4.185207900610024
 10
-1428.791024968035
 20
470.8966557403024
 30
4.185207900610024
 10
-1430.747818353258
 20
464.8769093886381
 30
4.185207900610024
  0
SPLINE
  5
3CA
330
1F
100
AcDbEntity
  8
Default
100
AcDbSpline
210
0.0
220
0.0
230
1.0
 70
     8
 71
     3
 72
    22
 73
    18
 74
     0
 42
0.000000001
 43
0.0000000001
 40
0.0
 40
0.0
 40
0.0
 40
0.0
 40
0.2588469591229587
 40
0.6477254461891114
 40
1.024641027840087
 40
1.817983982162573
 40
2.582167143679937
 40
4.062052734317923
 40
7.850412104674
 40
9.497260537102542
 40
10.543391206404
 40
10.8432833113025
 40
12.15829953678302
 40
13.34949093133962
 40
14.77372714428499
 40
17.25709974516987
 40
21.82793658798906
 40
21.82793658798906
 40
21.82793658798906
 40
21.82793658798906
 10
-1299.908859956309
 20
628.9530399745246
 30
4.185207900610024
 10
-1297.882356713438
 20
628.080911663274
 30
4.185207900610024
 10
-1292.4001352483
 20
627.333636626527
 30
4.185207900610024
 10
-1283.731627852602
 20
627.8410059378761
 30
4.185207900610024
 10
-1270.647160462798
 20
629.5777672515302
 30
4.185207900610024
 10
-1254.546997878044
 20
632.5681430837351
 30
4.185207900610024
 10
-1229.085337669717
 20
636.1326600898784
 30
4.185207900610024
 10
-1178.417078551883
 20
642.3961400279248
 30
4.185207900610024
 10
-1120.041170677332
 20
646.8950291787624
 30
4.185207900610024
 10
-1065.282871535973
 20
649.9209973816475
 30
4.185207900610024
 10
-1039.977720526703
 20
651.0454550091635
 30
4.185207900610024
 10
-1017.457139952977
 20
651.7738282904772
 30
4.185207900610024
 10
-993.7595191227066
 20
648.8395433288395
 30
4.185207900610024
 10
-961.6239983728759
 20
640.2359794343117
 30
4.185207900610024
 10
-920.6876119484723
 20
626.4512741715654
 30
4.185207900610024
 10
-855.6289662674348
 20
595.7140972678112
 30
4.185207900610024
 10
-809.107893804097
 20
556.7400305432689
 30
4.185207900610024
 10
-785.5360082793138
 20
525.9585409916759
 30
4.185207900610024
  0
SPLINE
  5
3CB
330
1F
100
AcDbEntity
  8
Default
100
AcDbSpline
210
0.0
220
0.0
230
1.0
 70
    12
 71
     2
 72
     6
 73
     3
 74
     0
 42
0.000000001
 43
0.0000000001
 40
0.0
 40
0.0
 40
0.0
 40
0.0586712320260919
 40
0.0586712320260919
 40
0.0586712320260919
 10
-687.2227450951405
 20
223.2922052380032
 30
4.185207900610024
 41
1.0
 10
-687.4551663422741
 20
222.5804586149145
 30
4.185207900610024
 41
0.9921343149382712
 10
-687.8570920178699
 20
221.9487477293871
 30
4.185207900610024
 41
1.0
  0
SPLINE
  5
3CC
330
1F
100
AcDbEntity
  8
Default
100
AcDbSpline
210
0.0
220
0.0
230
1.0
 70
    24
 71
     2
 72
     6
 73
     3
 74
     0
 42
0.000000001
 43
0.0000000001
 40
0.0
 40
0.0
 40
0.0
 40
0.0114467396849787
 40
0.0114467396849787
 40
0.0114467396849787
 10
-687.2227450951405
 20
223.2922052380032
 30
4.185207900610024
 10
-687.0845470515667
 20
223.2473020405302
 30
4.185207900610024
 10
-686.9463490079928
 20
223.2023988430573
 30
4.185207900610024
  0
SPLINE
  5
3CD
330
1F
100
AcDbEntity
  8
Default
100
AcDbSpline
210
0.0
220
0.0
230
1.0
 70
    12
 71
     2
 72
     6
 73
     3
 74
     0
 42
0.000000001
 43
0.0000000001
 40
0.0
 40
0.0
 40
0.0
 40
0.0587632096241838
 40
0.0587632096241838
 40
0.0587632096241838
 10
-686.9461290876273
 20
224.7542901979041
 30
4.185207900610024
 41
1.0
 10
-686.9920603531995
 20
224.0057782752374
 30
4.185207900610024
 41
0.9921107855315545
 10
-687.2227405315397
 20
223.2922192833858
 30
4.185207900610024
 41
1.0
  0
SPLINE
  5
3CE
330
1F
100
AcDbEntity
  8
Default
100
AcDbSpline
210
0.0
220
0.0
230
1.0
 70
    12
 71
     2
 72
     6
 73
     3
 74
     0
 42
0.000000001
 43
0.0000000001
 40
-0.1297405451143296
 40
-0.1297405451143296
 40
-0.1297405451143296
 40
0.0
 40
0.0
 40
0.0
 10
-943.0151116355219
 20
668.644338188164
 30
4.185207900610024
 41
0.9999960316975588
 10
-943.5519266994996
 20
667.0872935801863
 30
4.185207900610024
 41
0.999996865512317
 10
-944.0934627282189
 20
665.5318846134691
 30
4.185207900610024
 41
1.0
  0
ARC
  5
3CF
330
1F
100
AcDbEntity
  8
Default
100
AcDbCircle
 10
-955.0163265138081
 20
672.7819415038874
 30
4.185207900610024
 40
12.69444444444444
100
AcDbArc
 50
340.9775798079559
 51
353.7179678781667
  0
SPLINE
  5
3D0
330
1F
100
AcDbEntity
  8
Default
100
AcDbSpline
210
0.0
220
0.0
230
1.0
 70
     8
 71
     3
 72
    14
 73
    10
 74
     0
 42
0.000000001
 43
0.0000000001
 40
-7.0
 40
-7.0
 40
-7.0
 40
-7.0
 40
-6.0
 40
-5.0
 40
-4.0
 40
-3.0
 40
-2.0
 40
-1.0
 40
-0.2482205602640466
 40
-0.2482205602640466
 40
-0.2482205602640466
 40
-0.2482205602640466
 10
-925.8328011256446
 20
691.4882715035937
 30
4.185207900610024
 10
-927.1975264504307
 20
691.9452457386366
 30
4.185207900610024
 10
-930.160331029816
 20
691.7007452783211
 30
4.185207900610024
 10
-933.8464140197134
 20
689.4024027583654
 30
4.185207900610024
 10
-936.7556280539846
 20
686.2400994467722
 30
4.185207900610024
 10
-939.0430909238588
 20
682.612072252645
 30
4.185207900610024
 10
-940.7943768387143
 20
678.7022340747161
 30
4.185207900610024
 10
-941.8930753333164
 20
674.9270808933353
 30
4.185207900610024
 10
-942.2808716582744
 20
672.45785917518
 30
4.185207900610024
 10
-942.3981081573346
 20
671.3928823757602
 30
4.185207900610024
  0
SPLINE
  5
3D1
330
1F
100
AcDbEntity
  8
Default
100
AcDbSpline
210
0.0
220
0.0
230
1.0
 70
     8
 71
     3
 72
    14
 73
    10
 74
     0
 42
0.000000001
 43
0.0000000001
 40
0.2772630823298201
 40
0.2772630823298201
 40
0.2772630823298201
 40
0.2772630823298201
 40
1.0
 40
2.0
 40
3.0
 40
4.0
 40
5.0
 40
6.0
 40
7.0
 40
7.0
 40
7.0
 40
7.0
 10
-924.1815968001201
 20
665.601866937579
 30
4.185207900610024
 10
-923.6741866925969
 20
666.4982422193572
 30
4.185207900610024
 10
-922.5601518224705
 20
668.6890442483509
 30
4.185207900610024
 10
-921.2440763470967
 20
672.3499563777177
 30
4.185207900610024
 10
-920.3627511943881
 20
676.5424619422178
 30
4.185207900610024
 10
-920.0808466504943
 20
680.8221345383999
 30
4.185207900610024
 10
-920.5756949946634
 20
685.0904847639537
 30
4.185207900610024
 10
-922.2068669382204
 20
689.1165081416805
 30
4.185207900610024
 10
-924.4601124292023
 20
691.0558060063956
 30
4.185207900610024
 10
-925.8328011256446
 20
691.4882715035937
 30
4.185207900610024
  0
ARC
  5
3D2
330
1F
100
AcDbEntity
  8
Default
100
AcDbCircle
 10
-913.1343167633263
 20
659.3483460459739
 30
4.185207900610024
 40
12.69444444444444
100
AcDbArc
 50
150.487152173535
 51
162.9422552251326
  0
SPLINE
  5
3D3
330
1F
100
AcDbEntity
  8
Default
100
AcDbSpline
210
0.0
220
0.0
230
1.0
 70
    12
 71
     2
 72
     6
 73
     3
 74
     0
 42
0.000000001
 43
0.0000000001
 40
0.0
 40
0.0
 40
0.0
 40
0.1369528492222414
 40
0.1369528492222414
 40
0.1369528492222414
 10
-926.3284892879655
 20
659.7596948396764
 30
4.185207900610024
 41
1.0
 10
-925.8258950381703
 20
661.4239717780211
 30
4.185207900610024
 41
0.9999966913238282
 10
-925.2703276137982
 20
663.0720754118532
 30
4.185207900610024
 41
0.9999959461296658
  0
SPLINE
  5
3D4
330
1F
100
AcDbEntity
  8
Default
100
AcDbSpline
210
0.0
220
0.0
230
1.0
 70
     8
 71
     3
 72
    12
 73
     8
 74
     0
 42
0.000000001
 43
0.0000000001
 40
-1.014583801502342
 40
-1.014583801502342
 40
-1.014583801502342
 40
-1.014583801502342
 40
-0.8249401141264362
 40
-0.5900965017365678
 40
-0.3037660471064116
 40
-0.1510110321465192
 40
0.0
 40
0.0
 40
0.0
 40
0.0
 10
-925.7139902403181
 20
691.8538930119401
 30
4.185207900610024
 10
-927.2579862496691
 20
692.3890299401482
 30
4.185207900610024
 10
-930.9971326647644
 20
691.8755675039766
 30
4.185207900610024
 10
-935.8266156252099
 20
688.0828517957698
 30
4.185207900610024
 10
-938.9977784263352
 20
683.2897905129631
 30
4.185207900610024
 10
-940.9546318412402
 20
678.6813463108894
 30
4.185207900610024
 10
-941.6569149301167
 20
676.2052859565941
 30
4.185207900610024
 10
-941.9314297398194
 20
674.9564985796514
 30
4.185207900610024
  0
SPLINE
  5
3D5
330
1F
100
AcDbEntity
  8
Default
100
AcDbSpline
210
0.0
220
0.0
230
1.0
 70
     8
 71
     3
 72
    12
 73
     8
 74
     0
 42
0.000000001
 43
0.0000000001
 40
0.0
 40
0.0
 40
0.0
 40
0.0
 40
0.1510110321465192
 40
0.3037660471064116
 40
0.5900965017365678
 40
0.8249401141264362
 40
1.014583801502342
 40
1.014583801502342
 40
1.014583801502342
 40
1.014583801502342
 10
-922.5258453294422
 20
668.6512419878097
 30
4.185207900610024
 10
-922.0139136722835
 20
669.8228879547964
 30
4.185207900610024
 10
-921.1266808660054
 20
672.2388545030952
 30
4.185207900610024
 10
-920.0010329961729
 20
677.1173737583808
 30
4.185207900610024
 10
-919.7492668588452
 20
682.859004518372
 30
4.185207900610024
 10
-921.4270982884675
 20
688.7660748414917
 30
4.185207900610024
 10
-924.1503256351478
 20
691.379289797283
 30
4.185207900610024
 10
-925.7139902403181
 20
691.8538930119401
 30
4.185207900610024
  0
SPLINE
  5
3D6
330
1F
100
AcDbEntity
  8
Default
100
AcDbSpline
210
0.0
220
0.0
230
1.0
 70
    12
 71
     2
 72
     6
 73
     3
 74
     0
 42
0.000000001
 43
0.0000000001
 40
0.0
 40
0.0
 40
0.0
 40
0.0853474550214741
 40
0.0853474550214741
 40
0.0853474550214741
 10
-941.7279580812188
 20
675.825966888591
 30
4.185207900610024
 41
1.0
 10
-941.4659775975882
 20
676.8777033923457
 30
4.185207900610024
 41
0.9993970637774639
 10
-941.1316392810066
 20
677.9087229543316
 30
4.185207900610024
 41
1.0
  0
SPLINE
  5
3D7
330
1F
100
AcDbEntity
  8
Default
100
AcDbSpline
210
0.0
220
0.0
230
1.0
 70
    12
 71
     2
 72
     6
 73
     3
 74
     0
 42
0.000000001
 43
0.0000000001
 40
0.0
 40
0.0
 40
0.0
 40
0.0853474550214741
 40
0.0853474550214741
 40
0.0853474550214741
 10
-702.9476440039252
 20
239.2077137193974
 30
4.185207900610024
 41
1.0
 10
-701.8959075001707
 20
238.9457332357664
 30
4.185207900610024
 41
0.9993970637774639
 10
-700.8648879381842
 20
238.6113949191856
 30
4.185207900610024
 41
1.0
  0
SPLINE
  5
3D8
330
1F
100
AcDbEntity
  8
Default
100
AcDbSpline
210
0.0
220
0.0
230
1.0
 70
    12
 71
     2
 72
     6
 73
     3
 74
     0
 42
0.000000001
 43
0.0000000001
 40
-0.1297405451143296
 40
-0.1297405451143296
 40
-0.1297405451143296
 40
0.0
 40
0.0
 40
0.0
 10
-710.1292727043519
 20
240.4948672737007
 30
4.185207900610024
 41
0.9999960316975588
 10
-711.6863173123297
 20
241.0316823376784
 30
4.185207900610024
 41
0.999996865512317
 10
-713.241726279047
 20
241.573218366398
 30
4.185207900610024
 41
1.0
  0
ARC
  5
3D9
330
1F
100
AcDbEntity
  8
Default
100
AcDbCircle
 10
-705.9916693886289
 20
252.4960821519871
 30
4.185207900610024
 40
12.69444444444444
100
AcDbArc
 50
250.9775798079559
 51
263.7179678781667
  0
SPLINE
  5
3DA
330
1F
100
AcDbEntity
  8
Default
100
AcDbSpline
210
0.0
220
0.0
230
1.0
 70
     8
 71
     3
 72
    14
 73
    10
 74
     0
 42
0.000000001
 43
0.0000000001
 40
-7.0
 40
-7.0
 40
-7.0
 40
-7.0
 40
-6.0
 40
-5.0
 40
-4.0
 40
-3.0
 40
-2.0
 40
-1.0
 40
-0.2482205602640466
 40
-0.2482205602640466
 40
-0.2482205602640466
 40
-0.2482205602640466
 10
-687.2853393889223
 20
223.3125567638231
 30
4.185207900610024
 10
-686.828365153879
 20
224.6772820886097
 30
4.185207900610024
 10
-687.072865614195
 20
227.6400866679944
 30
4.185207900610024
 10
-689.3712081341507
 20
231.3261696578921
 30
4.185207900610024
 10
-692.5335114457439
 20
234.235383692163
 30
4.185207900610024
 10
-696.1615386398713
 20
236.5228465620375
 30
4.185207900610024
 10
-700.0713768178001
 20
238.2741324768932
 30
4.185207900610024
 10
-703.8465299991807
 20
239.3728309714949
 30
4.185207900610024
 10
-706.3157517173359
 20
239.760627296453
 30
4.185207900610024
 10
-707.380728516756
 20
239.8778637955131
 30
4.185207900610024
  0
SPLINE
  5
3DB
330
1F
100
AcDbEntity
  8
Default
100
AcDbSpline
210
0.0
220
0.0
230
1.0
 70
     8
 71
     3
 72
    14
 73
    10
 74
     0
 42
0.000000001
 43
0.0000000001
 40
0.2772630823298201
 40
0.2772630823298201
 40
0.2772630823298201
 40
0.2772630823298201
 40
1.0
 40
2.0
 40
3.0
 40
4.0
 40
5.0
 40
6.0
 40
7.0
 40
7.0
 40
7.0
 40
7.0
 10
-713.1717439549369
 20
221.661352438299
 30
4.185207900610024
 10
-712.2753686731589
 20
221.1539423307754
 30
4.185207900610024
 10
-710.084566644165
 20
220.0399074606495
 30
4.185207900610024
 10
-706.4236545147983
 20
218.7238319852757
 30
4.185207900610024
 10
-702.2311489502983
 20
217.8425068325669
 30
4.185207900610024
 10
-697.9514763541159
 20
217.5606022886729
 30
4.185207900610024
 10
-693.6831261285622
 20
218.055450632842
 30
4.185207900610024
 10
-689.6571027508358
 20
219.6866225763991
 30
4.185207900610024
 10
-687.7178048861204
 20
221.9398680673808
 30
4.185207900610024
 10
-687.2853393889223
 20
223.3125567638231
 30
4.185207900610024
  0
ARC
  5
3DC
330
1F
100
AcDbEntity
  8
Default
100
AcDbCircle
 10
-719.425264846542
 20
210.6140724015051
 30
4.185207900610024
 40
12.69444444444444
100
AcDbArc
 50
60.48715217353496
 51
72.94225522513177
  0
SPLINE
  5
3DD
330
1F
100
AcDbEntity
  8
Default
100
AcDbSpline
210
0.0
220
0.0
230
1.0
 70
    12
 71
     2
 72
     6
 73
     3
 74
     0
 42
0.000000001
 43
0.0000000001
 40
0.0
 40
0.0
 40
0.0
 40
0.1369528492222414
 40
0.1369528492222414
 40
0.1369528492222414
 10
-719.0139160528397
 20
223.8082449261448
 30
4.185207900610024
 41
1.0
 10
-717.3496391144944
 20
223.3056506763491
 30
4.185207900610024
 41
0.9999966913238282
 10
-715.7015354806631
 20
222.750083251977
 30
4.185207900610024
 41
0.9999959461296658
  0
SPLINE
  5
3DE
330
1F
100
AcDbEntity
  8
Default
100
AcDbSpline
210
0.0
220
0.0
230
1.0
 70
     8
 71
     3
 72
    12
 73
     8
 74
     0
 42
0.000000001
 43
0.0000000001
 40
-1.014583801502342
 40
-1.014583801502342
 40
-1.014583801502342
 40
-1.014583801502342
 40
-0.8249401141264362
 40
-0.5900965017365678
 40
-0.3037660471064116
 40
-0.1510110321465192
 40
0.0
 40
0.0
 40
0.0
 40
0.0
 10
-686.9197178805761
 20
223.1937458784968
 30
4.185207900610024
 10
-686.3845809523679
 20
224.7377418878476
 30
4.185207900610024
 10
-686.8980433885386
 20
228.476888302943
 30
4.185207900610024
 10
-690.6907590967464
 20
233.3063712633888
 30
4.185207900610024
 10
-695.483820379553
 20
236.4775340645139
 30
4.185207900610024
 10
-700.0922645816266
 20
238.4343874794194
 30
4.185207900610024
 10
-702.5683249359218
 20
239.1366705682953
 30
4.185207900610024
 10
-703.8171123128644
 20
239.4111853779981
 30
4.185207900610024
  0
SPLINE
  5
3DF
330
1F
100
AcDbEntity
  8
Default
100
AcDbSpline
210
0.0
220
0.0
230
1.0
 70
     8
 71
     3
 72
    12
 73
     8
 74
     0
 42
0.000000001
 43
0.0000000001
 40
0.0
 40
0.0
 40
0.0
 40
0.0
 40
0.1510110321465192
 40
0.3037660471064116
 40
0.5900965017365678
 40
0.8249401141264362
 40
1.014583801502342
 40
1.014583801502342
 40
1.014583801502342
 40
1.014583801502342
 10
-710.1223689047063
 20
220.0056009676206
 30
4.185207900610024
 10
-708.9507229377196
 20
219.4936693104619
 30
4.185207900610024
 10
-706.5347563894211
 20
218.6064365041839
 30
4.185207900610024
 10
-701.6562371341351
 20
217.4807886343514
 30
4.185207900610024
 10
-695.9146063741443
 20
217.2290224970236
 30
4.185207900610024
 10
-690.0075360510235
 20
218.9068539266463
 30
4.185207900610024
 10
-687.3943210952329
 20
221.6300812733269
 30
4.185207900610024
 10
-686.9197178805761
 20
223.1937458784968
 30
4.185207900610024
  0
CIRCLE
  5
3E0
330
1F
100
AcDbEntity
  8
Default
100
AcDbCircle
 10
-220.2758248610593
 20
-910.9395043816391
 30
4.185207900610024
 40
199.9375
  0
SPLINE
  5
3E1
330
1F
100
AcDbEntity
  8
Default
100
AcDbSpline
210
0.0
220
0.0
230
1.0
 70
     8
 71
     3
 72
    21
 73
    17
 74
     0
 42
0.000000001
 43
0.0000000001
 40
0.0
 40
0.0
 40
0.0
 40
0.0
 40
0.2588469591229587
 40
0.6477254461891114
 40
1.024641027840087
 40
1.817983982162573
 40
2.582167143679937
 40
4.062052734317923
 40
7.850412104674
 40
9.497260537102542
 40
10.543391206404
 40
10.8432833113025
 40
12.15829953678302
 40
13.34949093133962
 40
14.77372714428499
 40
15.46884750610318
 40
15.46884750610318
 40
15.46884750610318
 40
15.46884750610318
 10
-681.9590370308061
 20
-1272.900955595514
 30
4.185207900610024
 10
-680.832185627627
 20
-1271.004240250555
 30
4.185207900610024
 10
-676.8362125414096
 20
-1267.177313119345
 30
4.185207900610024
 10
-669.5250185437481
 20
-1262.492562708071
 30
4.185207900610024
 10
-657.9186193761341
 20
-1256.206775160161
 30
4.185207900610024
 10
-643.1356154198867
 20
-1249.162601901154
 30
4.185207900610024
 10
-620.4415290785924
 20
-1237.080368366525
 30
4.185207900610024
 10
-575.7684652412584
 20
-1212.365574611535
 30
4.185207900610024
 10
-525.8969830141191
 20
-1181.692754652527
 30
4.185207900610024
 10
-479.817968942131
 20
-1151.954693677188
 30
4.185207900610024
 10
-458.6847321201251
 20
-1137.990404437021
 30
4.185207900610024
 10
-440.0370726398707
 20
-1125.342405665552
 30
4.185207900610024
 10
-422.5900240884022
 20
-1109.039407226796
 30
4.185207900610024
 10
-401.6488896530599
 20
-1083.190192652443
 30
4.185207900610024
 10
-385.4066452729218
 20
-1060.326541471063
 30
4.185207900610024
 10
-375.961777995826
 20
-1045.072388284665
 30
4.185207900610024
 10
-372.9759615219508
 20
-1040.004109018213
 30
4.185207900610024
  0
SPLINE
  5
3E2
330
1F
100
AcDbEntity
  8
Default
100
AcDbSpline
210
0.0
220
0.0
230
1.0
 70
     8
 71
     3
 72
    10
 73
     6
 74
     0
 42
0.000000001
 43
0.0000000001
 40
-6.708248473681532
 40
-6.708248473681532
 40
-6.708248473681532
 40
-6.708248473681532
 40
-3.774519558109396
 40
-1.88935509827327
 40
0.0
 40
0.0
 40
0.0
 40
0.0
 10
-377.3641683157095
 20
-787.2533844775648
 30
4.185207900610024
 10
-383.696270219037
 20
-763.2500580087756
 30
4.185207900610024
 10
-400.1554239115765
 20
-725.4126389125545
 30
4.185207900610024
 10
-435.0005342878553
 20
-680.2755109928122
 30
4.185207900610024
 10
-459.0390970012179
 20
-659.0127821388354
 30
4.185207900610024
 10
-471.9728229357702
 20
-649.6137535143507
 30
4.185207900610024
  0
SPLINE
  5
3E3
330
1F
100
AcDbEntity
  8
Default
100
AcDbSpline
210
0.0
220
0.0
230
1.0
 70
     8
 71
     3
 72
     8
 73
     4
 74
     0
 42
0.000000001
 43
0.0000000001
 40
-14.89017236839833
 40
-14.89017236839833
 40
-14.89017236839833
 40
-14.89017236839833
 40
-14.55234360913006
 40
-14.55234360913006
 40
-14.55234360913006
 40
-14.55234360913006
 10
-413.5660567086672
 20
-984.9669453548253
 30
4.185207900610024
 10
-411.8847143855368
 20
-982.6540798653869
 30
4.185207900610024
 10
-410.2473991438905
 20
-980.3093543826282
 30
4.185207900610024
 10
-408.6548535350618
 20
-977.9346195922981
 30
4.185207900610024
  0
SPLINE
  5
3E4
330
1F
100
AcDbEntity
  8
Default
100
AcDbSpline
210
0.0
220
0.0
230
1.0
 70
     8
 71
     3
 72
    34
 73
    30
 74
     0
 42
0.000000001
 43
0.0000000001
 40
49.54977648871967
 40
49.54977648871967
 40
49.54977648871967
 40
49.54977648871967
 40
50.0
 40
51.0
 40
52.0
 40
53.0
 40
53.0
 40
53.0
 40
54.0
 40
55.0
 40
56.0
 40
57.0
 40
58.0
 40
59.0
 40
60.0
 40
60.0
 40
60.0
 40
61.0
 40
62.0
 40
63.0
 40
64.0
 40
65.0
 40
66.0
 40
67.0
 40
68.0
 40
69.0
 40
70.0
 40
71.0
 40
72.0
 40
72.0
 40
72.0
 40
72.0
 10
-377.7007899010241
 20
-1034.196894782442
 30
4.185207900610024
 10
-380.3883258061772
 20
-1038.453450921326
 30
4.185207900610024
 10
-389.2573756106088
 20
-1052.029386803641
 30
4.185207900610024
 10
-405.3099508003211
 20
-1074.226537808817
 30
4.185207900610024
 10
-426.1500137715047
 20
-1100.573370194745
 30
4.185207900610024
 10
-442.6197637283035
 20
-1115.830793654785
 30
4.185207900610024
 10
-451.6388562022958
 20
-1122.451212363713
 30
4.185207900610024
 10
-460.4808452477933
 20
-1128.967659242341
 30
4.185207900610024
 10
-478.2292367804829
 20
-1141.913824235634
 30
4.185207900610024
 10
-505.1735915905861
 20
-1160.884994884801
 30
4.185207900610024
 10
-532.4820420210797
 20
-1179.328711883912
 30
4.185207900610024
 10
-560.1931318639298
 20
-1197.163546570093
 30
4.185207900610024
 10
-588.3535604730154
 20
-1214.279091127155
 30
4.185207900610024
 10
-616.9651908985964
 20
-1230.636308652806
 30
4.185207900610024
 10
-636.4748182424648
 20
-1240.743122571277
 30
4.185207900610024
 10
-646.2995077615053
 20
-1245.653853816399
 30
4.185207900610024
 10
-648.3132059279823
 20
-1246.665304135413
 30
4.185207900610024
 10
-652.3354295862502
 20
-1248.698723338097
 30
4.185207900610024
 10
-658.3037212749156
 20
-1251.875488838888
 30
4.185207900610024
 10
-664.1580841716976
 20
-1255.258272520851
 30
4.185207900610024
 10
-669.8179506889337
 20
-1258.966698619204
 30
4.185207900610024
 10
-675.1220707168562
 20
-1263.160921749583
 30
4.185207900610024
 10
-679.8441461087105
 20
-1268.074220895863
 30
4.185207900610024
 10
-682.8761938627856
 20
-1274.199423557587
 30
4.185207900610024
 10
-684.0867195807041
 20
-1280.886022462381
 30
4.185207900610024
 10
-685.281116726218
 20
-1287.531800588771
 30
4.185207900610024
 10
-685.9114287038704
 20
-1294.273986526466
 30
4.185207900610024
 10
-685.9322973322516
 20
-1301.038037068682
 30
4.185207900610024
 10
-684.6117920665521
 20
-1310.59894797046
 30
4.185207900610024
 10
-684.4889734745999
 20
-1312.849144530254
 30
4.185207900610024
  0
SPLINE
  5
3E5
330
1F
100
AcDbEntity
  8
Default
100
AcDbSpline
210
0.0
220
0.0
230
1.0
 70
     8
 71
     3
 72
    12
 73
     8
 74
     0
 42
0.000000001
 43
0.0000000001
 40
36.00001859054296
 40
36.00001859054296
 40
36.00001859054296
 40
36.00001859054296
 40
37.0
 40
38.0
 40
39.0
 40
40.0
 40
40.99791129719946
 40
40.99791129719946
 40
40.99791129719946
 40
40.99791129719946
 10
-462.6761020536974
 20
-636.8190224589724
 30
4.185207900610024
 10
-453.6199812084908
 20
-643.3752961438625
 30
4.185207900610024
 10
-436.0658942186293
 20
-657.2602278129486
 30
4.185207900610024
 10
-411.6414534931237
 20
-680.2961177205209
 30
4.185207900610024
 10
-389.429039420399
 20
-705.480366979734
 30
4.185207900610024
 10
-369.8354813238391
 20
-732.7284860983805
 30
4.185207900610024
 10
-358.8039711054705
 20
-752.1973866462578
 30
4.185207900610024
 10
-353.9103225075832
 20
-762.2222392608363
 30
4.185207900610024
  0
SPLINE
  5
3E6
330
1F
100
AcDbEntity
  8
Default
100
AcDbSpline
210
0.0
220
0.0
230
1.0
 70
     8
 71
     3
 72
    12
 73
     8
 74
     0
 42
0.000000001
 43
0.0000000001
 40
0.0
 40
0.0
 40
0.0
 40
0.0
 40
1.918305221504867
 40
3.868777778011241
 40
7.624449324857683
 40
11.42846767657462
 40
15.35241906764609
 40
15.35241906764609
 40
15.35241906764609
 40
15.35241906764609
 10
-758.2865555488273
 20
-1043.690800445598
 30
4.185207900610024
 10
-745.1617248417383
 20
-1053.243202281284
 30
4.185207900610024
 10
-716.8055333122754
 20
-1069.928336509463
 30
4.185207900610024
 10
-655.6111478516217
 20
-1091.351315547192
 30
4.185207900610024
 10
-573.4844746564689
 20
-1094.070008802012
 30
4.185207900610024
 10
-481.1655280379534
 20
-1057.905126702833
 30
4.185207900610024
 10
-433.0759699929253
 20
-1011.820959582789
 30
4.185207900610024
 10
-413.5660567086672
 20
-984.9669453548253
 30
4.185207900610024
  0
SPLINE
  5
3E7
330
1F
100
AcDbEntity
  8
Default
100
AcDbSpline
210
0.0
220
0.0
230
1.0
 70
     8
 71
     3
 72
    47
 73
    43
 74
     0
 42
0.000000001
 43
0.0000000001
 40
36.00001859054296
 40
36.00001859054296
 40
36.00001859054296
 40
36.00001859054296
 40
37.0
 40
38.0
 40
39.0
 40
40.0
 40
41.0
 40
42.0
 40
43.0
 40
44.0
 40
45.0
 40
46.0
 40
47.0
 40
48.0
 40
49.0
 40
50.0
 40
51.0
 40
52.0
 40
53.0
 40
53.0
 40
53.0
 40
54.0
 40
55.0
 40
56.0
 40
57.0
 40
58.0
 40
59.0
 40
60.0
 40
60.0
 40
60.0
 40
61.0
 40
62.0
 40
63.0
 40
64.0
 40
65.0
 40
66.0
 40
67.0
 40
68.0
 40
69.0
 40
70.0
 40
71.0
 40
72.0
 40
72.0
 40
72.0
 40
72.0
 10
-462.6761020536974
 20
-636.8190224589724
 30
4.185207900610024
 10
-471.7099841086086
 20
-630.2321397051866
 30
4.185207900610024
 10
-490.3398500514093
 20
-617.8278907373493
 30
4.185207900610024
 10
-519.7958505189484
 20
-601.7173486904826
 30
4.185207900610024
 10
-550.6115083194897
 20
-588.3744485556432
 30
4.185207900610024
 10
-582.6030255867448
 20
-578.1528827185203
 30
4.185207900610024
 10
-615.5258033767494
 20
-571.4364723971003
 30
4.185207900610024
 10
-649.0226832259286
 20
-568.8127128937306
 30
4.185207900610024
 10
-682.6045074912692
 20
-570.1085654492301
 30
4.185207900610024
 10
-715.731203093683
 20
-575.8074503357383
 30
4.185207900610024
 10
-747.8647926887645
 20
-585.6621780933148
 30
4.185207900610024
 10
-778.3607898840605
 20
-599.8530623005725
 30
4.185207900610024
 10
-806.3390190583
 20
-618.5093758029382
 30
4.185207900610024
 10
-831.763222123995
 20
-640.4569981176499
 30
4.185207900610024
 10
-855.1088594180198
 20
-664.5740032993805
 30
4.185207900610024
 10
-876.6285017692394
 20
-690.3360877290128
 30
4.185207900610024
 10
-896.4024854428165
 20
-717.4269262050979
 30
4.185207900610024
 10
-915.0198784452499
 20
-745.3886228490435
 30
4.185207900610024
 10
-924.4411178190388
 20
-765.7670890067361
 30
4.185207900610024
 10
-927.9504573244643
 20
-776.3905775661319
 30
4.185207900610024
 10
-931.415641712339
 20
-786.8135016933002
 30
4.185207900610024
 10
-938.2436216838204
 20
-807.6938101091316
 30
4.185207900610024
 10
-947.9600136126688
 20
-839.1818284624292
 30
4.185207900610024
 10
-957.0622555763074
 20
-870.8531301864407
 30
4.185207900610024
 10
-965.4609936275559
 20
-902.7192097650212
 30
4.185207900610024
 10
-973.0367927993999
 20
-934.7903630314705
 30
4.185207900610024
 10
-979.751951077347
 20
-967.0562987856614
 30
4.185207900610024
 10
-983.3352959103146
 20
-988.7342342613308
 30
4.185207900610024
 10
-984.9696828349211
 20
-999.5955686585414
 30
4.185207900610024
 10
-985.3093622967447
 20
-1001.823264759162
 30
4.185207900610024
 10
-986.0003234142354
 20
-1006.276987869672
 30
4.185207900610024
 10
-987.1773033853198
 20
-1012.934845098216
 30
4.185207900610024
 10
-988.5854242229244
 20
-1019.548012725978
 30
4.185207900610024
 10
-990.3633520892421
 20
-1026.076832345331
 30
4.185207900610024
 10
-992.7132320993525
 20
-1032.417436486586
 30
4.185207900610024
 10
-995.926855724126
 20
-1038.426689993094
 30
4.185207900610024
 10
-1000.815315345422
 20
-1043.203130483789
 30
4.185207900610024
 10
-1006.800575786713
 20
-1046.420681552108
 30
4.185207900610024
 10
-1012.751997363672
 20
-1049.610279122293
 30
4.185207900610024
 10
-1018.969420120937
 20
-1052.293191469922
 30
4.185207900610024
 10
-1025.395965704843
 20
-1054.403245283286
 30
4.185207900610024
 10
-1034.896990887959
 20
-1056.101854095895
 30
4.185207900610024
 10
-1037.075008021234
 20
-1056.680395651357
 30
4.185207900610024
  0
SPLINE
  5
3E8
330
1F
100
AcDbEntity
  8
Default
100
AcDbSpline
210
0.0
220
0.0
230
1.0
 70
     8
 71
     3
 72
    12
 73
     8
 74
     0
 42
0.000000001
 43
0.0000000001
 40
-14.89017236839833
 40
-14.89017236839833
 40
-14.89017236839833
 40
-14.89017236839833
 40
-11.21816917573749
 40
-7.516682162771167
 40
-3.774519558109396
 40
-1.88935509827327
 40
0.0
 40
0.0
 40
0.0
 40
0.0
 10
-808.9602913645597
 20
-697.6962185491883
 30
4.185207900610024
 10
-790.6985496729314
 20
-672.5469171332008
 30
4.185207900610024
 10
-743.6123510122585
 20
-629.6443710304531
 30
4.185207900610024
 10
-653.046278528514
 20
-597.9449470529496
 30
4.185207900610024
 10
-572.724639466174
 20
-602.4224211008117
 30
4.185207900610024
 10
-512.5578994177319
 20
-623.9267868659167
 30
4.185207900610024
 10
-484.9075181881634
 20
-640.2182740141644
 30
4.185207900610024
 10
-471.9717696536378
 20
-649.6145187686139
 30
4.185207900610024
  0
SPLINE
  5
3E9
330
1F
100
AcDbEntity
  8
Default
100
AcDbSpline
210
0.0
220
0.0
230
1.0
 70
     8
 71
     3
 72
    12
 73
     8
 74
     0
 42
0.000000001
 43
0.0000000001
 40
0.0
 40
0.0
 40
0.0
 40
0.0
 40
1.918305221504867
 40
3.868777778011241
 40
7.624449324857683
 40
11.42846767657462
 40
15.35241906764609
 40
15.35241906764609
 40
15.35241906764609
 40
15.35241906764609
 10
-758.2855039595929
 20
-1043.691564469899
 30
4.185207900610024
 10
-771.4261737084764
 20
-1034.160963204976
 30
4.185207900610024
 10
-796.0572244198004
 20
-1012.348612503502
 30
4.185207900610024
 10
-835.3417932997603
 20
-960.7693580432663
 30
4.185207900610024
 10
-863.3059619443447
 20
-883.5023727576057
 30
4.185207900610024
 10
-857.439238570789
 20
-784.5262738303495
 30
4.185207900610024
 10
-828.4710818211305
 20
-724.5495954741628
 30
4.185207900610024
 10
-808.9602913645597
 20
-697.6962185491883
 30
4.185207900610024
  0
SPLINE
  5
3EA
330
1F
100
AcDbEntity
  8
Default
100
AcDbSpline
210
0.0
220
0.0
230
1.0
 70
    12
 71
     2
 72
     6
 73
     3
 74
     0
 42
0.000000001
 43
0.0000000001
 40
0.0
 40
0.0
 40
0.0
 40
1.278324852146924
 40
1.278324852146924
 40
1.278324852146924
 10
-436.0823646074272
 20
-616.15452723631
 30
4.185207900610024
 41
1.0
 10
-445.4753961607743
 20
-629.3873172908295
 30
4.185207900610024
 41
0.9999999996076647
 10
-454.8681724118148
 20
-642.6202885628859
 30
4.185207900610024
 41
0.9999999993083845
  0
SPLINE
  5
3EB
330
1F
100
AcDbEntity
  8
Default
100
AcDbSpline
210
0.0
220
0.0
230
1.0
 70
     8
 71
     3
 72
    14
 73
    10
 74
     0
 42
0.000000001
 43
0.0000000001
 40
0.0
 40
0.0
 40
0.0
 40
0.0
 40
1.0
 40
2.0
 40
3.0
 40
4.0
 40
5.0
 40
6.0
 40
7.0
 40
7.0
 40
7.0
 40
7.0
 10
-451.1877371208599
 20
-605.0581043138077
 30
4.185207900610024
 10
-450.1169866205097
 20
-603.6296917428602
 30
4.185207900610024
 10
-447.7207293950723
 20
-601.2082413157273
 30
4.185207900610024
 10
-443.2370511389434
 20
-598.7423922552626
 30
4.185207900610024
 10
-437.9512576305816
 20
-598.3520529705605
 30
4.185207900610024
 10
-433.6227784087022
 20
-601.6028654096283
 30
4.185207900610024
 10
-432.47429542246
 20
-606.7671570581185
 30
4.185207900610024
 10
-433.4975895243531
 20
-611.7788846042571
 30
4.185207900610024
 10
-435.0915775862404
 20
-614.7895368445229
 30
4.185207900610024
 10
-436.0823646074272
 20
-616.15452723631
 30
4.185207900610024
  0
SPLINE
  5
3EC
330
1F
100
AcDbEntity
  8
Default
100
AcDbSpline
210
0.0
220
0.0
230
1.0
 70
    12
 71
     2
 72
     6
 73
     3
 74
     0
 42
0.000000001
 43
0.0000000001
 40
-1.281345128275034
 40
-1.281345128275034
 40
-1.281345128275034
 40
0.0
 40
0.0
 40
0.0
 10
-470.612988936701
 20
-631.1812798817696
 30
4.185207900610024
 41
0.9999999993069707
 10
-460.9006853564562
 20
-618.1203200905128
 30
4.185207900610024
 41
0.9999999996067375
 10
-451.1877371208599
 20
-605.0581043138077
 30
4.185207900610024
 41
1.0
  0
SPLINE
  5
3ED
330
1F
100
AcDbEntity
  8
Default
100
AcDbSpline
210
0.0
220
0.0
230
1.0
 70
    12
 71
     2
 72
     6
 73
     3
 74
     0
 42
0.000000001
 43
0.0000000001
 40
0.0
 40
0.0
 40
0.0
 40
1.112498698414412
 40
1.112498698414412
 40
1.112498698414412
 10
-912.2277942990594
 20
-678.1543436755021
 30
4.185207900610024
 41
1.0
 10
-900.7115809620737
 20
-686.3288975529321
 30
4.185207900610024
 41
0.9999999996585591
 10
-889.1952303734461
 20
-694.5032580684588
 30
4.185207900610024
 41
0.9999999993875963
  0
SPLINE
  5
3EE
330
1F
100
AcDbEntity
  8
Default
100
AcDbSpline
210
0.0
220
0.0
230
1.0
 70
     8
 71
     3
 72
    14
 73
    10
 74
     0
 42
0.000000001
 43
0.0000000001
 40
0.0
 40
0.0
 40
0.0
 40
0.0
 40
1.0
 40
2.0
 40
3.0
 40
4.0
 40
5.0
 40
6.0
 40
7.0
 40
7.0
 40
7.0
 40
7.0
 10
-923.3242172215623
 20
-693.2597161889352
 30
4.185207900610024
 10
-924.7526297925091
 20
-692.1889656885849
 30
4.185207900610024
 10
-927.1740802196426
 20
-689.7927084631475
 30
4.185207900610024
 10
-929.6399292801069
 20
-685.3090302070182
 30
4.185207900610024
 10
-930.0302685648093
 20
-680.023236698657
 30
4.185207900610024
 10
-926.7794561257412
 20
-675.6947574767772
 30
4.185207900610024
 10
-921.615164477251
 20
-674.5462744905346
 30
4.185207900610024
 10
-916.6034369311123
 20
-675.5695685924283
 30
4.185207900610024
 10
-913.5927846908465
 20
-677.1635566543157
 30
4.185207900610024
 10
-912.2277942990594
 20
-678.1543436755021
 30
4.185207900610024
  0
SPLINE
  5
3EF
330
1F
100
AcDbEntity
  8
Default
100
AcDbSpline
210
0.0
220
0.0
230
1.0
 70
    12
 71
     2
 72
     6
 73
     3
 74
     0
 42
0.000000001
 43
0.0000000001
 40
-1.102413928352738
 40
-1.102413928352738
 40
-1.102413928352738
 40
0.0
 40
0.0
 40
0.0
 10
-900.8488159308138
 20
-709.9724401313821
 30
4.185207900610024
 41
0.9999999993925147
 10
-912.0860517274746
 20
-701.6163167514378
 30
4.185207900610024
 41
0.9999999996616539
 10
-923.3242172215623
 20
-693.2597161889352
 30
4.185207900610024
 41
1.0
  0
SPLINE
  5
3F0
330
1F
100
AcDbEntity
  8
Default
100
AcDbSpline
210
0.0
220
0.0
230
1.0
 70
    12
 71
     2
 72
     6
 73
     3
 74
     0
 42
0.000000001
 43
0.0000000001
 40
0.0
 40
0.0
 40
0.0
 40
5.654573080352872
 40
5.654573080352872
 40
5.654573080352872
 10
-893.1329202930369
 20
-1229.294005798018
 30
4.185207900610024
 41
1.0
 10
-834.8428446319912
 20
-1271.451409071485
 30
4.185207900610024
 41
0.9967681786255456
 10
-770.5542821995654
 20
-1303.729648389732
 30
4.185207900610024
 41
1.0
  0
SPLINE
  5
3F1
330
1F
100
AcDbEntity
  8
Default
100
AcDbSpline
210
0.0
220
0.0
230
1.0
 70
    12
 71
     2
 72
     6
 73
     3
 74
     0
 42
0.000000001
 43
0.0000000001
 40
-5.654573080352872
 40
-5.654573080352872
 40
-5.654573080352872
 40
0.0
 40
0.0
 40
0.0
 10
-1001.804305542723
 20
-1135.716671828696
 30
4.185207900610024
 41
1.0
 10
-951.2396173690149
 20
-1186.884203555463
 30
4.185207900610024
 41
0.9967681786255456
 10
-893.1329202930369
 20
-1229.294005798018
 30
4.185207900610024
 41
1.0
  0
SPLINE
  5
3F2
330
1F
100
AcDbEntity
  8
Default
100
AcDbSpline
210
0.0
220
0.0
230
1.0
 70
    12
 71
     2
 72
     6
 73
     3
 74
     0
 42
0.000000001
 43
0.0000000001
 40
0.0
 40
0.0
 40
0.0
 40
0.443505275079806
 40
0.443505275079806
 40
0.443505275079806
 10
-1047.210338547347
 20
-1061.740033863793
 30
4.185207900610024
 41
1.0
 10
-1042.59037073704
 20
-1058.145428444621
 30
4.185207900610024
 41
0.9799943751373794
 10
-1037.075008021234
 20
-1056.680395651357
 30
4.185207900610024
 41
1.0
  0
SPLINE
  5
3F3
330
1F
100
AcDbEntity
  8
Default
100
AcDbSpline
210
0.0
220
0.0
230
1.0
 70
     8
 71
     3
 72
    12
 73
     8
 74
     0
 42
0.000000001
 43
0.0000000001
 40
0.0
 40
0.0
 40
0.0
 40
0.0
 40
0.8495817757806477
 40
1.391422022197968
 40
2.191064820612614
 40
2.689385262996221
 40
3.111933853859593
 40
3.111933853859593
 40
3.111933853859593
 40
3.111933853859593
 10
-1012.293864436247
 20
-1125.169684329186
 30
4.185207900610024
 10
-1017.293453903628
 20
-1119.965794331204
 30
4.185207900610024
 10
-1025.624575538051
 20
-1111.717389320332
 30
4.185207900610024
 10
-1038.089653090107
 20
-1097.909095495277
 30
4.185207900610024
 10
-1047.838450491366
 20
-1085.818307038628
 30
4.185207900610024
 10
-1053.671694739402
 20
-1072.013438015815
 30
4.185207900610024
 10
-1050.175278620861
 20
-1063.931143476056
 30
4.185207900610024
 10
-1047.210338547347
 20
-1061.740033863793
 30
4.185207900610024
  0
SPLINE
  5
3F4
330
1F
100
AcDbEntity
  8
Default
100
AcDbSpline
210
0.0
220
0.0
230
1.0
 70
    12
 71
     2
 72
     6
 73
     3
 74
     0
 42
0.000000001
 43
0.0000000001
 40
-6.233889429224446
 40
-6.233889429224446
 40
-6.233889429224446
 40
0.0
 40
0.0
 40
0.0
 10
-892.1243832972148
 20
-1227.905873710843
 30
4.185207900610024
 41
1.0
 10
-956.3733805025789
 20
-1181.408342574251
 30
4.185207900610024
 41
0.996730330589404
 10
-1012.293864436247
 20
-1125.169684329186
 30
4.185207900610024
 41
1.0
  0
SPLINE
  5
3F5
330
1F
100
AcDbEntity
  8
Default
100
AcDbSpline
210
0.0
220
0.0
230
1.0
 70
    12
 71
     2
 72
     6
 73
     3
 74
     0
 42
0.000000001
 43
0.0000000001
 40
0.0
 40
0.0
 40
0.0
 40
6.233889429224446
 40
6.233889429224446
 40
6.233889429224446
 10
-757.2830006625764
 20
-1310.44592196414
 30
4.185207900610024
 41
0.9999999519924591
 10
-828.0490432567894
 20
-1274.641429620183
 30
4.185207900610024
 41
0.9967303545933507
 10
-892.1243832972148
 20
-1227.905873710843
 30
4.185207900610024
 41
1.0
  0
SPLINE
  5
3F6
330
1F
100
AcDbEntity
  8
Default
100
AcDbSpline
210
0.0
220
0.0
230
1.0
 70
     8
 71
     3
 72
    12
 73
     8
 74
     0
 42
0.000000001
 43
0.0000000001
 40
-3.111933853859593
 40
-3.111933853859593
 40
-3.111933853859593
 40
-3.111933853859593
 40
-2.689379093202719
 40
-2.191051374651839
 40
-1.391396900347014
 40
-0.8495487423131249
 40
0.0
 40
0.0
 40
0.0
 40
0.0
 10
-686.1689859904564
 20
-1324.05193086495
 30
4.185207900610024
 10
-687.3366381950975
 20
-1327.548846549019
 30
4.185207900610024
 10
-693.9429050837166
 20
-1333.371702248566
 30
4.185207900610024
 10
-708.8746873294472
 20
-1332.089896428499
 30
4.185207900610024
 10
-723.3862545499959
 20
-1326.554498242488
 30
4.185207900610024
 10
-740.3702909521009
 20
-1318.966659824113
 30
4.185207900610024
 10
-750.7891201825555
 20
-1313.592383285801
 30
4.185207900610024
 10
-757.2830006625761
 20
-1310.44592196414
 30
4.185207900610024
  0
SPLINE
  5
3F7
330
1F
100
AcDbEntity
  8
Default
100
AcDbSpline
210
0.0
220
0.0
230
1.0
 70
    12
 71
     2
 72
     6
 73
     3
 74
     0
 42
0.000000001
 43
0.0000000001
 40
-0.443505275079806
 40
-0.443505275079806
 40
-0.443505275079806
 40
0.0
 40
0.0
 40
0.0
 10
-684.4889734745992
 20
-1312.849144530254
 30
4.185207900610024
 41
1.0
 10
-684.1779616498934
 20
-1318.547286211288
 30
4.185207900610024
 41
0.9799943751373794
 10
-686.1689859904564
 20
-1324.05193086495
 30
4.185207900610024
 41
1.0
  0
SPLINE
  5
3F8
330
1F
100
AcDbEntity
  8
Default
100
AcDbSpline
210
0.0
220
0.0
230
1.0
 70
     8
 71
     3
 72
    19
 73
    15
 74
     0
 42
0.000000001
 43
0.0000000001
 40
0.0
 40
0.0
 40
0.0
 40
0.0
 40
1.0
 40
2.0
 40
3.0
 40
4.0
 40
5.0
 40
6.0
 40
7.0
 40
8.0
 40
9.0
 40
10.0
 40
11.0
 40
12.0
 40
12.0
 40
12.0
 40
12.0
 10
-884.2496044852531
 20
-1217.067170526348
 30
4.185207900610024
 10
-879.1282072540779
 20
-1220.787073333054
 30
4.185207900610024
 10
-868.8454385070539
 20
-1228.171946036163
 30
4.185207900610024
 10
-853.2827290616452
 20
-1239.053896949891
 30
4.185207900610024
 10
-837.56374961038
 20
-1249.709097225376
 30
4.185207900610024
 10
-821.6720336675598
 20
-1260.105269883729
 30
4.185207900610024
 10
-805.5926891774142
 20
-1270.20875675015
 30
4.185207900610024
 10
-789.3120986416517
 20
-1279.98643100817
 30
4.185207900610024
 10
-772.8176118567954
 20
-1289.393993372595
 30
4.185207900610024
 10
-756.0988959081388
 20
-1298.417111145827
 30
4.185207900610024
 10
-739.1447354212524
 20
-1306.917319447025
 30
4.185207900610024
 10
-721.9532581490432
 20
-1315.199995001578
 30
4.185207900610024
 10
-704.6093044935746
 20
-1322.134388539367
 30
4.185207900610024
 10
-691.8510740305229
 20
-1326.378200892725
 30
4.185207900610024
 10
-686.1160178653115
 20
-1323.917940558974
 30
4.185207900610024
  0
SPLINE
  5
3F9
330
1F
100
AcDbEntity
  8
Default
100
AcDbSpline
210
0.0
220
0.0
230
1.0
 70
     8
 71
     3
 72
    19
 73
    15
 74
     0
 42
0.000000001
 43
0.0000000001
 40
-12.0
 40
-12.0
 40
-12.0
 40
-12.0
 40
-11.0
 40
-10.0
 40
-9.0
 40
-8.0
 40
-7.0
 40
-6.0
 40
-5.0
 40
-4.0
 40
-3.0
 40
-2.0
 40
-1.0
 40
0.0
 40
0.0
 40
0.0
 40
0.0
 10
-1047.097371017958
 20
-1061.649635676653
 30
4.185207900610024
 10
-1047.66498782141
 20
-1067.864260467612
 30
4.185207900610024
 10
-1039.686372397579
 20
-1078.686648547767
 30
4.185207900610024
 10
-1027.73179580772
 20
-1093.038883241261
 30
4.185207900610024
 10
-1014.54204461368
 20
-1106.829462220485
 30
4.185207900610024
 10
-1001.218742403151
 20
-1120.327118209054
 30
4.185207900610024
 10
-987.470880095358
 20
-1133.439265221937
 30
4.185207900610024
 10
-973.4266798762046
 20
-1146.219357715369
 30
4.185207900610024
 10
-959.0965799048939
 20
-1158.681651922349
 30
4.185207900610024
 10
-944.5188021774173
 20
-1170.851868133288
 30
4.185207900610024
 10
-929.7206441300497
 20
-1182.753194107931
 30
4.185207900610024
 10
-914.7295146909485
 20
-1194.410193980974
 30
4.185207900610024
 10
-899.5710226672937
 20
-1205.848502445941
 30
4.185207900610024
 10
-889.3700410689328
 20
-1213.345945501798
 30
4.185207900610024
 10
-884.2496044852531
 20
-1217.067170526348
 30
4.185207900610024
  0
SPLINE
  5
3FA
330
1F
100
AcDbEntity
  8
Default
100
AcDbSpline
210
0.0
220
0.0
230
1.0
 70
     8
 71
     3
 72
    22
 73
    18
 74
     0
 42
0.000000001
 43
0.0000000001
 40
0.0
 40
0.0
 40
0.0
 40
0.0
 40
0.2588469591229587
 40
0.6477254461891114
 40
1.024641027840087
 40
1.817983982162573
 40
2.582167143679937
 40
4.062052734317923
 40
7.850412104674
 40
9.497260537102542
 40
10.543391206404
 40
10.8432833113025
 40
12.15829953678302
 40
13.34949093133962
 40
14.77372714428499
 40
17.25709974516987
 40
21.82793658798906
 40
21.82793658798906
 40
21.82793658798906
 40
21.82793658798906
 10
-999.863815976481
 20
-1041.929613835338
 30
4.185207900610024
 10
-998.4081487218174
 20
-1040.271797190364
 30
4.185207900610024
 10
-996.0033483289999
 20
-1035.288815427999
 30
4.185207900610024
 10
-993.807169117591
 20
-1026.887789243136
 30
4.185207900610024
 10
-991.4156044963966
 20
-1013.90703250872
 30
4.185207900610024
 10
-989.2843970668982
 20
-997.6707910173587
 30
4.185207900610024
 10
-984.806368483662
 20
-972.3538168288989
 30
4.185207900610024
 10
-975.1059387506211
 20
-922.2299170807691
 30
4.185207900610024
 10
-961.345488998312
 20
-865.3208962986139
 30
4.185207900610024
 10
-947.3021107580208
 20
-812.3075834798553
 30
4.185207900610024
 10
-940.5518118048789
 20
-787.8934782002988
 30
4.185207900610024
 10
-934.285293839896
 20
-766.2500535727327
 30
4.185207900610024
 10
-924.1716554436562
 20
-744.6190207808967
 30
4.185207900610024
 10
-906.0587579036175
 20
-716.714971822832
 30
4.185207900610024
 10
-880.2986850448341
 20
-682.0418629489652
 30
4.185207900610024
 10
-830.9616655115426
 20
-629.6657240550457
 30
4.185207900610024
 10
-779.5193233989248
 20
-597.4652039015361
 30
4.185207900610024
 10
-742.9602739629923
 20
-584.5590119554448
 30
4.185207900610024
  0
SPLINE
  5
3FB
330
1F
100
AcDbEntity
  8
Default
100
AcDbSpline
210
0.0
220
0.0
230
1.0
 70
    12
 71
     2
 72
     6
 73
     3
 74
     0
 42
0.000000001
 43
0.0000000001
 40
0.0
 40
0.0
 40
0.0
 40
0.0586712320260919
 40
0.0586712320260919
 40
0.0586712320260919
 10
-424.7270139849186
 20
-584.5865837389749
 30
4.185207900610024
 41
1.0
 10
-424.1219248362972
 20
-585.0275712828102
 30
4.185207900610024
 41
0.9921343149382712
 10
-423.6453339464365
 20
-585.6050347148117
 30
4.185207900610024
 41
1.0
  0
SPLINE
  5
3FC
330
1F
100
AcDbEntity
  8
Default
100
AcDbSpline
210
0.0
220
0.0
230
1.0
 70
    24
 71
     2
 72
     6
 73
     3
 74
     0
 42
0.000000001
 43
0.0000000001
 40
0.0
 40
0.0
 40
0.0
 40
0.0114467396849787
 40
0.0114467396849787
 40
0.0114467396849787
 10
-424.7270139849186
 20
-584.5865837389749
 30
4.185207900610024
 10
-424.6416029623058
 20
-584.4690254402157
 30
4.185207900610024
 10
-424.556191939693
 20
-584.3514671414565
 30
4.185207900610024
  0
SPLINE
  5
3FD
330
1F
100
AcDbEntity
  8
Default
100
AcDbSpline
210
0.0
220
0.0
230
1.0
 70
    12
 71
     2
 72
     6
 73
     3
 74
     0
 42
0.000000001
 43
0.0000000001
 40
0.0
 40
0.0
 40
0.0
 40
0.0587632096241838
 40
0.0587632096241838
 40
0.0587632096241838
 10
-426.0320603661719
 20
-583.8716971826888
 30
4.185207900610024
 41
1.0
 10
-425.33437676623
 20
-584.146683316709
 30
4.185207900610024
 41
0.9921107855315545
 10
-424.7270259326411
 20
-584.5865750584708
 30
4.185207900610024
 41
1.0
  0
SPLINE
  5
3FE
330
1F
100
AcDbEntity
  8
Default
100
AcDbSpline
210
0.0
220
0.0
230
1.0
 70
    12
 71
     2
 72
     6
 73
     3
 74
     0
 42
0.000000001
 43
0.0000000001
 40
-0.1297405451143296
 40
-0.1297405451143296
 40
-0.1297405451143296
 40
0.0
 40
0.0
 40
0.0
 10
-927.3262503654782
 20
-690.2382031930324
 30
4.185207900610024
 41
0.9999960316975588
 10
-926.0112979225045
 20
-691.2298979025386
 30
4.185207900610024
 41
0.999996865512317
 10
-924.6993599251448
 20
-692.2255770753797
 30
4.185207900610024
 41
1.0
  0
ARC
  5
3FF
330
1F
100
AcDbEntity
  8
Default
100
AcDbCircle
 10
-934.9699243112771
 20
-700.373447065944
 30
4.185207900610024
 40
12.69444444444444
100
AcDbArc
 50
52.97757980795588
 51
65.71796787816665
  0
SPLINE
  5
400
330
1F
100
AcDbEntity
  8
Default
100
AcDbSpline
210
0.0
220
0.0
230
1.0
 70
     8
 71
     3
 72
    14
 73
    10
 74
     0
 42
0.000000001
 43
0.0000000001
 40
-7.0
 40
-7.0
 40
-7.0
 40
-7.0
 40
-6.0
 40
-5.0
 40
-4.0
 40
-3.0
 40
-2.0
 40
-1.0
 40
-0.2482205602640466
 40
-0.2482205602640466
 40
-0.2482205602640466
 40
-0.2482205602640466
 10
-943.7424960527502
 20
-666.8376912047709
 30
4.185207900610024
 10
-944.5988276947796
 20
-667.9944093132421
 30
4.185207900610024
 10
-945.2818509048015
 20
-670.8877587123456
 30
4.185207900610024
 10
-944.2350595610736
 20
-675.1036588570531
 30
4.185207900610024
 10
-942.1265269669452
 20
-678.8476912862944
 30
4.185207900610024
 10
-939.3829329634675
 20
-682.1443198135114
 30
4.185207900610024
 10
-936.2056329963884
 20
-685.0180981369666
 30
4.185207900610024
 10
-932.9547654697501
 20
-687.2296089891168
 30
4.185207900610024
 10
-930.7262317192892
 20
-688.3614566847533
 30
4.185207900610024
 10
-929.7496066650683
 20
-688.8020511507678
 30
4.185207900610024
  0
SPLINE
  5
401
330
1F
100
AcDbEntity
  8
Default
100
AcDbSpline
210
0.0
220
0.0
230
1.0
 70
     8
 71
     3
 72
    14
 73
    10
 74
     0
 42
0.000000001
 43
0.0000000001
 40
0.2772630823298201
 40
0.2772630823298201
 40
0.2772630823298201
 40
0.2772630823298201
 40
1.0
 40
2.0
 40
3.0
 40
4.0
 40
5.0
 40
6.0
 40
7.0
 40
7.0
 40
7.0
 40
7.0
 10
-918.612812109017
 20
-673.26664150541
 30
4.185207900610024
 10
-919.3085173154557
 20
-672.507070620809
 30
4.185207900610024
 10
-921.0478381538475
 20
-670.7705654399252
 30
4.185207900610024
 10
-924.1228828022949
 20
-668.3876192202469
 30
4.185207900610024
 10
-927.8378480892596
 20
-666.2538737223467
 30
4.185207900610024
 10
-931.8209453046135
 20
-664.6632750063219
 30
4.185207900610024
 10
-936.033304148443
 20
-663.8149109909816
 30
4.185207900610024
 10
-940.3663397678936
 20
-664.122138053631
 30
4.185207900610024
 10
-942.90701278838
 20
-665.6658258632901
 30
4.185207900610024
 10
-943.7424960527502
 20
-666.8376912047709
 30
4.185207900610024
  0
ARC
  5
402
330
1F
100
AcDbEntity
  8
Default
100
AcDbCircle
 10
-909.2515630422795
 20
-664.6924980692645
 30
4.185207900610024
 40
12.69444444444444
100
AcDbArc
 50
222.4871521735349
 51
234.9422552251325
  0
SPLINE
  5
403
330
1F
100
AcDbEntity
  8
Default
100
AcDbSpline
210
0.0
220
0.0
230
1.0
 70
    12
 71
     2
 72
     6
 73
     3
 74
     0
 42
0.000000001
 43
0.0000000001
 40
0.0
 40
0.0
 40
0.0
 40
0.1369528492222414
 40
0.1369528492222414
 40
0.1369528492222414
 10
-913.7200025298291
 20
-677.1137880580758
 30
4.185207900610024
 41
1.0
 10
-915.1475137924997
 20
-676.1215026644606
 30
4.185207900610024
 41
0.9999966913238282
 10
-916.5432737173333
 20
-675.0838346139249
 30
4.185207900610024
 41
0.9999959461296658
  0
SPLINE
  5
404
330
1F
100
AcDbEntity
  8
Default
100
AcDbSpline
210
0.0
220
0.0
230
1.0
 70
     8
 71
     3
 72
    12
 73
     8
 74
     0
 42
0.000000001
 43
0.0000000001
 40
-1.014583801502342
 40
-1.014583801502342
 40
-1.014583801502342
 40
-1.014583801502342
 40
-0.8249401141264362
 40
-0.5900965017365678
 40
-0.3037660471064116
 40
-0.1510110321465192
 40
0.0
 40
0.0
 40
0.0
 40
0.0
 10
-944.0535081880781
 20
-666.6117120784861
 30
4.185207900610024
 10
-945.0395746568972
 20
-667.9147731391794
 30
4.185207900610024
 10
-945.706702647824
 20
-671.6295813213878
 30
4.185207900610024
 10
-943.5920079679007
 20
-677.3947061699247
 30
4.185207900610024
 10
-940.0134789993629
 20
-681.8917986076353
 30
4.185207900610024
 10
-936.2352890717044
 20
-685.1769643753848
 30
4.185207900610024
 10
-934.0974331463367
 20
-686.6100200119197
 30
4.185207900610024
 10
-932.9945955154341
 20
-687.2569956323435
 30
4.185207900610024
  0
SPLINE
  5
405
330
1F
100
AcDbEntity
  8
Default
100
AcDbSpline
210
0.0
220
0.0
230
1.0
 70
     8
 71
     3
 72
    12
 73
     8
 74
     0
 42
0.000000001
 43
0.0000000001
 40
0.0
 40
0.0
 40
0.0
 40
0.0
 40
0.1510110321465192
 40
0.3037660471064116
 40
0.5900965017365678
 40
0.8249401141264362
 40
1.014583801502342
 40
1.014583801502342
 40
1.014583801502342
 40
1.014583801502342
 10
-921.0012847782657
 20
-670.7496195671122
 30
4.185207900610024
 10
-921.9573907279391
 20
-669.9006851134839
 30
4.185207900610024
 10
-923.9809414417427
 20
-668.3103018503365
 30
4.185207900610024
 10
-928.2728446478934
 20
-665.7322017514099
 30
4.185207900610024
 10
-933.6556599813009
 20
-663.7184964456589
 30
4.185207900610024
 10
-939.7920961297677
 20
-663.488823843234
 30
4.185207900610024
 10
-943.1189347716237
 20
-665.2712391253532
 30
4.185207900610024
 10
-944.0535081880781
 20
-666.6117120784861
 30
4.185207900610024
  0
SPLINE
  5
406
330
1F
100
AcDbEntity
  8
Default
100
AcDbSpline
210
0.0
220
0.0
230
1.0
 70
    12
 71
     2
 72
     6
 73
     3
 74
     0
 42
0.000000001
 43
0.0000000001
 40
0.0
 40
0.0
 40
0.0
 40
0.0853474550214741
 40
0.0853474550214741
 40
0.0853474550214741
 10
-933.7586328159819
 20
-686.7948021020172
 30
4.185207900610024
 41
1.0
 10
-934.6779372496667
 20
-686.2206394026533
 30
4.185207900610024
 41
0.9993970637774639
 10
-935.555178900827
 20
-685.5840622018344
 30
4.185207900610024
 41
1.0
  0
SPLINE
  5
407
330
1F
100
AcDbEntity
  8
Default
100
AcDbSpline
210
0.0
220
0.0
230
1.0
 70
    12
 71
     2
 72
     6
 73
     3
 74
     0
 42
0.000000001
 43
0.0000000001
 40
0.0
 40
0.0
 40
0.0
 40
0.0853474550214741
 40
0.0853474550214741
 40
0.0853474550214741
 10
-444.7228230339421
 20
-594.6236887193879
 30
4.185207900610024
 41
1.0
 10
-444.1486603345778
 20
-593.7043842857032
 30
4.185207900610024
 41
0.9993970637774639
 10
-443.5120831337597
 20
-592.8271426345422
 30
4.185207900610024
 41
1.0
  0
SPLINE
  5
408
330
1F
100
AcDbEntity
  8
Default
100
AcDbSpline
210
0.0
220
0.0
230
1.0
 70
    12
 71
     2
 72
     6
 73
     3
 74
     0
 42
0.000000001
 43
0.0000000001
 40
-0.1297405451143296
 40
-0.1297405451143296
 40
-0.1297405451143296
 40
0.0
 40
0.0
 40
0.0
 10
-448.1662241249573
 20
-601.0560711698911
 30
4.185207900610024
 41
0.9999960316975588
 10
-449.1579188344636
 20
-602.371023612865
 30
4.185207900610024
 41
0.999996865512317
 10
-450.1535980073049
 20
-603.6829616102247
 30
4.185207900610024
 41
1.0
  0
ARC
  5
409
330
1F
100
AcDbEntity
  8
Default
100
AcDbCircle
 10
-458.3014679978693
 20
-593.4123972240922
 30
4.185207900610024
 40
12.69444444444444
100
AcDbArc
 50
322.9775798079558
 51
335.7179678781667
  0
SPLINE
  5
40A
330
1F
100
AcDbEntity
  8
Default
100
AcDbSpline
210
0.0
220
0.0
230
1.0
 70
     8
 71
     3
 72
    14
 73
    10
 74
     0
 42
0.000000001
 43
0.0000000001
 40
-7.0
 40
-7.0
 40
-7.0
 40
-7.0
 40
-6.0
 40
-5.0
 40
-4.0
 40
-3.0
 40
-2.0
 40
-1.0
 40
-0.2482205602640466
 40
-0.2482205602640466
 40
-0.2482205602640466
 40
-0.2482205602640466
 10
-424.7657121366956
 20
-584.6398254826193
 30
4.185207900610024
 10
-425.9224302451673
 20
-583.7834938405895
 30
4.185207900610024
 10
-428.8157796442702
 20
-583.1004706305683
 30
4.185207900610024
 10
-433.031679788978
 20
-584.1472619742956
 30
4.185207900610024
 10
-436.7757122182192
 20
-586.2557945684243
 30
4.185207900610024
 10
-440.0723407454363
 20
-588.9993885719023
 30
4.185207900610024
 10
-442.9461190688917
 20
-592.176688538981
 30
4.185207900610024
 10
-445.1576299210416
 20
-595.4275560656193
 30
4.185207900610024
 10
-446.2894776166779
 20
-597.65608981608
 30
4.185207900610024
 10
-446.7300720826925
 20
-598.6327148703011
 30
4.185207900610024
  0
SPLINE
  5
40B
330
1F
100
AcDbEntity
  8
Default
100
AcDbSpline
210
0.0
220
0.0
230
1.0
 70
     8
 71
     3
 72
    14
 73
    10
 74
     0
 42
0.000000001
 43
0.0000000001
 40
0.2772630823298201
 40
0.2772630823298201
 40
0.2772630823298201
 40
0.2772630823298201
 40
1.0
 40
2.0
 40
3.0
 40
4.0
 40
5.0
 40
6.0
 40
7.0
 40
7.0
 40
7.0
 40
7.0
 10
-431.1946624373351
 20
-609.7695094263523
 30
4.185207900610024
 10
-430.4350915527337
 20
-609.0738042199141
 30
4.185207900610024
 10
-428.6985863718501
 20
-607.334483381522
 30
4.185207900610024
 10
-426.3156401521721
 20
-604.2594387330743
 30
4.185207900610024
 10
-424.1818946542714
 20
-600.54447344611
 30
4.185207900610024
 10
-422.5912959382468
 20
-596.5613762307558
 30
4.185207900610024
 10
-421.7429319229064
 20
-592.3490173869263
 30
4.185207900610024
 10
-422.0501589855557
 20
-588.0159817674762
 30
4.185207900610024
 10
-423.5938467952147
 20
-585.4753087469894
 30
4.185207900610024
 10
-424.7657121366956
 20
-584.6398254826193
 30
4.185207900610024
  0
ARC
  5
40C
330
1F
100
AcDbEntity
  8
Default
100
AcDbCircle
 10
-422.6205190011897
 20
-619.1307584930897
 30
4.185207900610024
 40
12.69444444444444
100
AcDbArc
 50
132.4871521735349
 51
144.9422552251318
  0
SPLINE
  5
40D
330
1F
100
AcDbEntity
  8
Default
100
AcDbSpline
210
0.0
220
0.0
230
1.0
 70
    12
 71
     2
 72
     6
 73
     3
 74
     0
 42
0.000000001
 43
0.0000000001
 40
0.0
 40
0.0
 40
0.0
 40
0.1369528492222414
 40
0.1369528492222414
 40
0.1369528492222414
 10
-435.041808990001
 20
-614.6623190055403
 30
4.185207900610024
 41
1.0
 10
-434.0495235963852
 20
-613.2348077428692
 30
4.185207900610024
 41
0.9999966913238282
 10
-433.0118555458498
 20
-611.8390478180364
 30
4.185207900610024
 41
0.9999959461296658
  0
SPLINE
  5
40E
330
1F
100
AcDbEntity
  8
Default
100
AcDbSpline
210
0.0
220
0.0
230
1.0
 70
     8
 71
     3
 72
    12
 73
     8
 74
     0
 42
0.000000001
 43
0.0000000001
 40
-1.014583801502342
 40
-1.014583801502342
 40
-1.014583801502342
 40
-1.014583801502342
 40
-0.8249401141264362
 40
-0.5900965017365678
 40
-0.3037660471064116
 40
-0.1510110321465192
 40
0.0
 40
0.0
 40
0.0
 40
0.0
 10
-424.5397330104114
 20
-584.3288133472912
 30
4.185207900610024
 10
-425.8427940711043
 20
-583.3427468784724
 30
4.185207900610024
 10
-429.5576022533123
 20
-582.6756188875448
 30
4.185207900610024
 10
-435.3227271018496
 20
-584.7903135674689
 30
4.185207900610024
 10
-439.8198195395602
 20
-588.3688425360067
 30
4.185207900610024
 10
-443.1049853073099
 20
-592.147032463665
 30
4.185207900610024
 10
-444.5380409438447
 20
-594.2848883890326
 30
4.185207900610024
 10
-445.1850165642682
 20
-595.3877260199353
 30
4.185207900610024
  0
SPLINE
  5
40F
330
1F
100
AcDbEntity
  8
Default
100
AcDbSpline
210
0.0
220
0.0
230
1.0
 70
     8
 71
     3
 72
    12
 73
     8
 74
     0
 42
0.000000001
 43
0.0000000001
 40
0.0
 40
0.0
 40
0.0
 40
0.0
 40
0.1510110321465192
 40
0.3037660471064116
 40
0.5900965017365678
 40
0.8249401141264362
 40
1.014583801502342
 40
1.014583801502342
 40
1.014583801502342
 40
1.014583801502342
 10
-428.6776404990368
 20
-607.3810367571037
 30
4.185207900610024
 10
-427.8287060454085
 20
-606.4249308074307
 30
4.185207900610024
 10
-426.2383227822613
 20
-604.4013800936271
 30
4.185207900610024
 10
-423.6602226833347
 20
-600.1094768874763
 30
4.185207900610024
 10
-421.6465173775834
 20
-594.7266615540687
 30
4.185207900610024
 10
-421.4168447751587
 20
-588.5902254056011
 30
4.185207900610024
 10
-423.1992600572785
 20
-585.2633867637456
 30
4.185207900610024
 10
-424.5397330104114
 20
-584.3288133472912
 30
4.185207900610024
  0
CIRCLE
  5
410
330
1F
100
AcDbEntity
  8
Default
100
AcDbCircle
 10
798.2859782608086
 20
-490.9905463178187
 30
4.185207900610024
 40
199.9375
  0
SPLINE
  5
411
330
1F
100
AcDbEntity
  8
Default
100
AcDbSpline
210
0.0
220
0.0
230
1.0
 70
     8
 71
     3
 72
    21
 73
    17
 74
     0
 42
0.000000001
 43
0.0000000001
 40
0.0
 40
0.0
 40
0.0
 40
0.0
 40
0.2588469591229587
 40
0.6477254461891114
 40
1.024641027840087
 40
1.817983982162573
 40
2.582167143679937
 40
4.062052734317923
 40
7.850412104674
 40
9.497260537102542
 40
10.543391206404
 40
10.8432833113025
 40
12.15829953678302
 40
13.34949093133962
 40
14.77372714428499
 40
15.46884750610318
 40
15.46884750610318
 40
15.46884750610318
 40
15.46884750610318
 10
999.8638165073487
 20
-1041.92961344964
 30
4.185207900610024
 10
998.4081492526851
 20
-1040.271796804666
 30
4.185207900610024
 10
996.0033488598671
 20
-1035.288815042301
 30
4.185207900610024
 10
993.8071696484584
 20
-1026.887788857438
 30
4.185207900610024
 10
991.4156050272641
 20
-1013.907032123022
 30
4.185207900610024
 10
989.2843975977655
 20
-997.6707906316608
 30
4.185207900610024
 10
984.8063690145297
 20
-972.3538164432012
 30
4.185207900610024
 10
975.1059392814887
 20
-922.2299166950714
 30
4.185207900610024
 10
961.34548952918
 20
-865.3208959129159
 30
4.185207900610024
 10
947.3021112888888
 20
-812.3075830941576
 30
4.185207900610024
 10
940.5518123357465
 20
-787.8934778146009
 30
4.185207900610024
 10
934.2852943707638
 20
-766.2500531870347
 30
4.185207900610024
 10
924.171655974524
 20
-744.6190203951988
 30
4.185207900610024
 10
906.0587584344851
 20
-716.7149714371341
 30
4.185207900610024
 10
889.3332635323885
 20
-694.2024223116382
 30
4.185207900610024
 10
877.7443262421376
 20
-680.5060271728173
 30
4.185207900610024
 10
873.8467742518881
 20
-676.1001625333054
 30
4.185207900610024
  0
SPLINE
  5
412
330
1F
100
AcDbEntity
  8
Default
100
AcDbSpline
210
0.0
220
0.0
230
1.0
 70
     8
 71
     3
 72
    10
 73
     6
 74
     0
 42
0.000000001
 43
0.0000000001
 40
-6.708248473681532
 40
-6.708248473681532
 40
-6.708248473681532
 40
-6.708248473681532
 40
-3.774519558109396
 40
-1.88935509827327
 40
0.0
 40
0.0
 40
0.0
 40
0.0
 10
632.1105202050796
 20
-602.1693259757186
 30
4.185207900610024
 10
607.3252730559357
 20
-600.7740769523373
 30
4.185207900610024
 10
566.2535908606599
 20
-604.7352568003109
 30
4.185207900610024
 10
512.5578999486
 20
-623.9267864802184
 30
4.185207900610024
 10
484.9075187190313
 20
-640.2182736284662
 30
4.185207900610024
 10
471.9717701845059
 20
-649.6145183829157
 30
4.185207900610024
  0
SPLINE
  5
413
330
1F
100
AcDbEntity
  8
Default
100
AcDbSpline
210
0.0
220
0.0
230
1.0
 70
     8
 71
     3
 72
     8
 73
     4
 74
     0
 42
0.000000001
 43
0.0000000001
 40
-14.89017236839833
 40
-14.89017236839833
 40
-14.89017236839833
 40
-14.89017236839833
 40
-14.55234360913006
 40
-14.55234360913006
 40
-14.55234360913006
 40
-14.55234360913006
 10
808.9602918954277
 20
-697.6962181634903
 30
4.185207900610024
 10
807.2801894515922
 20
-695.3824518490144
 30
4.185207900610024
 10
805.556181237109
 20
-693.100712497901
 30
4.185207900610024
 10
803.789797897738
 20
-690.8522782117817
 30
4.185207900610024
  0
SPLINE
  5
414
330
1F
100
AcDbEntity
  8
Default
100
AcDbSpline
210
0.0
220
0.0
230
1.0
 70
     8
 71
     3
 72
    34
 73
    30
 74
     0
 42
0.000000001
 43
0.0000000001
 40
49.54977648871967
 40
49.54977648871967
 40
49.54977648871967
 40
49.54977648871967
 40
50.0
 40
51.0
 40
52.0
 40
53.0
 40
53.0
 40
53.0
 40
54.0
 40
55.0
 40
56.0
 40
57.0
 40
58.0
 40
59.0
 40
60.0
 40
60.0
 40
60.0
 40
61.0
 40
62.0
 40
63.0
 40
64.0
 40
65.0
 40
66.0
 40
67.0
 40
68.0
 40
69.0
 40
70.0
 40
71.0
 40
72.0
 40
72.0
 40
72.0
 40
72.0
 10
866.8637330467968
 20
-678.7992134627698
 30
4.185207900610024
 10
870.0814642319739
 20
-682.6705601825691
 30
4.185207900610024
 10
880.2522594041272
 20
-695.3007226945998
 30
4.185207900610024
 10
896.4024859736843
 20
-717.4269258194
 30
4.185207900610024
 10
915.0198789761176
 20
-745.3886224633456
 30
4.185207900610024
 10
924.4411183499066
 20
-765.7670886210383
 30
4.185207900610024
 10
927.9504578553321
 20
-776.3905771804338
 30
4.185207900610024
 10
931.4156422432068
 20
-786.8135013076024
 30
4.185207900610024
 10
938.243622214688
 20
-807.6938097234339
 30
4.185207900610024
 10
947.9600141435364
 20
-839.1818280767312
 30
4.185207900610024
 10
957.0622561071751
 20
-870.8531298007429
 30
4.185207900610024
 10
965.4609941584233
 20
-902.7192093793235
 30
4.185207900610024
 10
973.0367933302677
 20
-934.7903626457728
 30
4.185207900610024
 10
979.7519516082147
 20
-967.0562983999637
 30
4.185207900610024
 10
983.3352964411822
 20
-988.7342338756331
 30
4.185207900610024
 10
984.9696833657887
 20
-999.5955682728437
 30
4.185207900610024
 10
985.3093628276125
 20
-1001.823264373464
 30
4.185207900610024
 10
986.0003239451028
 20
-1006.276987483974
 30
4.185207900610024
 10
987.1773039161874
 20
-1012.934844712518
 30
4.185207900610024
 10
988.585424753792
 20
-1019.54801234028
 30
4.185207900610024
 10
990.3633526201099
 20
-1026.076831959633
 30
4.185207900610024
 10
992.7132326302201
 20
-1032.417436100888
 30
4.185207900610024
 10
995.9268562549938
 20
-1038.426689607396
 30
4.185207900610024
 10
1000.815315876289
 20
-1043.203130098091
 30
4.185207900610024
 10
1006.80057631758
 20
-1046.42068116641
 30
4.185207900610024
 10
1012.751997894539
 20
-1049.610278736595
 30
4.185207900610024
 10
1018.969420651805
 20
-1052.293191084224
 30
4.185207900610024
 10
1025.39596623571
 20
-1054.403244897589
 30
4.185207900610024
 10
1034.896991418826
 20
-1056.101853710197
 30
4.185207900610024
 10
1037.075008552101
 20
-1056.680395265659
 30
4.185207900610024
  0
SPLINE
  5
415
330
1F
100
AcDbEntity
  8
Default
100
AcDbSpline
210
0.0
220
0.0
230
1.0
 70
     8
 71
     3
 72
    12
 73
     8
 74
     0
 42
0.000000001
 43
0.0000000001
 40
36.00001859054296
 40
36.00001859054296
 40
36.00001859054296
 40
36.00001859054296
 40
37.0
 40
38.0
 40
39.0
 40
40.0
 40
40.99791129719946
 40
40.99791129719946
 40
40.99791129719946
 40
40.99791129719946
 10
462.6761025845655
 20
-636.8190220732742
 30
4.185207900610024
 10
471.7099846394766
 20
-630.2321393194883
 30
4.185207900610024
 10
490.3398505822773
 20
-617.827890351651
 30
4.185207900610024
 10
519.7958510498164
 20
-601.7173483047844
 30
4.185207900610024
 10
550.6115088503577
 20
-588.3744481699449
 30
4.185207900610024
 10
582.5807525270429
 20
-578.1599989372186
 30
4.185207900610024
 10
604.5057013893004
 20
-573.6846303905524
 30
4.185207900610024
 10
615.5521233745403
 20
-572.1283438270821
 30
4.185207900610024
  0
SPLINE
  5
416
330
1F
100
AcDbEntity
  8
Default
100
AcDbSpline
210
0.0
220
0.0
230
1.0
 70
     8
 71
     3
 72
    12
 73
     8
 74
     0
 42
0.000000001
 43
0.0000000001
 40
0.0
 40
0.0
 40
0.0
 40
0.0
 40
1.918305221504867
 40
3.868777778011241
 40
7.624449324857683
 40
11.42846767657462
 40
15.35241906764609
 40
15.35241906764609
 40
15.35241906764609
 40
15.35241906764609
 10
758.2855044904605
 20
-1043.691564084201
 30
4.185207900610024
 10
771.426174239344
 20
-1034.160962819279
 30
4.185207900610024
 10
796.0572249506679
 20
-1012.348612117804
 30
4.185207900610024
 10
835.3417938306277
 20
-960.7693576575684
 30
4.185207900610024
 10
863.3059624752123
 20
-883.502372371908
 30
4.185207900610024
 10
857.4392391016569
 20
-784.5262734446516
 30
4.185207900610024
 10
828.4710823519983
 20
-724.5495950884649
 30
4.185207900610024
 10
808.9602918954277
 20
-697.6962181634903
 30
4.185207900610024
  0
SPLINE
  5
417
330
1F
100
AcDbEntity
  8
Default
100
AcDbSpline
210
0.0
220
0.0
230
1.0
 70
     8
 71
     3
 72
    47
 73
    43
 74
     0
 42
0.000000001
 43
0.0000000001
 40
36.00001859054296
 40
36.00001859054296
 40
36.00001859054296
 40
36.00001859054296
 40
37.0
 40
38.0
 40
39.0
 40
40.0
 40
41.0
 40
42.0
 40
43.0
 40
44.0
 40
45.0
 40
46.0
 40
47.0
 40
48.0
 40
49.0
 40
50.0
 40
51.0
 40
52.0
 40
53.0
 40
53.0
 40
53.0
 40
54.0
 40
55.0
 40
56.0
 40
57.0
 40
58.0
 40
59.0
 40
60.0
 40
60.0
 40
60.0
 40
61.0
 40
62.0
 40
63.0
 40
64.0
 40
65.0
 40
66.0
 40
67.0
 40
68.0
 40
69.0
 40
70.0
 40
71.0
 40
72.0
 40
72.0
 40
72.0
 40
72.0
 10
462.6761025845655
 20
-636.8190220732742
 30
4.185207900610024
 10
453.6199817393588
 20
-643.3752957581642
 30
4.185207900610024
 10
436.0658947494973
 20
-657.2602274272505
 30
4.185207900610024
 10
411.6414540239917
 20
-680.2961173348226
 30
4.185207900610024
 10
389.429039951267
 20
-705.4803665940359
 30
4.185207900610024
 10
369.8218306437099
 20
-732.7474700044343
 30
4.185207900610024
 10
353.2604470022699
 20
-761.9834074256414
 30
4.185207900610024
 10
340.4139982974667
 20
-793.0300470060652
 30
4.185207900610024
 10
331.2690729144291
 20
-825.3687002645495
 30
4.185207900610024
 10
326.4523226127268
 20
-858.6351122594686
 30
4.185207900610024
 10
325.8949003877345
 20
-892.2412503878549
 30
4.185207900610024
 10
329.9674518912798
 20
-925.6298916266096
 30
4.185207900610024
 10
339.0649121303929
 20
-958.003886721787
 30
4.185207900610024
 10
352.0818305342451
 20
-988.9659290003963
 30
4.185207900610024
 10
367.8042667974866
 20
-1018.621513930525
 30
4.185207900610024
 10
385.6555298682368
 20
-1047.048831916272
 30
4.185207900610024
 10
405.3099513311888
 20
-1074.226537423119
 30
4.185207900610024
 10
426.1500143023723
 20
-1100.573369809047
 30
4.185207900610024
 10
442.6197642591713
 20
-1115.830793269087
 30
4.185207900610024
 10
451.6388567331635
 20
-1122.451211978015
 30
4.185207900610024
 10
460.4808457786609
 20
-1128.967658856643
 30
4.185207900610024
 10
478.2292373113505
 20
-1141.913823849935
 30
4.185207900610024
 10
505.1735921214537
 20
-1160.884994499104
 30
4.185207900610024
 10
532.4820425519474
 20
-1179.328711498213
 30
4.185207900610024
 10
560.1931323947974
 20
-1197.163546184395
 30
4.185207900610024
 10
588.353561003883
 20
-1214.279090741458
 30
4.185207900610024
 10
616.9651914294639
 20
-1230.636308267108
 30
4.185207900610024
 10
636.4748187733322
 20
-1240.743122185579
 30
4.185207900610024
 10
646.2995082923726
 20
-1245.653853430701
 30
4.185207900610024
 10
648.3132064588496
 20
-1246.665303749715
 30
4.185207900610024
 10
652.3354301171178
 20
-1248.698722952399
 30
4.185207900610024
 10
658.3037218057829
 20
-1251.87548845319
 30
4.185207900610024
 10
664.1580847025651
 20
-1255.258272135154
 30
4.185207900610024
 10
669.8179512198012
 20
-1258.966698233506
 30
4.185207900610024
 10
675.1220712477237
 20
-1263.160921363885
 30
4.185207900610024
 10
679.8441466395781
 20
-1268.074220510165
 30
4.185207900610024
 10
682.8761943936531
 20
-1274.199423171889
 30
4.185207900610024
 10
684.0867201115713
 20
-1280.886022076683
 30
4.185207900610024
 10
685.2811172570853
 20
-1287.531800203073
 30
4.185207900610024
 10
685.9114292347378
 20
-1294.273986140768
 30
4.185207900610024
 10
685.9322978631191
 20
-1301.038036682985
 30
4.185207900610024
 10
684.6117925974193
 20
-1310.598947584763
 30
4.185207900610024
 10
684.4889740054674
 20
-1312.849144144556
 30
4.185207900610024
  0
SPLINE
  5
418
330
1F
100
AcDbEntity
  8
Default
100
AcDbSpline
210
0.0
220
0.0
230
1.0
 70
     8
 71
     3
 72
    12
 73
     8
 74
     0
 42
0.000000001
 43
0.0000000001
 40
-14.89017236839833
 40
-14.89017236839833
 40
-14.89017236839833
 40
-14.89017236839833
 40
-11.21816917573749
 40
-7.516682162771167
 40
-3.774519558109396
 40
-1.88935509827327
 40
0.0
 40
0.0
 40
0.0
 40
0.0
 10
413.5660572395348
 20
-984.9669449691273
 30
4.185207900610024
 10
395.2908387771879
 20
-959.8274350002071
 30
4.185207900610024
 10
369.0385283271792
 20
-901.7881830887024
 30
4.185207900610024
 10
366.8770401018422
 20
-805.8590689768326
 30
4.185207900610024
 10
395.9561224579175
 20
-730.8522663197489
 30
4.185207900610024
 10
435.0005348187234
 20
-680.2755106071138
 30
4.185207900610024
 10
459.0390975320858
 20
-659.012781753137
 30
4.185207900610024
 10
471.9728234666383
 20
-649.6137531286525
 30
4.185207900610024
  0
SPLINE
  5
419
330
1F
100
AcDbEntity
  8
Default
100
AcDbSpline
210
0.0
220
0.0
230
1.0
 70
     8
 71
     3
 72
    12
 73
     8
 74
     0
 42
0.000000001
 43
0.0000000001
 40
0.0
 40
0.0
 40
0.0
 40
0.0
 40
1.918305221504867
 40
3.868777778011241
 40
7.624449324857683
 40
11.42846767657462
 40
15.35241906764609
 40
15.35241906764609
 40
15.35241906764609
 40
15.35241906764609
 10
758.2865560796949
 20
-1043.6908000599
 30
4.185207900610024
 10
745.1617253726058
 20
-1053.243201895586
 30
4.185207900610024
 10
716.8055338431429
 20
-1069.928336123765
 30
4.185207900610024
 10
655.6111483824893
 20
-1091.351315161494
 30
4.185207900610024
 10
573.4844751873363
 20
-1094.070008416315
 30
4.185207900610024
 10
481.1655285688211
 20
-1057.905126317135
 30
4.185207900610024
 10
433.075970523793
 20
-1011.820959197091
 30
4.185207900610024
 10
413.5660572395348
 20
-984.9669449691273
 30
4.185207900610024
  0
SPLINE
  5
41A
330
1F
100
AcDbEntity
  8
Default
100
AcDbSpline
210
0.0
220
0.0
230
1.0
 70
    12
 71
     2
 72
     6
 73
     3
 74
     0
 42
0.000000001
 43
0.0000000001
 40
0.0
 40
0.0
 40
0.0
 40
1.278324852146924
 40
1.278324852146924
 40
1.278324852146924
 10
451.2409165619452
 20
-605.1411945783739
 30
4.185207900610024
 41
1.0
 10
460.9234413933771
 20
-618.163655454793
 30
4.185207900610024
 41
0.9999999996076647
 10
470.6062174656803
 20
-631.1859295235884
 30
4.185207900610024
 41
0.9999999993083845
  0
SPLINE
  5
41B
330
1F
100
AcDbEntity
  8
Default
100
AcDbSpline
210
0.0
220
0.0
230
1.0
 70
     8
 71
     3
 72
    14
 73
    10
 74
     0
 42
0.000000001
 43
0.0000000001
 40
0.0
 40
0.0
 40
0.0
 40
0.0
 40
1.0
 40
2.0
 40
3.0
 40
4.0
 40
5.0
 40
6.0
 40
7.0
 40
7.0
 40
7.0
 40
7.0
 10
436.0197744209173
 20
-616.0782742785147
 30
4.185207900610024
 10
434.9921534387036
 20
-614.6185262784289
 30
4.185207900610024
 10
433.429701436647
 20
-611.5912808964366
 30
4.185207900610024
 10
432.4700723979453
 20
-606.5650602087274
 30
4.185207900610024
 10
433.7322377005038
 20
-601.4173503762641
 30
4.185207900610024
 10
438.161517693292
 20
-598.3052782958449
 30
4.185207900610024
 10
443.4279516781368
 20
-598.8088599512173
 30
4.185207900610024
 10
447.8781725510592
 20
-601.330779457843
 30
4.185207900610024
 10
450.2489035825087
 20
-603.7770948973928
 30
4.185207900610024
 10
451.2409165619452
 20
-605.1411945783739
 30
4.185207900610024
  0
SPLINE
  5
41C
330
1F
100
AcDbEntity
  8
Default
100
AcDbSpline
210
0.0
220
0.0
230
1.0
 70
    12
 71
     2
 72
     6
 73
     3
 74
     0
 42
0.000000001
 43
0.0000000001
 40
-1.281345128275034
 40
-1.281345128275034
 40
-1.281345128275034
 40
0.0
 40
0.0
 40
0.0
 10
454.8616578400422
 20
-642.6252917961853
 30
4.185207900610024
 41
0.9999999993069707
 10
445.4412137823227
 20
-629.3522836496106
 30
4.185207900610024
 41
0.9999999996067375
 10
436.0197744209173
 20
-616.0782742785147
 30
4.185207900610024
 41
1.0
  0
SPLINE
  5
41D
330
1F
100
AcDbEntity
  8
Default
100
AcDbSpline
210
0.0
220
0.0
230
1.0
 70
    12
 71
     2
 72
     6
 73
     3
 74
     0
 42
0.000000001
 43
0.0000000001
 40
0.0
 40
0.0
 40
0.0
 40
1.112498698414412
 40
1.112498698414412
 40
1.112498698414412
 10
363.069216426866
 20
-1077.141405118594
 30
4.185207900610024
 41
1.0
 10
374.4023847917778
 20
-1068.714911450968
 30
4.185207900610024
 41
0.9999999996585591
 10
385.7354116716809
 20
-1060.28822749716
 30
4.185207900610024
 41
0.9999999993875963
  0
SPLINE
  5
41E
330
1F
100
AcDbEntity
  8
Default
100
AcDbSpline
210
0.0
220
0.0
230
1.0
 70
     8
 71
     3
 72
    14
 73
    10
 74
     0
 42
0.000000001
 43
0.0000000001
 40
0.0
 40
0.0
 40
0.0
 40
0.0
 40
1.0
 40
2.0
 40
3.0
 40
4.0
 40
5.0
 40
6.0
 40
7.0
 40
7.0
 40
7.0
 40
7.0
 10
374.0062961270071
 20
-1092.362547259622
 30
4.185207900610024
 10
372.5465481269214
 20
-1093.390168241836
 30
4.185207900610024
 10
369.5193027449291
 20
-1094.952620243893
 30
4.185207900610024
 10
364.4930820572193
 20
-1095.912249282594
 30
4.185207900610024
 10
359.3453722247566
 20
-1094.650083980036
 30
4.185207900610024
 10
356.2333001443371
 20
-1090.220803987247
 30
4.185207900610024
 10
356.7368817997092
 20
-1084.954370002403
 30
4.185207900610024
 10
359.2588013063355
 20
-1080.50414912948
 30
4.185207900610024
 10
361.7051167458853
 20
-1078.133418098031
 30
4.185207900610024
 10
363.069216426866
 20
-1077.141405118594
 30
4.185207900610024
  0
SPLINE
  5
41F
330
1F
100
AcDbEntity
  8
Default
100
AcDbSpline
210
0.0
220
0.0
230
1.0
 70
    12
 71
     2
 72
     6
 73
     3
 74
     0
 42
0.000000001
 43
0.0000000001
 40
-1.102413928352738
 40
-1.102413928352738
 40
-1.102413928352738
 40
0.0
 40
0.0
 40
0.0
 10
396.8463220917513
 20
-1076.151686126221
 30
4.185207900610024
 41
0.9999999993925147
 10
385.4266796693223
 20
-1084.256748324283
 30
4.185207900610024
 41
0.9999999996616539
 10
374.0062961270071
 20
-1092.362547259622
 30
4.185207900610024
 41
1.0
  0
SPLINE
  5
420
330
1F
100
AcDbEntity
  8
Default
100
AcDbSpline
210
0.0
220
0.0
230
1.0
 70
    12
 71
     2
 72
     6
 73
     3
 74
     0
 42
0.000000001
 43
0.0000000001
 40
0.0
 40
0.0
 40
0.0
 40
5.654573080352872
 40
5.654573080352872
 40
5.654573080352872
 10
893.1348240505036
 20
-1229.292622637256
 30
4.185207900610024
 41
1.0
 10
951.2415211264816
 20
-1186.8828203947
 30
4.185207900610024
 41
0.9967681786255456
 10
1001.806209300189
 20
-1135.715288667934
 30
4.185207900610024
 41
1.0
  0
SPLINE
  5
421
330
1F
100
AcDbEntity
  8
Default
100
AcDbSpline
210
0.0
220
0.0
230
1.0
 70
    12
 71
     2
 72
     6
 73
     3
 74
     0
 42
0.000000001
 43
0.0000000001
 40
-5.654573080352872
 40
-5.654573080352872
 40
-5.654573080352872
 40
0.0
 40
0.0
 40
0.0
 10
770.5561859570317
 20
-1303.72826522897
 30
4.185207900610024
 41
1.0
 10
834.8447483894579
 20
-1271.450025910723
 30
4.185207900610024
 41
0.9967681786255456
 10
893.1348240505036
 20
-1229.292622637256
 30
4.185207900610024
 41
1.0
  0
SPLINE
  5
422
330
1F
100
AcDbEntity
  8
Default
100
AcDbSpline
210
0.0
220
0.0
230
1.0
 70
    12
 71
     2
 72
     6
 73
     3
 74
     0
 42
0.000000001
 43
0.0000000001
 40
0.0
 40
0.0
 40
0.0
 40
0.443505275079806
 40
0.443505275079806
 40
0.443505275079806
 10
686.1689865213244
 20
-1324.051930479252
 30
4.185207900610024
 41
1.0
 10
684.1779621807614
 20
-1318.54728582559
 30
4.185207900610024
 41
0.9799943751373794
 10
684.4889740054674
 20
-1312.849144144556
 30
4.185207900610024
 41
1.0
  0
SPLINE
  5
423
330
1F
100
AcDbEntity
  8
Default
100
AcDbSpline
210
0.0
220
0.0
230
1.0
 70
     8
 71
     3
 72
    12
 73
     8
 74
     0
 42
0.000000001
 43
0.0000000001
 40
0.0
 40
0.0
 40
0.0
 40
0.0
 40
0.8495817757806477
 40
1.391422022197968
 40
2.191064820612614
 40
2.689385262996221
 40
3.111933853859593
 40
3.111933853859593
 40
3.111933853859593
 40
3.111933853859593
 10
757.2839528067434
 20
-1310.445230190909
 30
4.185207900610024
 10
750.7898012037607
 20
-1313.592031886428
 30
4.185207900610024
 10
740.3706437018877
 20
-1318.966502080047
 30
4.185207900610024
 10
723.3862550808639
 20
-1326.554497856789
 30
4.185207900610024
 10
708.8746878603151
 20
-1332.089896042802
 30
4.185207900610024
 10
693.9429056145846
 20
-1333.371701862868
 30
4.185207900610024
 10
687.3366387259656
 20
-1327.548846163321
 30
4.185207900610024
 10
686.1689865213244
 20
-1324.051930479252
 30
4.185207900610024
  0
SPLINE
  5
424
330
1F
100
AcDbEntity
  8
Default
100
AcDbSpline
210
0.0
220
0.0
230
1.0
 70
    12
 71
     2
 72
     6
 73
     3
 74
     0
 42
0.000000001
 43
0.0000000001
 40
-6.233889429224446
 40
-6.233889429224446
 40
-6.233889429224446
 40
0.0
 40
0.0
 40
0.0
 10
892.1262870546815
 20
-1227.90449055008
 30
4.185207900610024
 41
1.0
 10
828.050475067584
 20
-1274.640390689986
 30
4.185207900610024
 41
0.996730330589404
 10
757.2839528067434
 20
-1310.445230190909
 30
4.185207900610024
 41
1.0
  0
SPLINE
  5
425
330
1F
100
AcDbEntity
  8
Default
100
AcDbSpline
210
0.0
220
0.0
230
1.0
 70
    12
 71
     2
 72
     6
 73
     3
 74
     0
 42
0.000000001
 43
0.0000000001
 40
0.0
 40
0.0
 40
0.0
 40
6.233889429224446
 40
6.233889429224446
 40
6.233889429224446
 10
1012.294816580415
 20
-1125.168992555956
 30
4.185207900610024
 41
0.9999999519924591
 10
956.3748110377812
 20
-1181.407301888352
 30
4.185207900610024
 41
0.9967303545933507
 10
892.1262870546815
 20
-1227.90449055008
 30
4.185207900610024
 41
1.0
  0
SPLINE
  5
426
330
1F
100
AcDbEntity
  8
Default
100
AcDbSpline
210
0.0
220
0.0
230
1.0
 70
     8
 71
     3
 72
    12
 73
     8
 74
     0
 42
0.000000001
 43
0.0000000001
 40
-3.111933853859593
 40
-3.111933853859593
 40
-3.111933853859593
 40
-3.111933853859593
 40
-2.689379093202719
 40
-2.191051374651839
 40
-1.391396900347014
 40
-0.8495487423131249
 40
0.0
 40
0.0
 40
0.0
 40
0.0
 10
1047.210339078215
 20
-1061.740033478094
 30
4.185207900610024
 10
1050.175279151729
 20
-1063.931143090358
 30
4.185207900610024
 10
1053.67169527027
 20
-1072.013437630117
 30
4.185207900610024
 10
1047.838451022234
 20
-1085.818306652931
 30
4.185207900610024
 10
1038.089653620975
 20
-1097.909095109578
 30
4.185207900610024
 10
1025.624834567252
 20
-1111.717102580946
 30
4.185207900610024
 10
1017.293998551417
 20
-1119.965255229927
 30
4.185207900610024
 10
1012.294816580414
 20
-1125.168992555956
 30
4.185207900610024
  0
SPLINE
  5
427
330
1F
100
AcDbEntity
  8
Default
100
AcDbSpline
210
0.0
220
0.0
230
1.0
 70
    12
 71
     2
 72
     6
 73
     3
 74
     0
 42
0.000000001
 43
0.0000000001
 40
-0.443505275079806
 40
-0.443505275079806
 40
-0.443505275079806
 40
0.0
 40
0.0
 40
0.0
 10
1037.075008552102
 20
-1056.680395265658
 30
4.185207900610024
 41
1.0
 10
1042.590371267908
 20
-1058.145428058923
 30
4.185207900610024
 41
0.9799943751373794
 10
1047.210339078215
 20
-1061.740033478094
 30
4.185207900610024
 41
1.0
  0
SPLINE
  5
428
330
1F
100
AcDbEntity
  8
Default
100
AcDbSpline
210
0.0
220
0.0
230
1.0
 70
     8
 71
     3
 72
    19
 73
    15
 74
     0
 42
0.000000001
 43
0.0000000001
 40
0.0
 40
0.0
 40
0.0
 40
0.0
 40
1.0
 40
2.0
 40
3.0
 40
4.0
 40
5.0
 40
6.0
 40
7.0
 40
8.0
 40
9.0
 40
10.0
 40
11.0
 40
12.0
 40
12.0
 40
12.0
 40
12.0
 10
884.2515082427196
 20
-1217.065787365586
 30
4.185207900610024
 10
889.3719448263992
 20
-1213.344562341036
 30
4.185207900610024
 10
899.5729264247598
 20
-1205.847119285179
 30
4.185207900610024
 10
914.7314184484153
 20
-1194.408810820211
 30
4.185207900610024
 10
929.7225478875164
 20
-1182.751810947169
 30
4.185207900610024
 10
944.5207059348838
 20
-1170.850484972526
 30
4.185207900610024
 10
959.0984836623604
 20
-1158.680268761586
 30
4.185207900610024
 10
973.4285836336711
 20
-1146.217974554606
 30
4.185207900610024
 10
987.4727838528249
 20
-1133.437882061175
 30
4.185207900610024
 10
1001.220646160618
 20
-1120.325735048292
 30
4.185207900610024
 10
1014.543948371147
 20
-1106.828079059722
 30
4.185207900610024
 10
1027.733699565186
 20
-1093.037500080498
 30
4.185207900610024
 10
1039.688276155046
 20
-1078.685265387004
 30
4.185207900610024
 10
1047.666891578876
 20
-1067.86287730685
 30
4.185207900610024
 10
1047.099274775425
 20
-1061.648252515891
 30
4.185207900610024
  0
SPLINE
  5
429
330
1F
100
AcDbEntity
  8
Default
100
AcDbSpline
210
0.0
220
0.0
230
1.0
 70
     8
 71
     3
 72
    19
 73
    15
 74
     0
 42
0.000000001
 43
0.0000000001
 40
-12.0
 40
-12.0
 40
-12.0
 40
-12.0
 40
-11.0
 40
-10.0
 40
-9.0
 40
-8.0
 40
-7.0
 40
-6.0
 40
-5.0
 40
-4.0
 40
-3.0
 40
-2.0
 40
-1.0
 40
0.0
 40
0.0
 40
0.0
 40
0.0
 10
686.1179216227782
 20
-1323.916557398211
 30
4.185207900610024
 10
691.8529777879895
 20
-1326.376817731962
 30
4.185207900610024
 10
704.6112082510412
 20
-1322.133005378604
 30
4.185207900610024
 10
721.9551619065096
 20
-1315.198611840816
 30
4.185207900610024
 10
739.1466391787191
 20
-1306.915936286263
 30
4.185207900610024
 10
756.1007996656054
 20
-1298.415727985064
 30
4.185207900610024
 10
772.8195156142622
 20
-1289.392610211833
 30
4.185207900610024
 10
789.3140023991183
 20
-1279.985047847407
 30
4.185207900610024
 10
805.5945929348807
 20
-1270.207373589388
 30
4.185207900610024
 10
821.6739374250263
 20
-1260.103886722967
 30
4.185207900610024
 10
837.5656533678464
 20
-1249.707714064613
 30
4.185207900610024
 10
853.2846328191123
 20
-1239.052513789129
 30
4.185207900610024
 10
868.8473422645202
 20
-1228.170562875401
 30
4.185207900610024
 10
879.1301110115441
 20
-1220.785690172291
 30
4.185207900610024
 10
884.2515082427196
 20
-1217.065787365586
 30
4.185207900610024
  0
SPLINE
  5
42A
330
1F
100
AcDbEntity
  8
Default
100
AcDbSpline
210
0.0
220
0.0
230
1.0
 70
     8
 71
     3
 72
    22
 73
    18
 74
     0
 42
0.000000001
 43
0.0000000001
 40
0.0
 40
0.0
 40
0.0
 40
0.0
 40
0.2588469591229587
 40
0.6477254461891114
 40
1.024641027840087
 40
1.817983982162573
 40
2.582167143679937
 40
4.062052734317923
 40
7.850412104674
 40
9.497260537102542
 40
10.543391206404
 40
10.8432833113025
 40
12.15829953678302
 40
13.34949093133962
 40
14.77372714428499
 40
17.25709974516987
 40
21.82793658798906
 40
21.82793658798906
 40
21.82793658798906
 40
21.82793658798906
 10
681.9590375616736
 20
-1272.900955209816
 30
4.185207900610024
 10
680.8321861584944
 20
-1271.004239864856
 30
4.185207900610024
 10
676.836213072277
 20
-1267.177312733647
 30
4.185207900610024
 10
669.5250190746154
 20
-1262.492562322373
 30
4.185207900610024
 10
657.9186199070015
 20
-1256.206774774464
 30
4.185207900610024
 10
643.1356159507542
 20
-1249.162601515456
 30
4.185207900610024
 10
620.4415296094601
 20
-1237.080367980827
 30
4.185207900610024
 10
575.7684657721259
 20
-1212.365574225837
 30
4.185207900610024
 10
525.8969835449867
 20
-1181.692754266829
 30
4.185207900610024
 10
479.8179694729987
 20
-1151.954693291491
 30
4.185207900610024
 10
458.6847326509927
 20
-1137.990404051322
 30
4.185207900610024
 10
440.0370731707384
 20
-1125.342405279854
 30
4.185207900610024
 10
422.5900246192699
 20
-1109.039406841098
 30
4.185207900610024
 10
401.6488901839275
 20
-1083.190192266745
 30
4.185207900610024
 10
376.6331043389261
 20
-1047.976327224323
 30
4.185207900610024
 10
342.0664136330799
 20
-984.8689162846419
 30
4.185207900610024
 10
327.33845705624
 20
-925.9938336498047
 30
4.185207900610024
 10
326.3613066792508
 20
-887.2358788101969
 30
4.185207900610024
  0
SPLINE
  5
42B
330
1F
100
AcDbEntity
  8
Default
100
AcDbSpline
210
0.0
220
0.0
230
1.0
 70
    12
 71
     2
 72
     6
 73
     3
 74
     0
 42
0.000000001
 43
0.0000000001
 40
0.0
 40
0.0
 40
0.0
 40
0.0586712320260919
 40
0.0586712320260919
 40
0.0586712320260919
 10
424.7270145122088
 20
-584.5865833558763
 30
4.185207900610024
 41
1.0
 10
425.3334014194141
 20
-584.1473820234929
 30
4.185207900610024
 41
0.9921343149382712
 10
426.0298764636725
 20
-583.8725631662026
 30
4.185207900610024
 41
1.0
  0
SPLINE
  5
42C
330
1F
100
AcDbEntity
  8
Default
100
AcDbSpline
210
0.0
220
0.0
230
1.0
 70
    24
 71
     2
 72
     6
 73
     3
 74
     0
 42
0.000000001
 43
0.0000000001
 40
0.0
 40
0.0
 40
0.0
 40
0.0114467396849787
 40
0.0114467396849787
 40
0.0114467396849787
 10
424.7270145122088
 20
-584.5865833558763
 30
4.185207900610024
 10
424.6416033836235
 20
-584.4690251341104
 30
4.185207900610024
 10
424.5561922550383
 20
-584.3514669123448
 30
4.185207900610024
  0
SPLINE
  5
42D
330
1F
100
AcDbEntity
  8
Default
100
AcDbSpline
210
0.0
220
0.0
230
1.0
 70
    12
 71
     2
 72
     6
 73
     3
 74
     0
 42
0.000000001
 43
0.0000000001
 40
0.0
 40
0.0
 40
0.0
 40
0.0587632096241838
 40
0.0587632096241838
 40
0.0587632096241838
 10
423.6438354841861
 20
-585.6068441258918
 30
4.185207900610024
 41
1.0
 10
424.1209589279156
 20
-585.0282829804846
 30
4.185207900610024
 41
0.9921107855315545
 10
424.7270025645093
 20
-584.5865920364123
 30
4.185207900610024
 41
1.0
  0
SPLINE
  5
42E
330
1F
100
AcDbEntity
  8
Default
100
AcDbSpline
210
0.0
220
0.0
230
1.0
 70
    12
 71
     2
 72
     6
 73
     3
 74
     0
 42
0.000000001
 43
0.0000000001
 40
-0.1297405451143296
 40
-0.1297405451143296
 40
-0.1297405451143296
 40
0.0
 40
0.0
 40
0.0
 10
369.8959702496615
 20
-1095.235008095114
 30
4.185207900610024
 41
0.9999960316975588
 10
371.2454706169867
 20
-1094.290864524075
 30
4.185207900610024
 41
0.999996865512317
 10
372.597828919207
 20
-1093.350819128064
 30
4.185207900610024
 41
1.0
  0
ARC
  5
42F
330
1F
100
AcDbEntity
  8
Default
100
AcDbCircle
 10
377.1731348305217
 20
-1105.636536608566
 30
4.185207900610024
 40
12.69444444444444
100
AcDbArc
 50
124.9775798079558
 51
137.7179678781666
  0
SPLINE
  5
430
330
1F
100
AcDbEntity
  8
Default
100
AcDbSpline
210
0.0
220
0.0
230
1.0
 70
     8
 71
     3
 72
    14
 73
    10
 74
     0
 42
0.000000001
 43
0.0000000001
 40
-7.0
 40
-7.0
 40
-7.0
 40
-7.0
 40
-6.0
 40
-5.0
 40
-4.0
 40
-3.0
 40
-2.0
 40
-1.0
 40
-0.2482205602640466
 40
-0.2482205602640466
 40
-0.2482205602640466
 40
-0.2482205602640466
 10
342.5678619373812
 20
-1103.616629647649
 30
4.185207900610024
 10
343.4033452017511
 20
-1104.78849498913
 30
4.185207900610024
 10
345.944018222238
 20
-1106.332182798789
 30
4.185207900610024
 10
350.277053841688
 20
-1106.639409861438
 30
4.185207900610024
 10
354.4894126855176
 20
-1105.791045846098
 30
4.185207900610024
 10
358.4725099008718
 20
-1104.200447130073
 30
4.185207900610024
 10
362.187475187836
 20
-1102.066701632173
 30
4.185207900610024
 10
365.2953203068237
 20
-1099.658337323909
 30
4.185207900610024
 10
367.060426234643
 20
-1097.888635951746
 30
4.185207900610024
 10
367.7812502114763
 20
-1097.095961507578
 30
4.185207900610024
  0
SPLINE
  5
431
330
1F
100
AcDbEntity
  8
Default
100
AcDbSpline
210
0.0
220
0.0
230
1.0
 70
     8
 71
     3
 72
    14
 73
    10
 74
     0
 42
0.000000001
 43
0.0000000001
 40
0.2772630823298201
 40
0.2772630823298201
 40
0.2772630823298201
 40
0.2772630823298201
 40
1.0
 40
2.0
 40
3.0
 40
4.0
 40
5.0
 40
6.0
 40
7.0
 40
7.0
 40
7.0
 40
7.0
 10
356.4476564156265
 20
-1081.703534879413
 30
4.185207900610024
 10
355.5102768443739
 20
-1082.130469537643
 30
4.185207900610024
 10
353.3212825787804
 20
-1083.24805234321
 30
4.185207900610024
 10
350.1047249937425
 20
-1085.436222715453
 30
4.185207900610024
 10
346.9274250266639
 20
-1088.310001038908
 30
4.185207900610024
 10
344.183831023186
 20
-1091.606629566125
 30
4.185207900610024
 10
342.0752984290572
 20
-1095.350661995366
 30
4.185207900610024
 10
341.0285070853301
 20
-1099.566562140074
 30
4.185207900610024
 10
341.7115302953515
 20
-1102.459911539178
 30
4.185207900610024
 10
342.5678619373812
 20
-1103.616629647649
 30
4.185207900610024
  0
ARC
  5
432
330
1F
100
AcDbEntity
  8
Default
100
AcDbCircle
 10
351.1859464792295
 20
-1070.150901919853
 30
4.185207900610024
 40
12.69444444444444
100
AcDbArc
 50
294.4871521735349
 51
306.9422552251325
  0
SPLINE
  5
433
330
1F
100
AcDbEntity
  8
Default
100
AcDbSpline
210
0.0
220
0.0
230
1.0
 70
    12
 71
     2
 72
     6
 73
     3
 74
     0
 42
0.000000001
 43
0.0000000001
 40
0.0
 40
0.0
 40
0.0
 40
0.1369528492222414
 40
0.1369528492222414
 40
0.1369528492222414
 10
361.6184715238913
 20
-1078.23903011076
 30
4.185207900610024
 41
1.0
 10
360.2336267944421
 20
-1079.29004094931
 30
4.185207900610024
 41
0.9999966913238282
 10
358.8154322963878
 20
-1080.296830458871
 30
4.185207900610024
 41
0.9999959461296658
  0
SPLINE
  5
434
330
1F
100
AcDbEntity
  8
Default
100
AcDbSpline
210
0.0
220
0.0
230
1.0
 70
     8
 71
     3
 72
    12
 73
     8
 74
     0
 42
0.000000001
 43
0.0000000001
 40
-1.014583801502342
 40
-1.014583801502342
 40
-1.014583801502342
 40
-1.014583801502342
 40
-0.8249401141264362
 40
-0.5900965017365678
 40
-0.3037660471064116
 40
-0.1510110321465192
 40
0.0
 40
0.0
 40
0.0
 40
0.0
 10
342.2568349815082
 20
-1103.842588375203
 30
4.185207900610024
 10
343.1914083979625
 20
-1105.183061328336
 30
4.185207900610024
 10
346.5182470398186
 20
-1106.965476610455
 30
4.185207900610024
 10
352.6546831882854
 20
-1106.735804008031
 30
4.185207900610024
 10
358.0374985216932
 20
-1104.72209870228
 30
4.185207900610024
 10
362.3294017278437
 20
-1102.143998603353
 30
4.185207900610024
 10
364.3529524416475
 20
-1100.553615340206
 30
4.185207900610024
 10
365.3090583913207
 20
-1099.704680886578
 30
4.185207900610024
  0
SPLINE
  5
435
330
1F
100
AcDbEntity
  8
Default
100
AcDbSpline
210
0.0
220
0.0
230
1.0
 70
     8
 71
     3
 72
    12
 73
     8
 74
     0
 42
0.000000001
 43
0.0000000001
 40
0.0
 40
0.0
 40
0.0
 40
0.0
 40
0.1510110321465192
 40
0.3037660471064116
 40
0.5900965017365678
 40
0.8249401141264362
 40
1.014583801502342
 40
1.014583801502342
 40
1.014583801502342
 40
1.014583801502342
 10
353.3157476541524
 20
-1083.197304821347
 30
4.185207900610024
 10
352.2129100232498
 20
-1083.84428044177
 30
4.185207900610024
 10
350.0750540978818
 20
-1085.277336078305
 30
4.185207900610024
 10
346.2968641702236
 20
-1088.562501846054
 30
4.185207900610024
 10
342.7183352016859
 20
-1093.059594283765
 30
4.185207900610024
 10
340.6036405217623
 20
-1098.824719132302
 30
4.185207900610024
 10
341.270768512689
 20
-1102.53952731451
 30
4.185207900610024
 10
342.2568349815082
 20
-1103.842588375203
 30
4.185207900610024
  0
SPLINE
  5
436
330
1F
100
AcDbEntity
  8
Default
100
AcDbSpline
210
0.0
220
0.0
230
1.0
 70
    12
 71
     2
 72
     6
 73
     3
 74
     0
 42
0.000000001
 43
0.0000000001
 40
0.0
 40
0.0
 40
0.0
 40
0.0853474550214741
 40
0.0853474550214741
 40
0.0853474550214741
 10
364.6333857123089
 20
-1100.288497884395
 30
4.185207900610024
 41
1.0
 10
363.8032438426523
 20
-1100.985382324871
 30
4.185207900610024
 41
0.9993970637774639
 10
362.9267403693067
 20
-1101.622975540288
 30
4.185207900610024
 41
1.0
  0
SPLINE
  5
437
330
1F
100
AcDbEntity
  8
Default
100
AcDbSpline
210
0.0
220
0.0
230
1.0
 70
    12
 71
     2
 72
     6
 73
     3
 74
     0
 42
0.000000001
 43
0.0000000001
 40
0.0
 40
0.0
 40
0.0
 40
0.0853474550214741
 40
0.0853474550214741
 40
0.0853474550214741
 10
428.0938237961443
 20
-606.7053638638165
 30
4.185207900610024
 41
1.0
 10
427.3969393556694
 20
-605.8752219941599
 30
4.185207900610024
 41
0.9993970637774639
 10
426.7593461402516
 20
-604.9987185208144
 30
4.185207900610024
 41
1.0
  0
SPLINE
  5
438
330
1F
100
AcDbEntity
  8
Default
100
AcDbSpline
210
0.0
220
0.0
230
1.0
 70
    12
 71
     2
 72
     6
 73
     3
 74
     0
 42
0.000000001
 43
0.0000000001
 40
-0.1297405451143296
 40
-0.1297405451143296
 40
-0.1297405451143296
 40
0.0
 40
0.0
 40
0.0
 10
433.1473135854251
 20
-611.9679484011689
 30
4.185207900610024
 41
0.9999960316975588
 10
434.0914571564645
 20
-613.3174487684942
 30
4.185207900610024
 41
0.999996865512317
 10
435.0315025524756
 20
-614.6698070707148
 30
4.185207900610024
 41
1.0
  0
ARC
  5
439
330
1F
100
AcDbEntity
  8
Default
100
AcDbCircle
 10
422.7457850719732
 20
-619.2451129820296
 30
4.185207900610024
 40
12.69444444444444
100
AcDbArc
 50
34.97757980795589
 51
47.71796787816665
  0
SPLINE
  5
43A
330
1F
100
AcDbEntity
  8
Default
100
AcDbSpline
210
0.0
220
0.0
230
1.0
 70
     8
 71
     3
 72
    14
 73
    10
 74
     0
 42
0.000000001
 43
0.0000000001
 40
-7.0
 40
-7.0
 40
-7.0
 40
-7.0
 40
-6.0
 40
-5.0
 40
-4.0
 40
-3.0
 40
-2.0
 40
-1.0
 40
-0.2482205602640466
 40
-0.2482205602640466
 40
-0.2482205602640466
 40
-0.2482205602640466
 10
424.7656920328905
 20
-584.6398400888886
 30
4.185207900610024
 10
423.5938266914095
 20
-585.4753233532589
 30
4.185207900610024
 10
422.0501388817506
 20
-588.0159963737454
 30
4.185207900610024
 10
421.7429118191013
 20
-592.3490319931956
 30
4.185207900610024
 10
422.5912758344415
 20
-596.5613908370251
 30
4.185207900610024
 10
424.1818745504662
 20
-600.5444880523794
 30
4.185207900610024
 10
426.3156200483669
 20
-604.2594533393436
 30
4.185207900610024
 10
428.7239843566298
 20
-607.3672984583313
 30
4.185207900610024
 10
430.4936857287934
 20
-609.1324043861503
 30
4.185207900610024
 10
431.2863601729612
 20
-609.8532283629837
 30
4.185207900610024
  0
SPLINE
  5
43B
330
1F
100
AcDbEntity
  8
Default
100
AcDbSpline
210
0.0
220
0.0
230
1.0
 70
     8
 71
     3
 72
    14
 73
    10
 74
     0
 42
0.000000001
 43
0.0000000001
 40
0.2772630823298201
 40
0.2772630823298201
 40
0.2772630823298201
 40
0.2772630823298201
 40
1.0
 40
2.0
 40
3.0
 40
4.0
 40
5.0
 40
6.0
 40
7.0
 40
7.0
 40
7.0
 40
7.0
 10
446.6787868011262
 20
-598.5196345671341
 30
4.185207900610024
 10
446.2518521428966
 20
-597.5822549958813
 30
4.185207900610024
 10
445.1342693373291
 20
-595.3932607302881
 30
4.185207900610024
 10
442.9460989650865
 20
-592.1767031452503
 30
4.185207900610024
 10
440.0723206416312
 20
-588.9994031781715
 30
4.185207900610024
 10
436.7756921144139
 20
-586.2558091746936
 30
4.185207900610024
 10
433.0316596851729
 20
-584.1472765805648
 30
4.185207900610024
 10
428.8157595404651
 20
-583.1004852368378
 30
4.185207900610024
 10
425.9224101413621
 20
-583.7835084468589
 30
4.185207900610024
 10
424.7656920328905
 20
-584.6398400888886
 30
4.185207900610024
  0
ARC
  5
43C
330
1F
100
AcDbEntity
  8
Default
100
AcDbCircle
 10
458.2314197606859
 20
-593.257924630737
 30
4.185207900610024
 40
12.69444444444444
100
AcDbArc
 50
204.4871521735349
 51
216.9422552251317
  0
SPLINE
  5
43D
330
1F
100
AcDbEntity
  8
Default
100
AcDbSpline
210
0.0
220
0.0
230
1.0
 70
    12
 71
     2
 72
     6
 73
     3
 74
     0
 42
0.000000001
 43
0.0000000001
 40
0.0
 40
0.0
 40
0.0
 40
0.1369528492222414
 40
0.1369528492222414
 40
0.1369528492222414
 10
450.1432915697795
 20
-603.6904496753992
 30
4.185207900610024
 41
1.0
 10
449.0922807312286
 20
-602.3056049459494
 30
4.185207900610024
 41
0.9999966913238282
 10
448.0854912216681
 20
-600.8874104478955
 30
4.185207900610024
 41
0.9999959461296658
  0
SPLINE
  5
43E
330
1F
100
AcDbEntity
  8
Default
100
AcDbSpline
210
0.0
220
0.0
230
1.0
 70
     8
 71
     3
 72
    12
 73
     8
 74
     0
 42
0.000000001
 43
0.0000000001
 40
-1.014583801502342
 40
-1.014583801502342
 40
-1.014583801502342
 40
-1.014583801502342
 40
-0.8249401141264362
 40
-0.5900965017365678
 40
-0.3037660471064116
 40
-0.1510110321465192
 40
0.0
 40
0.0
 40
0.0
 40
0.0
 10
424.5397333053359
 20
-584.3288131330161
 30
4.185207900610024
 10
423.1992603522031
 20
-585.2633865494701
 30
4.185207900610024
 10
421.4168450700832
 20
-588.5902251913258
 30
4.185207900610024
 10
421.6465176725082
 20
-594.7266613397931
 30
4.185207900610024
 10
423.6602229782595
 20
-600.1094766732007
 30
4.185207900610024
 10
426.2383230771861
 20
-604.4013798793515
 30
4.185207900610024
 10
427.8287063403333
 20
-606.4249305931552
 30
4.185207900610024
 10
428.6776407939616
 20
-607.3810365428283
 30
4.185207900610024
  0
SPLINE
  5
43F
330
1F
100
AcDbEntity
  8
Default
100
AcDbSpline
210
0.0
220
0.0
230
1.0
 70
     8
 71
     3
 72
    12
 73
     8
 74
     0
 42
0.000000001
 43
0.0000000001
 40
0.0
 40
0.0
 40
0.0
 40
0.0
 40
0.1510110321465192
 40
0.3037660471064116
 40
0.5900965017365678
 40
0.8249401141264362
 40
1.014583801502342
 40
1.014583801502342
 40
1.014583801502342
 40
1.014583801502342
 10
445.185016859193
 20
-595.3877258056599
 30
4.185207900610024
 10
444.5380412387694
 20
-594.2848881747572
 30
4.185207900610024
 10
443.1049856022348
 20
-592.1470322493894
 30
4.185207900610024
 10
439.819819834485
 20
-588.3688423217311
 30
4.185207900610024
 10
435.3227273967744
 20
-584.7903133531932
 30
4.185207900610024
 10
429.5576025482368
 20
-582.6756186732695
 30
4.185207900610024
 10
425.842794366029
 20
-583.3427466641968
 30
4.185207900610024
 10
424.5397333053359
 20
-584.3288131330161
 30
4.185207900610024
  0
CIRCLE
  5
440
330
1F
100
AcDbEntity
  8
Default
100
AcDbCircle
 10
713.6436921686985
 20
607.4906586023477
 30
4.185207900610024
 40
199.9375
  0
SPLINE
  5
441
330
1F
100
AcDbEntity
  8
Default
100
AcDbSpline
210
0.0
220
0.0
230
1.0
 70
     8
 71
     3
 72
    21
 73
    17
 74
     0
 42
0.000000001
 43
0.0000000001
 40
0.0
 40
0.0
 40
0.0
 40
0.0
 40
0.2588469591229587
 40
0.6477254461891114
 40
1.024641027840087
 40
1.817983982162573
 40
2.582167143679937
 40
4.062052734317923
 40
7.850412104674
 40
9.497260537102542
 40
10.543391206404
 40
10.8432833113025
 40
12.15829953678302
 40
13.34949093133962
 40
14.77372714428499
 40
15.46884750610318
 40
15.46884750610318
 40
15.46884750610318
 40
15.46884750610318
 10
1299.908859753536
 20
628.9530405985972
 30
4.185207900610024
 10
1297.882356510664
 20
628.0809122873466
 30
4.185207900610024
 10
1292.400135045526
 20
627.3336372505995
 30
4.185207900610024
 10
1283.731627649828
 20
627.8410065619486
 30
4.185207900610024
 10
1270.647160260025
 20
629.5777678756025
 30
4.185207900610024
 10
1254.546997675271
 20
632.5681437078075
 30
4.185207900610024
 10
1229.085337466943
 20
636.132660713951
 30
4.185207900610024
 10
1178.417078349109
 20
642.3961406519976
 30
4.185207900610024
 10
1120.041170474558
 20
646.895029802835
 30
4.185207900610024
 10
1065.2828713332
 20
649.9209980057201
 30
4.185207900610024
 10
1039.977720323929
 20
651.0454556332363
 30
4.185207900610024
 10
1017.457139750203
 20
651.7738289145499
 30
4.185207900610024
 10
993.7595189199329
 20
648.8395439529122
 30
4.185207900610024
 10
961.6239981701022
 20
640.2359800583844
 30
4.185207900610024
 10
935.044829461805
 20
631.2858494099629
 30
4.185207900610024
 10
918.4376050458432
 20
624.496533942704
 30
4.185207900610024
 10
913.0429689690741
 20
622.1512287733029
 30
4.185207900610024
  0
SPLINE
  5
442
330
1F
100
AcDbEntity
  8
Default
100
AcDbSpline
210
0.0
220
0.0
230
1.0
 70
     8
 71
     3
 72
    10
 73
     6
 74
     0
 42
0.000000001
 43
0.0000000001
 40
-6.708248473681532
 40
-6.708248473681532
 40
-6.708248473681532
 40
-6.708248473681532
 40
-3.774519558109396
 40
-1.88935509827327
 40
0.0
 40
0.0
 40
0.0
 40
0.0
 10
768.0299544488257
 20
415.0922740419559
 30
4.185207900610024
 10
759.0439311944158
 20
391.9512588923865
 30
4.185207900610024
 10
750.1193893151409
 20
351.6656960145665
 30
4.185207900610024
 10
751.7787376583582
 20
294.6675504565389
 30
4.185207900610024
 10
758.7284249699551
 20
263.3361288176629
 30
4.185207900610024
 10
763.6674186402491
 20
248.1299015683156
 30
4.185207900610024
  0
SPLINE
  5
443
330
1F
100
AcDbEntity
  8
Default
100
AcDbSpline
210
0.0
220
0.0
230
1.0
 70
     8
 71
     3
 72
     8
 73
     4
 74
     0
 42
0.000000001
 43
0.0000000001
 40
-14.89017236839833
 40
-14.89017236839833
 40
-14.89017236839833
 40
-14.89017236839833
 40
-14.55234360913006
 40
-14.55234360913006
 40
-14.55234360913006
 40
-14.55234360913006
 10
913.5310126490777
 20
553.7669687075268
 30
4.185207900610024
 10
910.8113099110751
 20
552.8840894424591
 30
4.185207900610024
 10
908.1084989959942
 20
551.9495564321565
 30
4.185207900610024
 10
905.4242684462728
 20
550.9644304521187
 30
4.185207900610024
  0
SPLINE
  5
444
330
1F
100
AcDbEntity
  8
Default
100
AcDbSpline
210
0.0
220
0.0
230
1.0
 70
     8
 71
     3
 72
    34
 73
    30
 74
     0
 42
0.000000001
 43
0.0000000001
 40
49.54977648871967
 40
49.54977648871967
 40
49.54977648871967
 40
49.54977648871967
 40
50.0
 40
51.0
 40
52.0
 40
53.0
 40
53.0
 40
53.0
 40
54.0
 40
55.0
 40
56.0
 40
57.0
 40
58.0
 40
59.0
 40
60.0
 40
60.0
 40
60.0
 40
61.0
 40
62.0
 40
63.0
 40
64.0
 40
65.0
 40
66.0
 40
67.0
 40
68.0
 40
69.0
 40
70.0
 40
71.0
 40
72.0
 40
72.0
 40
72.0
 40
72.0
 10
913.4520405385599
 20
614.6759093257552
 30
4.185207900610024
 10
918.1282436828128
 20
616.5398416095683
 30
4.185207900610024
 10
933.2831905962487
 20
622.309907776013
 30
4.185207900610024
 10
959.3171547319588
 20
630.8323132080785
 30
4.185207900610024
 10
991.6633993605607
 20
639.8978666849343
 30
4.185207900610024
 10
1013.95579546651
 20
642.5607054209309
 30
4.185207900610024
 10
1025.143779032918
 20
642.6154471210566
 30
4.185207900610024
 10
1036.127369807407
 20
642.6901726269334
 30
4.185207900610024
 10
1058.095685036976
 20
642.7315973236614
 30
4.185207900610024
 10
1091.045100307122
 20
642.242102392111
 30
4.185207900610024
 10
1123.97904564497
 20
641.111878457829
 30
4.185207900610024
 10
1156.880841066099
 20
639.2523928762386
 30
4.185207900610024
 10
1189.723371055328
 20
636.546874656228
 30
4.185207900610024
 10
1222.485197536515
 20
632.9626472069678
 30
4.185207900610024
 10
1244.209453780569
 20
629.6717601955488
 30
4.185207900610024
 10
1255.044249969785
 20
627.869817620016
 30
4.185207900610024
 10
1257.267881588949
 20
627.5044760322405
 30
4.185207900610024
 10
1261.717142702731
 20
626.7853429761483
 30
4.185207900610024
 10
1268.412848017604
 20
625.8473264174551
 30
4.185207900610024
 10
1275.137477452293
 20
625.1429477321612
 30
4.185207900610024
 10
1281.896163820459
 20
624.8163413993369
 30
4.185207900610024
 10
1288.652589564113
 20
625.091855661212
 30
4.185207900610024
 10
1295.360793583128
 20
626.2912318934548
 30
4.185207900610024
 10
1301.414075535795
 20
629.4644319866886
 30
4.185207900610024
 10
1306.323695637951
 20
634.1624749707222
 30
4.185207900610024
 10
1311.196273599405
 20
638.8369733883039
 30
4.185207900610024
 10
1315.669164163475
 20
643.9210283063276
 30
4.185207900610024
 10
1319.66185639296
 20
649.3809938737937
 30
4.185207900610024
 10
1324.213307618395
 20
657.8921067957899
 30
4.185207900610024
 10
1325.436577642886
 20
659.7847450104033
 30
4.185207900610024
  0
SPLINE
  5
445
330
1F
100
AcDbEntity
  8
Default
100
AcDbSpline
210
0.0
220
0.0
230
1.0
 70
     8
 71
     3
 72
    12
 73
     8
 74
     0
 42
0.000000001
 43
0.0000000001
 40
36.00001859054296
 40
36.00001859054296
 40
36.00001859054296
 40
36.00001859054296
 40
37.0
 40
38.0
 40
39.0
 40
40.0
 40
40.99791129719946
 40
40.99791129719946
 40
40.99791129719946
 40
40.99791129719946
 10
748.6256592332919
 20
243.2432221352196
 30
4.185207900610024
 10
745.1527845483781
 20
253.8704132418598
 30
4.185207900610024
 10
739.1125879170216
 20
275.4215923779852
 30
4.185207900610024
 10
732.892956653088
 20
308.4143448477053
 30
4.185207900610024
 10
729.7256664867834
 20
341.8449598987448
 30
4.185207900610024
 10
729.8901875770427
 20
375.4059558195765
 30
4.185207900610024
 10
732.4090409571526
 20
397.6407862414756
 30
4.185207900610024
 10
734.3424566002176
 20
408.6274768485136
 30
4.185207900610024
  0
SPLINE
  5
446
330
1F
100
AcDbEntity
  8
Default
100
AcDbSpline
210
0.0
220
0.0
230
1.0
 70
     8
 71
     3
 72
    12
 73
     8
 74
     0
 42
0.000000001
 43
0.0000000001
 40
0.0
 40
0.0
 40
0.0
 40
0.0
 40
1.918305221504867
 40
3.868777778011241
 40
7.624449324857683
 40
11.42846767657462
 40
15.35241906764609
 40
15.35241906764609
 40
15.35241906764609
 40
15.35241906764609
 10
1226.932770500293
 20
398.6539400700232
 30
4.185207900610024
 10
1221.929320332951
 20
414.0965774206537
 30
4.185207900610024
 10
1208.795955321709
 20
444.2624857568766
 30
4.185207900610024
 10
1171.880768662257
 20
497.5631971654109
 30
4.185207900610024
 10
1107.036902156591
 20
548.0355135350078
 30
4.185207900610024
 10
1011.092121090625
 20
573.0412246467448
 30
4.185207900610024
 10
945.0992575828733
 20
564.0246832831443
 30
4.185207900610024
 10
913.5310126490777
 20
553.7669687075268
 30
4.185207900610024
  0
SPLINE
  5
447
330
1F
100
AcDbEntity
  8
Default
100
AcDbSpline
210
0.0
220
0.0
230
1.0
 70
     8
 71
     3
 72
    47
 73
    43
 74
     0
 42
0.000000001
 43
0.0000000001
 40
36.00001859054296
 40
36.00001859054296
 40
36.00001859054296
 40
36.00001859054296
 40
37.0
 40
38.0
 40
39.0
 40
40.0
 40
41.0
 40
42.0
 40
43.0
 40
44.0
 40
45.0
 40
46.0
 40
47.0
 40
48.0
 40
49.0
 40
50.0
 40
51.0
 40
52.0
 40
53.0
 40
53.0
 40
53.0
 40
54.0
 40
55.0
 40
56.0
 40
57.0
 40
58.0
 40
59.0
 40
60.0
 40
60.0
 40
60.0
 40
61.0
 40
62.0
 40
63.0
 40
64.0
 40
65.0
 40
66.0
 40
67.0
 40
68.0
 40
69.0
 40
70.0
 40
71.0
 40
72.0
 40
72.0
 40
72.0
 40
72.0
 10
748.6256592332919
 20
243.2432221352196
 30
4.185207900610024
 10
752.0625507996391
 20
232.6043394046252
 30
4.185207900610024
 10
759.8433943412329
 20
211.6187307338229
 30
4.185207900610024
 10
774.2042602842023
 20
181.271225762976
 30
4.185207900610024
 10
791.2918912156133
 20
152.3636036047933
 30
4.185207900610024
 10
811.1654867062648
 20
125.290041085286
 30
4.185207900610024
 10
833.852766505133
 20
100.504827744595
 30
4.185207900610024
 10
859.4101044200119
 20
78.69318974405572
 30
4.185207900610024
 10
887.3400539740536
 20
60.00265543541438
 30
4.185207900610024
 10
917.489834174694
 20
45.14176702530514
 30
4.185207900610024
 10
949.2789178886459
 20
34.22675918891537
 30
4.185207900610024
 10
982.2918903340672
 20
27.78232827244637
 30
4.185207900610024
 10
1015.892659147379
 20
26.43041245436995
 30
4.185207900610024
 10
1049.361760215439
 20
29.24244027978995
 30
4.185207900610024
 10
1082.424397506101
 20
35.03128601844163
 30
4.185207900610024
 10
1114.97672717716
 20
43.2243217238811
 30
4.185207900610024
 10
1146.897811344057
 20
53.51841446049984
 30
4.185207900610024
 10
1178.39507159037
 20
65.19687319404524
 30
4.185207900610024
 10
1197.995176223673
 20
76.14573307268324
 30
4.185207900610024
 10
1207.078621425704
 20
82.6775778502056
 30
4.185207900610024
 10
1216.00845557185
 20
89.07311632049863
 30
4.185207900610024
 10
1233.805544756174
 20
101.9522547465115
 30
4.185207900610024
 10
1260.174463762603
 20
121.7154448322486
 30
4.185207900610024
 10
1286.154256272379
 20
141.9879025719258
 30
4.185207900610024
 10
1311.679389711811
 20
162.8314481307107
 30
4.185207900610024
 10
1336.659290901834
 20
184.3246131249322
 30
4.185207900610024
 10
1361.057409256341
 20
206.4812324868959
 30
4.185207900610024
 10
1376.698366895664
 20
221.9128134429791
 30
4.185207900610024
 10
1384.404745871952
 20
229.7391490210885
 30
4.185207900610024
 10
1385.988959243742
 20
231.3417344466268
 30
4.185207900610024
 10
1389.165791292396
 20
234.5387353765015
 30
4.185207900610024
 10
1394.031378381849
 20
239.2332435512682
 30
4.185207900610024
 10
1399.057694472141
 20
243.7557358869885
 30
4.185207900610024
 10
1404.333612217899
 20
247.992622132792
 30
4.185207900610024
 10
1409.961618685674
 20
251.7410538230719
 30
4.185207900610024
 10
1416.093645400053
 20
254.7137214602837
 30
4.185207900610024
 10
1422.85601358888
 20
255.7045785180511
 30
4.185207900610024
 10
1429.589420068101
 20
254.7895841940703
 30
4.185207900610024
 10
1436.279019677053
 20
253.8718650004557
 30
4.185207900610024
 10
1442.885996660024
 20
252.3878772801174
 30
4.185207900610024
 10
1449.325439765567
 20
250.3175179567696
 30
4.185207900610024
 10
1458.010347812158
 20
246.1071588686697
 30
4.185207900610024
 10
1460.112458881156
 20
245.2950024688113
 30
4.185207900610024
  0
SPLINE
  5
448
330
1F
100
AcDbEntity
  8
Default
100
AcDbSpline
210
0.0
220
0.0
230
1.0
 70
     8
 71
     3
 72
    12
 73
     8
 74
     0
 42
0.000000001
 43
0.0000000001
 40
-14.89017236839833
 40
-14.89017236839833
 40
-14.89017236839833
 40
-14.89017236839833
 40
-11.21816917573749
 40
-7.516682162771167
 40
-3.774519558109396
 40
-1.88935509827327
 40
0.0
 40
0.0
 40
0.0
 40
0.0
 10
1064.558171331877
 20
88.95316876312058
 30
4.185207900610024
 10
1035.001723478688
 20
79.34093896844257
 30
4.185207900610024
 10
971.690704676696
 20
72.30862322862202
 30
4.185207900610024
 10
879.7887590034108
 20
99.89665228292139
 30
4.185207900610024
 10
817.4389811987825
 20
150.7308797603169
 30
4.185207900610024
 10
781.4030150600851
 20
203.4933995965309
 30
4.185207900610024
 10
768.6092826280703
 20
232.9259758701095
 30
4.185207900610024
 10
763.6670163222743
 20
248.1311397757234
 30
4.185207900610024
  0
SPLINE
  5
449
330
1F
100
AcDbEntity
  8
Default
100
AcDbSpline
210
0.0
220
0.0
230
1.0
 70
     8
 71
     3
 72
    12
 73
     8
 74
     0
 42
0.000000001
 43
0.0000000001
 40
0.0
 40
0.0
 40
0.0
 40
0.0
 40
1.918305221504867
 40
3.868777778011241
 40
7.624449324857683
 40
11.42846767657462
 40
15.35241906764609
 40
15.35241906764609
 40
15.35241906764609
 40
15.35241906764609
 10
1226.932368828948
 20
398.6551762873099
 30
4.185207900610024
 10
1231.961447104262
 20
383.220866013737
 30
4.185207900610024
 10
1239.067407658876
 20
351.0965352523933
 30
4.185207900610024
 10
1240.531766403489
 20
286.2771516065647
 30
4.185207900610024
 10
1217.738859630514
 20
207.32992148444
 30
4.185207900610024
 10
1154.815889441129
 20
130.7049488936093
 30
4.185207900610024
 10
1096.126751315682
 20
99.20985216084014
 30
4.185207900610024
 10
1064.558171331877
 20
88.95316876312058
 30
4.185207900610024
  0
SPLINE
  5
44A
330
1F
100
AcDbEntity
  8
Default
100
AcDbSpline
210
0.0
220
0.0
230
1.0
 70
    12
 71
     2
 72
     6
 73
     3
 74
     0
 42
0.000000001
 43
0.0000000001
 40
0.0
 40
0.0
 40
0.0
 40
1.278324852146924
 40
1.278324852146924
 40
1.278324852146924
 10
714.9645881573645
 20
242.1567009941616
 30
4.185207900610024
 41
1.0
 10
730.3417491534515
 20
247.3411676098881
 30
4.185207900610024
 41
0.9999999996076647
 10
745.7188101226296
 20
252.5259308966128
 30
4.185207900610024
 41
0.9999999993083845
  0
SPLINE
  5
44B
330
1F
100
AcDbEntity
  8
Default
100
AcDbSpline
210
0.0
220
0.0
230
1.0
 70
     8
 71
     3
 72
    14
 73
    10
 74
     0
 42
0.000000001
 43
0.0000000001
 40
0.0
 40
0.0
 40
0.0
 40
0.0
 40
1.0
 40
2.0
 40
3.0
 40
4.0
 40
5.0
 40
6.0
 40
7.0
 40
7.0
 40
7.0
 40
7.0
 10
720.6627774800487
 20
224.3007910793055
 30
4.185207900610024
 10
718.9569222851379
 20
223.7745523874209
 30
4.185207900610024
 10
715.5950166166392
 20
223.2240424986453
 30
4.185207900610024
 10
710.5182549980013
 20
223.864568658143
 30
4.185207900610024
 10
706.0125225460414
 20
226.655689014125
 30
4.185207900610024
 10
704.4214889053951
 20
231.8298677743314
 30
4.185207900610024
 10
706.5278411212943
 20
236.6829288436908
 30
4.185207900610024
 10
710.3015229800978
 20
240.1360244178432
 30
4.185207900610024
 10
713.360703397605
 20
241.6347705692638
 30
4.185207900610024
 10
714.9645881573645
 20
242.1567009941616
 30
4.185207900610024
  0
SPLINE
  5
44C
330
1F
100
AcDbEntity
  8
Default
100
AcDbSpline
210
0.0
220
0.0
230
1.0
 70
    12
 71
     2
 72
     6
 73
     3
 74
     0
 42
0.000000001
 43
0.0000000001
 40
-1.281345128275034
 40
-1.281345128275034
 40
-1.281345128275034
 40
0.0
 40
0.0
 40
0.0
 10
751.7329536609723
 20
234.0170075214082
 30
4.185207900610024
 41
0.9999999993069707
 10
736.1984954639397
 20
229.1592178976888
 30
4.185207900610024
 41
0.9999999996067375
 10
720.6627774800487
 20
224.3007910793055
 30
4.185207900610024
 41
1.0
  0
SPLINE
  5
44D
330
1F
100
AcDbEntity
  8
Default
100
AcDbSpline
210
0.0
220
0.0
230
1.0
 70
    12
 71
     2
 72
     6
 73
     3
 74
     0
 42
0.000000001
 43
0.0000000001
 40
0.0
 40
0.0
 40
0.0
 40
1.112498698414412
 40
1.112498698414412
 40
1.112498698414412
 10
1136.616910319654
 20
12.44434462239111
 30
4.185207900610024
 41
1.0
 10
1132.104980232409
 20
25.8267579923998
 30
4.185207900610024
 41
0.9999999996585591
 10
1127.592825450978
 20
39.20909560383334
 30
4.185207900610024
 41
0.9999999993875963
  0
SPLINE
  5
44E
330
1F
100
AcDbEntity
  8
Default
100
AcDbSpline
210
0.0
220
0.0
230
1.0
 70
     8
 71
     3
 72
    14
 73
    10
 74
     0
 42
0.000000001
 43
0.0000000001
 40
0.0
 40
0.0
 40
0.0
 40
0.0
 40
1.0
 40
2.0
 40
3.0
 40
4.0
 40
5.0
 40
6.0
 40
7.0
 40
7.0
 40
7.0
 40
7.0
 10
1154.472820234511
 20
18.14253394507544
 30
4.185207900610024
 10
1154.999058926395
 20
16.4366787501648
 30
4.185207900610024
 10
1155.549568815171
 20
13.07477308166587
 30
4.185207900610024
 10
1154.909042655673
 20
7.998011463027565
 30
4.185207900610024
 10
1152.117922299692
 20
3.492279011068105
 30
4.185207900610024
 10
1146.943743539484
 20
1.901245370421555
 30
4.185207900610024
 10
1142.090682470125
 20
4.007597586320731
 30
4.185207900610024
 10
1138.637586895973
 20
7.781279445124559
 30
4.185207900610024
 10
1137.138840744553
 20
10.84045986263181
 30
4.185207900610024
 10
1136.616910319654
 20
12.44434462239111
 30
4.185207900610024
  0
SPLINE
  5
44F
330
1F
100
AcDbEntity
  8
Default
100
AcDbSpline
210
0.0
220
0.0
230
1.0
 70
    12
 71
     2
 72
     6
 73
     3
 74
     0
 42
0.000000001
 43
0.0000000001
 40
-1.102413928352738
 40
-1.102413928352738
 40
-1.102413928352738
 40
0.0
 40
0.0
 40
0.0
 10
1146.113331293904
 20
44.87412105486924
 30
4.185207900610024
 41
0.9999999993925147
 10
1150.292839934134
 20
31.50879375559019
 30
4.185207900610024
 41
0.9999999996616539
 10
1154.472820234511
 20
18.14253394507544
 30
4.185207900610024
 41
1.0
  0
SPLINE
  5
450
330
1F
100
AcDbEntity
  8
Default
100
AcDbSpline
210
0.0
220
0.0
230
1.0
 70
    12
 71
     2
 72
     6
 73
     3
 74
     0
 42
0.000000001
 43
0.0000000001
 40
0.0
 40
0.0
 40
0.0
 40
5.654573080352872
 40
5.654573080352872
 40
5.654573080352872
 10
1445.120598092406
 20
469.549382888696
 30
4.185207900610024
 41
1.0
 10
1422.742436198308
 20
537.9174854042238
 30
4.185207900610024
 41
0.9967681786255456
 10
1389.704569687774
 20
601.8189984500513
 30
4.185207900610024
 41
1.0
  0
SPLINE
  5
451
330
1F
100
AcDbEntity
  8
Default
100
AcDbSpline
210
0.0
220
0.0
230
1.0
 70
    12
 71
     2
 72
     6
 73
     3
 74
     0
 42
0.000000001
 43
0.0000000001
 40
-5.654573080352872
 40
-5.654573080352872
 40
-5.654573080352872
 40
0.0
 40
0.0
 40
0.0
 10
1478.034218705653
 20
329.968291823255
 30
4.185207900610024
 41
1.0
 10
1467.202047203054
 20
401.0848725457017
 30
4.185207900610024
 41
0.9967681786255456
 10
1445.120598092406
 20
469.549382888696
 30
4.185207900610024
 41
1.0
  0
SPLINE
  5
452
330
1F
100
AcDbEntity
  8
Default
100
AcDbSpline
210
0.0
220
0.0
230
1.0
 70
    12
 71
     2
 72
     6
 73
     3
 74
     0
 42
0.000000001
 43
0.0000000001
 40
0.0
 40
0.0
 40
0.0
 40
0.443505275079806
 40
0.443505275079806
 40
0.443505275079806
 10
1471.286094243594
 20
243.4309379577022
 30
4.185207900610024
 41
1.0
 10
1465.435605718391
 20
243.2383900304841
 30
4.185207900610024
 41
0.9799943751373794
 10
1460.112458881156
 20
245.2950024688113
 30
4.185207900610024
 41
1.0
  0
SPLINE
  5
453
330
1F
100
AcDbEntity
  8
Default
100
AcDbSpline
210
0.0
220
0.0
230
1.0
 70
     8
 71
     3
 72
    12
 73
     8
 74
     0
 42
0.000000001
 43
0.0000000001
 40
0.0
 40
0.0
 40
0.0
 40
0.0
 40
0.8495817757806477
 40
1.391422022197968
 40
2.191064820612614
 40
2.689385262996221
 40
3.111933853859593
 40
3.111933853859593
 40
3.111933853859593
 40
3.111933853859593
 10
1480.321086405686
 20
315.2699916760244
 30
4.185207900610024
 10
1481.307069454329
 20
308.1212712743556
 30
4.185207900610024
 10
1483.198797618456
 20
296.5512610123042
 30
4.185207900610024
 10
1485.166945724583
 20
278.0533278907314
 30
4.185207900610024
 10
1485.947101353513
 20
262.5414752138635
 30
4.185207900610024
 10
1482.551996661076
 20
247.944406627272
 30
4.185207900610024
 10
1474.972683066615
 20
243.4608348214189
 30
4.185207900610024
 10
1471.286094243594
 20
243.4309379577022
 30
4.185207900610024
  0
SPLINE
  5
454
330
1F
100
AcDbEntity
  8
Default
100
AcDbSpline
210
0.0
220
0.0
230
1.0
 70
    12
 71
     2
 72
     6
 73
     3
 74
     0
 42
0.000000001
 43
0.0000000001
 40
-6.233889429224446
 40
-6.233889429224446
 40
-6.233889429224446
 40
0.0
 40
0.0
 40
0.0
 10
1443.488750954253
 20
469.0191636122691
 30
4.185207900610024
 41
1.0
 10
1468.136718494843
 20
393.6372576943957
 30
4.185207900610024
 41
0.996730330589404
 10
1480.321086405686
 20
315.2699916760244
 30
4.185207900610024
 41
1.0
  0
SPLINE
  5
455
330
1F
100
AcDbEntity
  8
Default
100
AcDbSpline
210
0.0
220
0.0
230
1.0
 70
    12
 71
     2
 72
     6
 73
     3
 74
     0
 42
0.000000001
 43
0.0000000001
 40
0.0
 40
0.0
 40
0.0
 40
6.233889429224446
 40
6.233889429224446
 40
6.233889429224446
 10
1382.915603944614
 20
615.0532414770821
 30
4.185207900610024
 41
0.9999999519924591
 10
1419.121182462396
 20
544.4915624958735
 30
4.185207900610024
 41
0.9967303545933507
 10
1443.488750954253
 20
469.0191636122691
 30
4.185207900610024
 41
1.0
  0
SPLINE
  5
456
330
1F
100
AcDbEntity
  8
Default
100
AcDbSpline
210
0.0
220
0.0
230
1.0
 70
     8
 71
     3
 72
    12
 73
     8
 74
     0
 42
0.000000001
 43
0.0000000001
 40
-3.111933853859593
 40
-3.111933853859593
 40
-3.111933853859593
 40
-3.111933853859593
 40
-2.689379093202719
 40
-2.191051374651839
 40
-1.391396900347014
 40
-0.8495487423131249
 40
0.0
 40
0.0
 40
0.0
 40
0.0
 10
1333.380568911095
 20
667.860502959037
 30
4.185207900610024
 10
1336.380654855775
 20
670.0032384296499
 30
4.185207900610024
 10
1345.147825744465
 20
670.8309613965379
 30
4.185207900610024
 10
1356.47446478023
 20
661.0172773101327
 30
4.185207900610024
 10
1364.960943857364
 20
648.0093609071275
 30
4.185207900610024
 10
1374.241298420651
 20
631.8877045545353
 30
4.185207900610024
 10
1379.511387838618
 20
621.4157893347556
 30
4.185207900610024
 10
1382.915603944613
 20
615.053241477082
 30
4.185207900610024
  0
SPLINE
  5
457
330
1F
100
AcDbEntity
  8
Default
100
AcDbSpline
210
0.0
220
0.0
230
1.0
 70
    12
 71
     2
 72
     6
 73
     3
 74
     0
 42
0.000000001
 43
0.0000000001
 40
-0.443505275079806
 40
-0.443505275079806
 40
-0.443505275079806
 40
0.0
 40
0.0
 40
0.0
 10
1325.436577642886
 20
659.784745010404
 30
4.185207900610024
 41
1.0
 10
1328.534247436833
 20
664.5774466305676
 30
4.185207900610024
 41
0.9799943751373794
 10
1333.380568911095
 20
667.860502959037
 30
4.185207900610024
 41
1.0
  0
SPLINE
  5
458
330
1F
100
AcDbEntity
  8
Default
100
AcDbSpline
210
0.0
220
0.0
230
1.0
 70
     8
 71
     3
 72
    19
 73
    15
 74
     0
 42
0.000000001
 43
0.0000000001
 40
0.0
 40
0.0
 40
0.0
 40
0.0
 40
1.0
 40
2.0
 40
3.0
 40
4.0
 40
5.0
 40
6.0
 40
7.0
 40
8.0
 40
9.0
 40
10.0
 40
11.0
 40
12.0
 40
12.0
 40
12.0
 40
12.0
 10
1430.747091182611
 20
464.8791473897643
 30
4.185207900610024
 10
1428.790297797388
 20
470.8988937414281
 30
4.185207900610024
 10
1424.812082396764
 20
482.9174410817742
 30
4.185207900610024
 10
1418.617836240169
 20
500.8686554006579
 30
4.185207900610024
 10
1412.163884312017
 20
518.7282778045356
 30
4.185207900610024
 10
1405.417933013362
 20
536.4798744264106
 30
4.185207900610024
 10
1398.348150639239
 20
554.1049685616273
 30
4.185207900610024
 10
1390.92404894793
 20
571.5847642173606
 30
4.185207900610024
 10
1383.10935524332
 20
588.8908581220948
 30
4.185207900610024
 10
1374.887285473532
 20
606.0177284147731
 30
4.185207900610024
 10
1366.16737859514
 20
622.8599468853615
 30
4.185207900610024
 10
1357.127615864001
 20
639.6656689736146
 30
4.185207900610024
 10
1347.17199686218
 20
655.4702313664976
 30
4.185207900610024
 10
1339.34482191422
 20
666.4026473928331
 30
4.185207900610024
 10
1333.25895927189
 20
667.783236407222
 30
4.185207900610024
  0
SPLINE
  5
459
330
1F
100
AcDbEntity
  8
Default
100
AcDbSpline
210
0.0
220
0.0
230
1.0
 70
     8
 71
     3
 72
    19
 73
    15
 74
     0
 42
0.000000001
 43
0.0000000001
 40
-12.0
 40
-12.0
 40
-12.0
 40
-12.0
 40
-11.0
 40
-10.0
 40
-9.0
 40
-8.0
 40
-7.0
 40
-6.0
 40
-5.0
 40
-4.0
 40
-3.0
 40
-2.0
 40
-1.0
 40
0.0
 40
0.0
 40
0.0
 40
0.0
 10
1471.141566871272
 20
243.4242049358083
 30
4.185207900610024
 10
1475.253643312214
 20
248.1183052193355
 30
4.185207900610024
 10
1475.160047950854
 20
261.5635135757422
 30
4.185207900610024
 10
1473.924624219376
 20
280.2014391669568
 30
4.185207900610024
 10
1471.359790296383
 20
299.1109931566827
 30
4.185207900610024
 10
1468.51473551747
 20
317.8620667868471
 30
4.185207900610024
 10
1465.099607914202
 20
336.55080726808
 30
4.185207900610024
 10
1461.249561155076
 20
355.1450930540114
 30
4.185207900610024
 10
1456.981419491786
 20
373.6503222833716
 30
4.185207900610024
 10
1452.341223176038
 20
392.0648367826473
 30
4.185207900610024
 10
1447.364685720892
 20
410.3913508130657
 30
4.185207900610024
 10
1442.088419851134
 20
428.6336266132947
 30
4.185207900610024
 10
1436.54821122178
 20
446.7973506068539
 30
4.185207900610024
 10
1432.702330207535
 20
458.8588959958238
 30
4.185207900610024
 10
1430.747091182611
 20
464.8791473897643
 30
4.185207900610024
  0
SPLINE
  5
45A
330
1F
100
AcDbEntity
  8
Default
100
AcDbSpline
210
0.0
220
0.0
230
1.0
 70
     8
 71
     3
 72
    22
 73
    18
 74
     0
 42
0.000000001
 43
0.0000000001
 40
0.0
 40
0.0
 40
0.0
 40
0.0
 40
0.2588469591229587
 40
0.6477254461891114
 40
1.024641027840087
 40
1.817983982162573
 40
2.582167143679937
 40
4.062052734317923
 40
7.850412104674
 40
9.497260537102542
 40
10.543391206404
 40
10.8432833113025
 40
12.15829953678302
 40
13.34949093133962
 40
14.77372714428499
 40
17.25709974516987
 40
21.82793658798906
 40
21.82793658798906
 40
21.82793658798906
 40
21.82793658798906
 10
1421.337680124762
 20
255.2335592034644
 30
4.185207900610024
 10
1419.185580402663
 20
254.7479771086589
 30
4.185207900610024
 10
1414.311132824433
 20
252.1301663858502
 30
4.185207900610024
 10
1407.596387224125
 20
246.6244751839647
 30
4.185207900610024
 10
1398.031673430347
 20
237.5285488002174
 30
4.185207900610024
 10
1386.764067100063
 20
225.6458458055661
 30
4.185207900610024
 10
1368.260321814283
 20
207.7961026015205
 30
4.185207900610024
 10
1330.950420248176
 20
172.9467854189183
 30
4.185207900610024
 10
1286.367699410158
 20
134.9946099022364
 30
4.185207900610024
 10
1243.845924305294
 20
100.3604295257539
 30
4.185207900610024
 10
1224.034566703851
 20
84.57672962535568
 30
4.185207900610024
 10
1206.243161369437
 20
70.75019812822403
 30
4.185207900610024
 10
1185.34665396502
 20
59.19497249007578
 30
4.185207900610024
 10
1154.291423580959
 20
47.26661672145024
 30
4.185207900610024
 10
1113.070744814676
 20
34.3568733190517
 30
4.185207900610024
 10
1042.370335546566
 20
20.98325932786256
 30
4.185207900610024
 10
981.8256156846292
 20
25.16954133314104
 30
4.185207900610024
 10
944.6626541035975
 20
36.21708281236059
 30
4.185207900610024
  0
SPLINE
  5
45B
330
1F
100
AcDbEntity
  8
Default
100
AcDbSpline
210
0.0
220
0.0
230
1.0
 70
    12
 71
     2
 72
     6
 73
     3
 74
     0
 42
0.000000001
 43
0.0000000001
 40
0.0
 40
0.0
 40
0.0
 40
0.0586712320260919
 40
0.0586712320260919
 40
0.0586712320260919
 10
687.2227448937334
 20
223.29220585787
 30
4.185207900610024
 41
1.0
 10
686.9924234640978
 20
224.0046347530223
 30
4.185207900610024
 41
0.9921343149382712
 10
686.946277823905
 20
224.7519455795786
 30
4.185207900610024
 41
1.0
  0
SPLINE
  5
45C
330
1F
100
AcDbEntity
  8
Default
100
AcDbSpline
210
0.0
220
0.0
230
1.0
 70
    24
 71
     2
 72
     6
 73
     3
 74
     0
 42
0.000000001
 43
0.0000000001
 40
0.0
 40
0.0
 40
0.0
 40
0.0114467396849787
 40
0.0114467396849787
 40
0.0114467396849787
 10
687.2227448937334
 20
223.29220585787
 30
4.185207900610024
 10
687.0845468906375
 20
223.2473025358191
 30
4.185207900610024
 10
686.9463488875415
 20
223.202399213768
 30
4.185207900610024
  0
SPLINE
  5
45D
330
1F
100
AcDbEntity
  8
Default
100
AcDbSpline
210
0.0
220
0.0
230
1.0
 70
    12
 71
     2
 72
     6
 73
     3
 74
     0
 42
0.000000001
 43
0.0000000001
 40
0.0
 40
0.0
 40
0.0
 40
0.0587632096241838
 40
0.0587632096241838
 40
0.0587632096241838
 10
687.8583498197676
 20
221.946763468326
 30
4.185207900610024
 41
1.0
 10
687.45554472488
 20
222.579320054778
 30
4.185207900610024
 41
0.9921107855315545
 10
687.2227494573715
 20
223.2921918124995
 30
4.185207900610024
 41
1.0
  0
SPLINE
  5
45E
330
1F
100
AcDbEntity
  8
Default
100
AcDbSpline
210
0.0
220
0.0
230
1.0
 70
    12
 71
     2
 72
     6
 73
     3
 74
     0
 42
0.000000001
 43
0.0000000001
 40
-0.1297405451143296
 40
-0.1297405451143296
 40
-0.1297405451143296
 40
0.0
 40
0.0
 40
0.0
 10
1155.934532281389
 20
13.34574252148575
 30
4.185207900610024
 41
0.9999960316975588
 10
1155.453616933252
 20
14.92095004815408
 30
4.185207900610024
 41
0.999996865512317
 10
1154.977482331633
 20
16.49760922669785
 30
4.185207900610024
 41
1.0
  0
ARC
  5
45F
330
1F
100
AcDbEntity
  8
Default
100
AcDbCircle
 10
1168.075741279887
 20
17.052488238133
 30
4.185207900610024
 40
12.69444444444444
100
AcDbArc
 50
196.9775798079558
 51
209.7179678781666
  0
SPLINE
  5
460
330
1F
100
AcDbEntity
  8
Default
100
AcDbSpline
210
0.0
220
0.0
230
1.0
 70
     8
 71
     3
 72
    14
 73
    10
 74
     0
 42
0.000000001
 43
0.0000000001
 40
-7.0
 40
-7.0
 40
-7.0
 40
-7.0
 40
-6.0
 40
-5.0
 40
-4.0
 40
-3.0
 40
-2.0
 40
-1.0
 40
-0.2482205602640466
 40
-0.2482205602640466
 40
-0.2482205602640466
 40
-0.2482205602640466
 10
1155.461078183433
 20
-15.23489646708077
 30
4.185207900610024
 10
1156.833766879875
 20
-14.80243096988273
 30
4.185207900610024
 10
1159.087012370858
 20
-12.86313310516761
 30
4.185207900610024
 10
1160.718184314414
 20
-8.837109727441049
 30
4.185207900610024
 10
1161.213032658583
 20
-4.568759501887118
 30
4.185207900610024
 10
1160.93112811469
 20
-0.2890869057049263
 30
4.185207900610024
 10
1160.04980296198
 20
3.90341865879502
 30
4.185207900610024
 10
1158.719689350647
 20
7.603380510743741
 30
4.185207900610024
 10
1157.582051057322
 20
9.828963804314652
 30
4.185207900610024
 10
1157.05091972069
 20
10.75945801883833
 30
4.185207900610024
  0
SPLINE
  5
461
330
1F
100
AcDbEntity
  8
Default
100
AcDbSpline
210
0.0
220
0.0
230
1.0
 70
     8
 71
     3
 72
    14
 73
    10
 74
     0
 42
0.000000001
 43
0.0000000001
 40
0.2772630823298201
 40
0.2772630823298201
 40
0.2772630823298201
 40
0.2772630823298201
 40
1.0
 40
2.0
 40
3.0
 40
4.0
 40
5.0
 40
6.0
 40
7.0
 40
7.0
 40
7.0
 40
7.0
 10
1138.909578984119
 20
4.737091199025476
 30
4.185207900610024
 10
1139.025951755163
 20
3.713660184663182
 30
4.185207900610024
 10
1139.41239973624
 20
1.286450844696257
 30
4.185207900610024
 10
1140.499502470363
 20
-2.448859038203361
 30
4.185207900610024
 10
1142.250788385219
 20
-6.358697216132008
 30
4.185207900610024
 10
1144.538251255093
 20
-9.98672441025932
 30
4.185207900610024
 10
1147.447465289364
 20
-13.14902772185249
 30
4.185207900610024
 10
1151.133548279262
 20
-15.44737024180814
 30
4.185207900610024
 10
1154.096352858647
 20
-15.69187070212388
 30
4.185207900610024
 10
1155.461078183433
 20
-15.23489646708077
 30
4.185207900610024
  0
ARC
  5
462
330
1F
100
AcDbEntity
  8
Default
100
AcDbCircle
 10
1126.296414337745
 20
3.30286759144032
 30
4.185207900610024
 40
12.69444444444444
100
AcDbArc
 50
6.487152173534946
 51
18.94225522513256
  0
SPLINE
  5
463
330
1F
100
AcDbEntity
  8
Default
100
AcDbSpline
210
0.0
220
0.0
230
1.0
 70
    12
 71
     2
 72
     6
 73
     3
 74
     0
 42
0.000000001
 43
0.0000000001
 40
0.0
 40
0.0
 40
0.0
 40
0.1369528492222414
 40
0.1369528492222414
 40
0.1369528492222414
 10
1137.21250889138
 20
10.7254194529051
 30
4.185207900610024
 41
1.0
 10
1137.78413904211
 20
9.083573638521224
 30
4.185207900610024
 41
0.9999966913238282
 10
1138.303406564487
 20
7.423675451559905
 30
4.185207900610024
 41
0.9999959461296658
  0
SPLINE
  5
464
330
1F
100
AcDbEntity
  8
Default
100
AcDbSpline
210
0.0
220
0.0
230
1.0
 70
     8
 71
     3
 72
    12
 73
     8
 74
     0
 42
0.000000001
 43
0.0000000001
 40
-1.014583801502342
 40
-1.014583801502342
 40
-1.014583801502342
 40
-1.014583801502342
 40
-0.8249401141264362
 40
-0.5900965017365678
 40
-0.3037660471064116
 40
-0.1510110321465192
 40
0.0
 40
0.0
 40
0.0
 40
0.0
 10
1155.579865088614
 20
-15.60052576704882
 30
4.185207900610024
 10
1157.143529693784
 20
-15.12592255239181
 30
4.185207900610024
 10
1159.866757040464
 20
-12.5127075966005
 30
4.185207900610024
 10
1161.544588470087
 20
-6.605637273480555
 30
4.185207900610024
 10
1161.292822332759
 20
-0.8640065134895065
 30
4.185207900610024
 10
1160.167174462927
 20
4.014512741796082
 30
4.185207900610024
 10
1159.279941656649
 20
6.43047929009496
 30
4.185207900610024
 10
1158.76800999949
 20
7.602125257081648
 30
4.185207900610024
  0
SPLINE
  5
465
330
1F
100
AcDbEntity
  8
Default
100
AcDbSpline
210
0.0
220
0.0
230
1.0
 70
     8
 71
     3
 72
    12
 73
     8
 74
     0
 42
0.000000001
 43
0.0000000001
 40
0.0
 40
0.0
 40
0.0
 40
0.0
 40
0.1510110321465192
 40
0.3037660471064116
 40
0.5900965017365678
 40
0.8249401141264362
 40
1.014583801502342
 40
1.014583801502342
 40
1.014583801502342
 40
1.014583801502342
 10
1139.362425589113
 20
1.296868665239822
 30
4.185207900610024
 10
1139.636940398816
 20
0.0480812882972178
 30
4.185207900610024
 10
1140.339223487692
 20
-2.427979065998196
 30
4.185207900610024
 10
1142.296076902597
 20
-7.036423268071695
 30
4.185207900610024
 10
1145.467239703722
 20
-11.82948455087825
 30
4.185207900610024
 10
1150.296722664168
 20
-15.6222002590853
 30
4.185207900610024
 10
1154.035869079263
 20
-16.13566269525703
 30
4.185207900610024
 10
1155.579865088614
 20
-15.60052576704882
 30
4.185207900610024
  0
SPLINE
  5
466
330
1F
100
AcDbEntity
  8
Default
100
AcDbSpline
210
0.0
220
0.0
230
1.0
 70
    12
 71
     2
 72
     6
 73
     3
 74
     0
 42
0.000000001
 43
0.0000000001
 40
0.0
 40
0.0
 40
0.0
 40
0.0853474550214741
 40
0.0853474550214741
 40
0.0853474550214741
 10
1159.114458619139
 20
6.779112978894286
 30
4.185207900610024
 41
1.0
 10
1159.520707161892
 20
5.774252009085576
 30
4.185207900610024
 41
0.9993970637774639
 10
1159.856239875267
 20
4.743620530142965
 30
4.185207900610024
 41
1.0
  0
SPLINE
  5
467
330
1F
100
AcDbEntity
  8
Default
100
AcDbSpline
210
0.0
220
0.0
230
1.0
 70
    12
 71
     2
 72
     6
 73
     3
 74
     0
 42
0.000000001
 43
0.0000000001
 40
0.0
 40
0.0
 40
0.0
 40
0.0853474550214741
 40
0.0853474550214741
 40
0.0853474550214741
 10
709.2993565138677
 20
219.6591526946772
 30
4.185207900610024
 41
1.0
 10
708.294495544059
 20
219.2529041519248
 30
4.185207900610024
 41
0.9993970637774639
 10
707.2638640651163
 20
218.9173714385486
 30
4.185207900610024
 41
1.0
  0
SPLINE
  5
468
330
1F
100
AcDbEntity
  8
Default
100
AcDbSpline
210
0.0
220
0.0
230
1.0
 70
    12
 71
     2
 72
     6
 73
     3
 74
     0
 42
0.000000001
 43
0.0000000001
 40
-0.1297405451143296
 40
-0.1297405451143296
 40
-0.1297405451143296
 40
0.0
 40
0.0
 40
0.0
 10
715.865986056459
 20
222.8390790324269
 30
4.185207900610024
 41
0.9999960316975588
 10
717.4411935831273
 20
223.3199943805633
 30
4.185207900610024
 41
0.999996865512317
 10
719.0178527616713
 20
223.7961289821828
 30
4.185207900610024
 41
1.0
  0
ARC
  5
469
330
1F
100
AcDbEntity
  8
Default
100
AcDbCircle
 10
719.5727317731065
 20
210.6978700339292
 30
4.185207900610024
 40
12.69444444444444
100
AcDbArc
 50
106.9775798079559
 51
119.7179678781667
  0
SPLINE
  5
46A
330
1F
100
AcDbEntity
  8
Default
100
AcDbSpline
210
0.0
220
0.0
230
1.0
 70
     8
 71
     3
 72
    14
 73
    10
 74
     0
 42
0.000000001
 43
0.0000000001
 40
-7.0
 40
-7.0
 40
-7.0
 40
-7.0
 40
-6.0
 40
-5.0
 40
-4.0
 40
-3.0
 40
-2.0
 40
-1.0
 40
-0.2482205602640466
 40
-0.2482205602640466
 40
-0.2482205602640466
 40
-0.2482205602640466
 10
687.2853470678924
 20
223.3125331303829
 30
4.185207900610024
 10
687.7178125650906
 20
221.9398444339407
 30
4.185207900610024
 10
689.6571104298057
 20
219.6865989429589
 30
4.185207900610024
 10
693.6831338075323
 20
218.0554269994019
 30
4.185207900610024
 10
697.951484033086
 20
217.5605786552328
 30
4.185207900610024
 10
702.2311566292684
 20
217.8424831991267
 30
4.185207900610024
 10
706.4236621937685
 20
218.7238083518356
 30
4.185207900610024
 10
710.1236240457169
 20
220.0539219631692
 30
4.185207900610024
 10
712.3492073392878
 20
221.191560256494
 30
4.185207900610024
 10
713.2797015538114
 20
221.722691593126
 30
4.185207900610024
  0
SPLINE
  5
46B
330
1F
100
AcDbEntity
  8
Default
100
AcDbSpline
210
0.0
220
0.0
230
1.0
 70
     8
 71
     3
 72
    14
 73
    10
 74
     0
 42
0.000000001
 43
0.0000000001
 40
0.2772630823298201
 40
0.2772630823298201
 40
0.2772630823298201
 40
0.2772630823298201
 40
1.0
 40
2.0
 40
3.0
 40
4.0
 40
5.0
 40
6.0
 40
7.0
 40
7.0
 40
7.0
 40
7.0
 10
707.2573347339988
 20
239.8640323296972
 30
4.185207900610024
 10
706.2339037196363
 20
239.7476595586529
 30
4.185207900610024
 10
703.8066943796695
 20
239.3612115775761
 30
4.185207900610024
 10
700.0713844967702
 20
238.2741088434531
 30
4.185207900610024
 10
696.1615463188413
 20
236.5228229285973
 30
4.185207900610024
 10
692.5335191247139
 20
234.2353600587228
 30
4.185207900610024
 10
689.3712158131208
 20
231.326146024452
 30
4.185207900610024
 10
687.0728732931651
 20
227.6400630345543
 30
4.185207900610024
 10
686.8283728328492
 20
224.6772584551695
 30
4.185207900610024
 10
687.2853470678924
 20
223.3125331303829
 30
4.185207900610024
  0
ARC
  5
46C
330
1F
100
AcDbEntity
  8
Default
100
AcDbCircle
 10
705.8231111264137
 20
252.477196976071
 30
4.185207900610024
 40
12.69444444444444
100
AcDbArc
 50
276.487152173535
 51
288.9422552251318
  0
SPLINE
  5
46D
330
1F
100
AcDbEntity
  8
Default
100
AcDbSpline
210
0.0
220
0.0
230
1.0
 70
    12
 71
     2
 72
     6
 73
     3
 74
     0
 42
0.000000001
 43
0.0000000001
 40
0.0
 40
0.0
 40
0.0
 40
0.1369528492222414
 40
0.1369528492222414
 40
0.1369528492222414
 10
713.2456629878787
 20
241.5611024224359
 30
4.185207900610024
 41
1.0
 10
711.6038171734938
 20
240.9894722717059
 30
4.185207900610024
 41
0.9999966913238282
 10
709.9439189865334
 20
240.4702047493284
 30
4.185207900610024
 41
0.9999959461296658
  0
SPLINE
  5
46E
330
1F
100
AcDbEntity
  8
Default
100
AcDbSpline
210
0.0
220
0.0
230
1.0
 70
     8
 71
     3
 72
    12
 73
     8
 74
     0
 42
0.000000001
 43
0.0000000001
 40
-1.014583801502342
 40
-1.014583801502342
 40
-1.014583801502342
 40
-1.014583801502342
 40
-0.8249401141264362
 40
-0.5900965017365678
 40
-0.3037660471064116
 40
-0.1510110321465192
 40
0.0
 40
0.0
 40
0.0
 40
0.0
 10
686.9197177679246
 20
223.1937462252016
 30
4.185207900610024
 10
687.3943209825816
 20
221.630081620032
 30
4.185207900610024
 10
690.0075359383723
 20
218.906854273351
 30
4.185207900610024
 10
695.9146062614929
 20
217.2290228437288
 30
4.185207900610024
 10
701.6562370214837
 20
217.4807889810565
 30
4.185207900610024
 10
706.5347562767697
 20
218.606436850889
 30
4.185207900610024
 10
708.9507228250684
 20
219.493669657167
 30
4.185207900610024
 10
710.1223687920549
 20
220.0056013143257
 30
4.185207900610024
  0
SPLINE
  5
46F
330
1F
100
AcDbEntity
  8
Default
100
AcDbSpline
210
0.0
220
0.0
230
1.0
 70
     8
 71
     3
 72
    12
 73
     8
 74
     0
 42
0.000000001
 43
0.0000000001
 40
0.0
 40
0.0
 40
0.0
 40
0.0
 40
0.1510110321465192
 40
0.3037660471064116
 40
0.5900965017365678
 40
0.8249401141264362
 40
1.014583801502342
 40
1.014583801502342
 40
1.014583801502342
 40
1.014583801502342
 10
703.817112200213
 20
239.4111857247032
 30
4.185207900610024
 10
702.5683248232703
 20
239.1366709150004
 30
4.185207900610024
 10
700.0922644689751
 20
238.4343878261245
 30
4.185207900610024
 10
695.4838202669016
 20
236.477534411219
 30
4.185207900610024
 10
690.690758984095
 20
233.3063716100938
 30
4.185207900610024
 10
686.8980432758875
 20
228.4768886496478
 30
4.185207900610024
 10
686.3845808397165
 20
224.7377422345528
 30
4.185207900610024
 10
686.9197177679246
 20
223.1937462252016
 30
4.185207900610024
  0
ENDSEC
  0
SECTION
  2
OBJECTS
  0
DICTIONARY
  5
C
330
0
100
AcDbDictionary
281
     1
  3
ACAD_BACKGROUND
350
11E
  3
ACAD_CIP_PREVIOUS_PRODUCT_INFO
350
11D
  3
ACAD_COLOR
350
101
  3
ACAD_DETAILVIEWSTYLE
350
118
  3
ACAD_GROUP
350
D
  3
ACAD_LAYOUT
350
1A
  3
ACAD_MATERIAL
350
DE
  3
ACAD_MLEADERSTYLE
350
DC
  3
ACAD_MLINESTYLE
350
17
  3
ACAD_PLOTSETTINGS
350
19
  3
ACAD_PLOTSTYLENAME
350
E
  3
ACAD_SCALELIST
350
103
  3
ACAD_SECTIONVIEWSTYLE
350
116
  3
ACAD_TABLESTYLE
350
DB
  3
ACAD_VISUALSTYLE
350
2A
  3
ACDB_RECOMPOSE_DATA
350
4B6
  3
AcDbVariableDictionary
350
3AE
  0
DICTIONARY
  5
474
330
2
100
AcDbDictionary
280
     1
281
     1
  3
ACAD_LAYERSTATES
360
475
  0
DICTIONARY
  5
121
330
10
100
AcDbDictionary
280
     1
281
     1
  3
ADSK_XREC_LAYER_RECONCILED
360
122
  0
DICTIONARY
  5
123
330
3B
100
AcDbDictionary
280
     1
281
     1
  3
ADSK_XREC_LAYER_RECONCILED
360
124
  0
DICTIONARY
  5
363
330
1F
100
AcDbDictionary
280
     1
281
     1
  3
ACAD_SORTENTS
360
364
  0
DICTIONARY
  5
11E
102
{ACAD_REACTORS
330
C
102
}
330
C
100
AcDbDictionary
281
     1
  0
XRECORD
  5
11D
102
{ACAD_REACTORS
330
C
102
}
330
C
100
AcDbXrecord
280
     1
300
ACD
300
2016
300
ACD_F_S
  0
DICTIONARY
  5
101
102
{ACAD_REACTORS
330
C
102
}
330
C
100
AcDbDictionary
281
     1
  0
DICTIONARY
  5
118
102
{ACAD_REACTORS
330
C
102
}
330
C
100
AcDbDictionary
281
     1
  3
Imperial24
350
119
  0
DICTIONARY
  5
D
102
{ACAD_REACTORS
330
C
102
}
330
C
100
AcDbDictionary
281
     1
  0
DICTIONARY
  5
1A
102
{ACAD_REACTORS
330
C
102
}
330
C
100
AcDbDictionary
281
     1
  3
Layout1
350
1E
  3
Layout2
350
26
  3
Model
350
22
  0
DICTIONARY
  5
DE
102
{ACAD_REACTORS
330
C
102
}
330
C
100
AcDbDictionary
281
     1
  3
ByBlock
350
E7
  3
ByLayer
350
DF
  3
Global
350
EF
  0
DICTIONARY
  5
DC
102
{ACAD_REACTORS
330
C
102
}
330
C
100
AcDbDictionary
281
     1
  3
Standard
350
115
  0
DICTIONARY
  5
17
102
{ACAD_REACTORS
330
C
102
}
330
C
100
AcDbDictionary
281
     1
  3
Standard
350
18
  0
DICTIONARY
  5
19
102
{ACAD_REACTORS
330
C
102
}
330
C
100
AcDbDictionary
281
     1
  0
ACDBDICTIONARYWDFLT
  5
E
102
{ACAD_REACTORS
330
C
102
}
330
C
100
AcDbDictionary
281
     1
  3
Normal
350
F
100
AcDbDictionaryWithDefault
340
F
  0
DICTIONARY
  5
103
102
{ACAD_REACTORS
330
C
102
}
330
C
100
AcDbDictionary
281
     1
  3
A0
350
104
  3
A1
350
105
  3
A2
350
106
  3
A3
350
107
  3
A4
350
108
  3
A5
350
109
  3
A6
350
10A
  3
A7
350
10B
  3
A8
350
10C
  3
A9
350
10D
  3
B0
350
10E
  3
B1
350
10F
  3
B2
350
110
  3
B3
350
111
  3
B4
350
112
  3
B5
350
113
  3
B6
350
114
  0
DICTIONARY
  5
116
102
{ACAD_REACTORS
330
C
102
}
330
C
100
AcDbDictionary
281
     1
  3
Imperial24
350
117
  0
DICTIONARY
  5
DB
102
{ACAD_REACTORS
330
C
102
}
330
C
100
AcDbDictionary
281
     1
  3
Standard
350
102
  0
DICTIONARY
  5
2A
102
{ACAD_REACTORS
330
C
102
}
330
C
100
AcDbDictionary
281
     1
  3
2dWireframe
350
2F
  3
3D Hidden
350
31
  3
3dWireframe
350
30
  3
Basic
350
32
  3
Brighten
350
36
  3
ColorChange
350
3A
  3
Conceptual
350
34
  3
Dim
350
35
  3
EdgeColorOff
350
100
  3
Facepattern
350
39
  3
Flat
350
2B
  3
FlatWithEdges
350
2C
  3
Gouraud
350
2D
  3
GouraudWithEdges
350
2E
  3
Hidden
350
F8
  3
JitterOff
350
FE
  3
Linepattern
350
38
  3
OverhangOff
350
FF
  3
Realistic
350
33
  3
Shaded
350
FD
  3
Shaded with edges
350
FC
  3
Shades of Gray
350
F9
  3
Sketchy
350
FA
  3
Thicken
350
37
  3
Wireframe
350
F7
  3
X-Ray
350
FB
  0
XRECORD
  5
4B6
102
{ACAD_REACTORS
330
C
102
}
330
C
100
AcDbXrecord
280
     1
 90
        1
330
102
330
117
330
119
  0
DICTIONARY
  5
3AE
102
{ACAD_REACTORS
330
C
102
}
330
C
100
AcDbDictionary
281
     1
  3
CANNOSCALE
350
499
  3
CMLEADERSTYLE
350
495
  3
CTABLESTYLE
350
494
  3
CVIEWDETAILSTYLE
350
496
  3
CVIEWSECTIONSTYLE
350
497
  3
LAYEREVAL
350
49B
  3
LAYERNOTIFY
350
49C
  3
LIGHTINGUNITS
350
49A
  3
MSLTSCALE
350
498
  0
DICTIONARY
  5
475
102
{ACAD_REACTORS
330
474
102
}
330
474
100
AcDbDictionary
281
     1
  0
XRECORD
  5
122
102
{ACAD_REACTORS
330
121
102
}
330
121
100
AcDbXrecord
280
     1
290
     1
  0
XRECORD
  5
124
102
{ACAD_REACTORS
330
123
102
}
330
123
100
AcDbXrecord
280
     1
290
     1
  0
SORTENTSTABLE
  5
364
102
{ACAD_REACTORS
330
363
102
}
330
363
100
AcDbSortentsTable
330
1F
331
351
  5
351
331
2DA
  5
2DA
331
2CE
  5
2CE
331
357
  5
357
331
354
  5
354
331
2AA
  5
2AA
331
35A
  5
35A
331
34B
  5
34B
331
2D4
  5
2D4
331
35D
  5
35D
331
34E
  5
34E
331
2D7
  5
2D7
331
2AD
  5
2AD
331
2D1
  5
2D1
331
350
  5
350
331
2CA
  5
2CA
331
353
  5
353
331
2DC
  5
2DC
331
356
  5
356
331
2D0
  5
2D0
331
359
  5
359
331
34A
  5
34A
331
2D3
  5
2D3
331
2AC
  5
2AC
331
35C
  5
35C
331
2A9
  5
2A9
331
2CD
  5
2CD
331
2D9
  5
2D9
331
2D6
  5
2D6
331
2AF
  5
2AF
331
34D
  5
34D
331
2D8
  5
2D8
331
352
  5
352
331
2DB
  5
2DB
331
355
  5
355
331
2CF
  5
2CF
331
2A8
  5
2A8
331
2CC
  5
2CC
331
2D2
  5
2D2
331
2AB
  5
2AB
331
35B
  5
35B
331
34C
  5
34C
331
358
  5
358
331
2C9
  5
2C9
331
2AE
  5
2AE
331
35E
  5
35E
331
34F
  5
34F
331
2D5
  5
2D5
  0
ACDBDETAILVIEWSTYLE
  5
119
102
{ACAD_XDICTIONARY
360
491
102
}
102
{ACAD_REACTORS
330
118
102
}
330
118
100
AcDbModelDocViewStyle
 70
     0
  3
Imperial24
290
     0
100
AcDbDetailViewStyle
 70
     0
 71
     0
 90
        3
 71
     1
340
11
 62
   256
 40
0.24
340
0
 62
   256
 40
0.24
300

 40
0.36
280
     3
 71
     2
340
16
 90
       25
 62
   256
 71
     3
340
11
 62
   256
 40
0.24
 90
        1
 40
0.75
 90
        1
300
%<\AcVar ViewType \f "%tc1">% %<\AcVar ViewDetailId>%\PSCALE %<\AcVar ViewScale \f "%sn">%
 71
     4
340
16
 90
       25
 62
   256
340
16
 90
       25
 62
   256
280
     0
  0
LAYOUT
  5
1E
102
{ACAD_REACTORS
330
1A
102
}
330
1A
100
AcDbPlotSettings
  1

  2
none_device
  4

  6

 40
0.0
 41
0.0
 42
0.0
 43
0.0
 44
0.0
 45
0.0
 46
0.0
 47
0.0
 48
0.0
 49
0.0
140
0.0
141
0.0
142
1.0
143
1.0
 70
   688
 72
     0
 73
     0
 74
     5
  7

 75
    16
147
1.0
 76
     0
 77
     2
 78
   300
148
0.0
149
0.0
100
AcDbLayout
  1
Layout1
 70
     1
 71
     1
 10
0.0
 20
0.0
 11
12.0
 21
9.0
 12
0.0
 22
0.0
 32
0.0
 14
1.000000000000000E+20
 24
1.000000000000000E+20
 34
1.000000000000000E+20
 15
-1.000000000000000E+20
 25
-1.000000000000000E+20
 35
-1.000000000000000E+20
146
0.0
 13
0.0
 23
0.0
 33
0.0
 16
1.0
 26
0.0
 36
0.0
 17
0.0
 27
1.0
 37
0.0
 76
     0
330
1B
  0
LAYOUT
  5
26
102
{ACAD_REACTORS
330
1A
102
}
330
1A
100
AcDbPlotSettings
  1

  2
none_device
  4

  6

 40
0.0
 41
0.0
 42
0.0
 43
0.0
 44
0.0
 45
0.0
 46
0.0
 47
0.0
 48
0.0
 49
0.0
140
0.0
141
0.0
142
1.0
143
1.0
 70
   688
 72
     0
 73
     0
 74
     5
  7

 75
    16
147
1.0
 76
     0
 77
     2
 78
   300
148
0.0
149
0.0
100
AcDbLayout
  1
Layout2
 70
     1
 71
     2
 10
0.0
 20
0.0
 11
0.0
 21
0.0
 12
0.0
 22
0.0
 32
0.0
 14
0.0
 24
0.0
 34
0.0
 15
0.0
 25
0.0
 35
0.0
146
0.0
 13
0.0
 23
0.0
 33
0.0
 16
1.0
 26
0.0
 36
0.0
 17
0.0
 27
1.0
 37
0.0
 76
     0
330
23
  0
LAYOUT
  5
22
102
{ACAD_REACTORS
330
1A
102
}
330
1A
100
AcDbPlotSettings
  1

  2
none_device
  4

  6

 40
0.0
 41
0.0
 42
0.0
 43
0.0
 44
0.0
 45
0.0
 46
0.0
 47
0.0
 48
0.0
 49
0.0
140
0.0
141
0.0
142
1.0
143
1.0
 70
  1712
 72
     0
 73
     0
 74
     0
  7

 75
     0
147
1.0
 76
     0
 77
     2
 78
   300
148
0.0
149
0.0
100
AcDbLayout
  1
Model
 70
     1
 71
     0
 10
0.0
 20
0.0
 11
12.0
 21
9.0
 12
0.0
 22
0.0
 32
0.0
 14
1.000000000000000E+20
 24
1.000000000000000E+20
 34
1.000000000000000E+20
 15
-1.000000000000000E+20
 25
-1.000000000000000E+20
 35
-1.000000000000000E+20
146
0.0
 13
0.0
 23
0.0
 33
0.0
 16
1.0
 26
0.0
 36
0.0
 17
0.0
 27
1.0
 37
0.0
 76
     0
330
1F
331
29
  0
MATERIAL
  5
E7
102
{ACAD_XDICTIONARY
360
E8
102
}
102
{ACAD_REACTORS
330
DE
102
}
330
DE
100
AcDbMaterial
  1
ByBlock
 72
     0
 43
0.0208333333333333
 43
0.0
 43
0.0
 43
0.0
 43
0.0
 43
0.0208333333333333
 43
0.0
 43
0.0
 43
0.0
 43
0.0
 43
1.0
 43
0.0
 43
0.0
 43
0.0
 43
0.0
 43
1.0
 77
     0
 47
0.0208333333333333
 47
0.0
 47
0.0
 47
0.0
 47
0.0
 47
0.0208333333333333
 47
0.0
 47
0.0
 47
0.0
 47
0.0
 47
1.0
 47
0.0
 47
0.0
 47
0.0
 47
0.0
 47
1.0
171
     0
 49
0.0208333333333333
 49
0.0
 49
0.0
 49
0.0
 49
0.0
 49
0.0208333333333333
 49
0.0
 49
0.0
 49
0.0
 49
0.0
 49
1.0
 49
0.0
 49
0.0
 49
0.0
 49
0.0
 49
1.0
175
     0
142
0.0208333333333333
142
0.0
142
0.0
142
0.0
142
0.0
142
0.0208333333333333
142
0.0
142
0.0
142
0.0
142
0.0
142
1.0
142
0.0
142
0.0
142
0.0
142
0.0
142
1.0
179
     0
144
0.0208333333333333
144
0.0
144
0.0
144
0.0
144
0.0
144
0.0208333333333333
144
0.0
144
0.0
144
0.0
144
0.0
144
1.0
144
0.0
144
0.0
144
0.0
144
0.0
144
1.0
147
0.0208333333333333
147
0.0
147
0.0
147
0.0
147
0.0
147
0.0208333333333333
147
0.0
147
0.0
147
0.0
147
0.0
147
1.0
147
0.0
147
0.0
147
0.0
147
0.0
147
1.0
  0
MATERIAL
  5
DF
102
{ACAD_XDICTIONARY
360
E0
102
}
102
{ACAD_REACTORS
330
DE
102
}
330
DE
100
AcDbMaterial
  1
ByLayer
 72
     0
 43
0.0208333333333333
 43
0.0
 43
0.0
 43
0.0
 43
0.0
 43
0.0208333333333333
 43
0.0
 43
0.0
 43
0.0
 43
0.0
 43
1.0
 43
0.0
 43
0.0
 43
0.0
 43
0.0
 43
1.0
 77
     0
 47
0.0208333333333333
 47
0.0
 47
0.0
 47
0.0
 47
0.0
 47
0.0208333333333333
 47
0.0
 47
0.0
 47
0.0
 47
0.0
 47
1.0
 47
0.0
 47
0.0
 47
0.0
 47
0.0
 47
1.0
171
     0
 49
0.0208333333333333
 49
0.0
 49
0.0
 49
0.0
 49
0.0
 49
0.0208333333333333
 49
0.0
 49
0.0
 49
0.0
 49
0.0
 49
1.0
 49
0.0
 49
0.0
 49
0.0
 49
0.0
 49
1.0
175
     0
142
0.0208333333333333
142
0.0
142
0.0
142
0.0
142
0.0
142
0.0208333333333333
142
0.0
142
0.0
142
0.0
142
0.0
142
1.0
142
0.0
142
0.0
142
0.0
142
0.0
142
1.0
179
     0
144
0.0208333333333333
144
0.0
144
0.0
144
0.0
144
0.0
144
0.0208333333333333
144
0.0
144
0.0
144
0.0
144
0.0
144
1.0
144
0.0
144
0.0
144
0.0
144
0.0
144
1.0
147
0.0208333333333333
147
0.0
147
0.0
147
0.0
147
0.0
147
0.0208333333333333
147
0.0
147
0.0
147
0.0
147
0.0
147
1.0
147
0.0
147
0.0
147
0.0
147
0.0
147
1.0
  0
MATERIAL
  5
EF
102
{ACAD_XDICTIONARY
360
F0
102
}
102
{ACAD_REACTORS
330
DE
102
}
330
DE
100
AcDbMaterial
  1
Global
 72
     0
 43
0.0208333333333333
 43
0.0
 43
0.0
 43
0.0
 43
0.0
 43
0.0208333333333333
 43
0.0
 43
0.0
 43
0.0
 43
0.0
 43
1.0
 43
0.0
 43
0.0
 43
0.0
 43
0.0
 43
1.0
 77
     0
 47
0.0208333333333333
 47
0.0
 47
0.0
 47
0.0
 47
0.0
 47
0.0208333333333333
 47
0.0
 47
0.0
 47
0.0
 47
0.0
 47
1.0
 47
0.0
 47
0.0
 47
0.0
 47
0.0
 47
1.0
171
     0
 49
0.0208333333333333
 49
0.0
 49
0.0
 49
0.0
 49
0.0
 49
0.0208333333333333
 49
0.0
 49
0.0
 49
0.0
 49
0.0
 49
1.0
 49
0.0
 49
0.0
 49
0.0
 49
0.0
 49
1.0
175
     0
142
0.0208333333333333
142
0.0
142
0.0
142
0.0
142
0.0
142
0.0208333333333333
142
0.0
142
0.0
142
0.0
142
0.0
142
1.0
142
0.0
142
0.0
142
0.0
142
0.0
142
1.0
179
     0
144
0.0208333333333333
144
0.0
144
0.0
144
0.0
144
0.0
144
0.0208333333333333
144
0.0
144
0.0
144
0.0
144
0.0
144
1.0
144
0.0
144
0.0
144
0.0
144
0.0
144
1.0
147
0.0208333333333333
147
0.0
147
0.0
147
0.0
147
0.0
147
0.0208333333333333
147
0.0
147
0.0
147
0.0
147
0.0
147
1.0
147
0.0
147
0.0
147
0.0
147
0.0
147
1.0
  0
MLEADERSTYLE
  5
115
102
{ACAD_REACTORS
330
DC
102
}
330
DC
100
AcDbMLeaderStyle
179
     2
170
     2
171
     1
172
     0
 90
        2
 40
0.0
 41
0.0
173
     1
 91
-1056964608
340
14
 92
       -2
290
     1
 42
0.09
291
     1
 43
0.36
  3
Standard
 44
0.18
300

342
11
174
     1
178
     6
175
     1
176
     0
 93
-1056964608
 45
0.18
292
     0
297
     0
 46
0.18
 94
-1056964608
 47
1.0
 49
1.0
140
1.0
293
     1
141
0.0
294
     1
177
     0
142
1.0
295
     1
296
     0
143
0.125
271
     0
272
     9
273
     9
298
     1
  0
MLINESTYLE
  5
18
102
{ACAD_REACTORS
330
17
102
}
330
17
100
AcDbMlineStyle
  2
STANDARD
 70
     0
  3

 62
   256
 51
90.0
 52
90.0
 71
     2
 49
0.5
 62
   256
  6
BYLAYER
 49
-0.5
 62
   256
  6
BYLAYER
  0
ACDBPLACEHOLDER
  5
F
102
{ACAD_REACTORS
330
E
102
}
330
E
  0
SCALE
  5
104
102
{ACAD_REACTORS
330
103
102
}
330
103
100
AcDbScale
 70
     0
300
1:1
140
1.0
141
1.0
290
     1
  0
SCALE
  5
105
102
{ACAD_REACTORS
330
103
102
}
330
103
100
AcDbScale
 70
     0
300
1/128" = 1'-0"
140
0.0078125
141
12.0
290
     0
  0
SCALE
  5
106
102
{ACAD_REACTORS
330
103
102
}
330
103
100
AcDbScale
 70
     0
300
1/64" = 1'-0"
140
0.015625
141
12.0
290
     0
  0
SCALE
  5
107
102
{ACAD_REACTORS
330
103
102
}
330
103
100
AcDbScale
 70
     0
300
1/32" = 1'-0"
140
0.03125
141
12.0
290
     0
  0
SCALE
  5
108
102
{ACAD_REACTORS
330
103
102
}
330
103
100
AcDbScale
 70
     0
300
1/16" = 1'-0"
140
0.0625
141
12.0
290
     0
  0
SCALE
  5
109
102
{ACAD_REACTORS
330
103
102
}
330
103
100
AcDbScale
 70
     0
300
3/32" = 1'-0"
140
0.09375
141
12.0
290
     0
  0
SCALE
  5
10A
102
{ACAD_REACTORS
330
103
102
}
330
103
100
AcDbScale
 70
     0
300
1/8" = 1'-0"
140
0.125
141
12.0
290
     0
  0
SCALE
  5
10B
102
{ACAD_REACTORS
330
103
102
}
330
103
100
AcDbScale
 70
     0
300
3/16" = 1'-0"
140
0.1875
141
12.0
290
     0
  0
SCALE
  5
10C
102
{ACAD_REACTORS
330
103
102
}
330
103
100
AcDbScale
 70
     0
300
1/4" = 1'-0"
140
0.25
141
12.0
290
     0
  0
SCALE
  5
10D
102
{ACAD_REACTORS
330
103
102
}
330
103
100
AcDbScale
 70
     0
300
3/8" = 1'-0"
140
0.375
141
12.0
290
     0
  0
SCALE
  5
10E
102
{ACAD_REACTORS
330
103
102
}
330
103
100
AcDbScale
 70
     0
300
1/2" = 1'-0"
140
0.5
141
12.0
290
     0
  0
SCALE
  5
10F
102
{ACAD_REACTORS
330
103
102
}
330
103
100
AcDbScale
 70
     0
300
3/4" = 1'-0"
140
0.75
141
12.0
290
     0
  0
SCALE
  5
110
102
{ACAD_REACTORS
330
103
102
}
330
103
100
AcDbScale
 70
     0
300
1" = 1'-0"
140
1.0
141
12.0
290
     0
  0
SCALE
  5
111
102
{ACAD_REACTORS
330
103
102
}
330
103
100
AcDbScale
 70
     0
300
1-1/2" = 1'-0"
140
1.5
141
12.0
290
     0
  0
SCALE
  5
112
102
{ACAD_REACTORS
330
103
102
}
330
103
100
AcDbScale
 70
     0
300
3" = 1'-0"
140
3.0
141
12.0
290
     0
  0
SCALE
  5
113
102
{ACAD_REACTORS
330
103
102
}
330
103
100
AcDbScale
 70
     0
300
6" = 1'-0"
140
6.0
141
12.0
290
     0
  0
SCALE
  5
114
102
{ACAD_REACTORS
330
103
102
}
330
103
100
AcDbScale
 70
     0
300
1'-0" = 1'-0"
140
12.0
141
12.0
290
     0
  0
ACDBSECTIONVIEWSTYLE
  5
117
102
{ACAD_XDICTIONARY
360
48F
102
}
102
{ACAD_REACTORS
330
116
102
}
330
116
100
AcDbModelDocViewStyle
 70
     0
  3
Imperial24
290
     0
100
AcDbSectionViewStyle
 70
     0
 71
     0
 90
       78
 71
     1
340
11
 62
   256
 40
0.24
340
0
340
0
 62
   256
 40
0.24
300
I, O, Q, S, X, Z
 40
0.48
 90
        3
 40
0.18
 90
        1
 71
     2
340
16
 90
       25
 62
   256
340
16
 90
       50
 62
   256
 40
0.24
 40
0.0
 40
0.24
 71
     3
340
11
 62
   256
 40
0.24
 90
        1
 40
0.75
 90
        1
300
%<\AcVar ViewType \f "%tc1">% %<\AcVar ViewSectionStartId>%-%<\AcVar ViewSectionEndId>%\PSCALE %<\AcVar ViewScale \f "%sn">%
 71
     4
 62
   256
 62
   257
300
ANSI31
 40
1.0
 90
        0
290
     0
290
     0
 90
        6
 40
0.0
 40
1.570796326794896
 40
0.2617993877991494
 40
1.308996938995747
 40
-0.2617993877991494
 40
1.832595714594046
  0
TABLESTYLE
  5
102
102
{ACAD_XDICTIONARY
360
4B2
102
}
102
{ACAD_REACTORS
330
DB
102
}
330
DB
100
AcDbTableStyle
280
     0
  3
Standard
 70
     0
 71
     0
 40
0.06
 41
0.06
280
     0
281
     0
  7
Standard
140
0.18
170
     2
 62
     0
 63
     7
283
     0
 90
      512
 91
        0
  1

274
    -2
284
     1
 64
     0
275
    -2
285
     1
 65
     0
276
    -2
286
     1
 66
     0
277
    -2
287
     1
 67
     0
278
    -2
288
     1
 68
     0
279
    -2
289
     1
 69
     0
  7
Standard
140
0.25
170
     5
 62
     0
 63
     7
283
     0
 90
      512
 91
        0
  1

274
    -2
284
     1
 64
     0
275
    -2
285
     1
 65
     0
276
    -2
286
     1
 66
     0
277
    -2
287
     1
 67
     0
278
    -2
288
     1
 68
     0
279
    -2
289
     1
 69
     0
  7
Standard
140
0.18
170
     5
 62
     0
 63
     7
283
     0
 90
      512
 91
        0
  1

274
    -2
284
     1
 64
     0
275
    -2
285
     1
 65
     0
276
    -2
286
     1
 66
     0
277
    -2
287
     1
 67
     0
278
    -2
288
     1
 68
     0
279
    -2
289
     1
 69
     0
  0
VISUALSTYLE
  5
2F
102
{ACAD_REACTORS
330
2A
102
}
330
2A
100
AcDbVisualStyle
  2
2dWireframe
 70
     4
177
     3
291
     0
 70
    58
 90
        0
176
     1
 90
        2
176
     1
 90
        0
176
     1
 90
        0
176
     1
 40
0.6
176
     1
 40
30.0
176
     1
 62
     7
420
 16777215
176
     1
 90
        1
176
     1
 90
        4
176
     1
 62
     7
176
     1
 62
   257
176
     1
 90
        1
176
     1
 90
        1
176
     1
 40
1.0
176
     1
 90
        0
176
     1
 62
   257
176
     1
 40
1.0
176
     1
 90
        1
176
     1
 90
        6
176
     1
 90
        2
176
     1
 62
     7
176
     1
 90
        5
176
     1
 90
        0
176
     1
 90
        0
176
     1
290
     0
176
     1
 90
        1
176
     1
 40
0.0
176
     1
 90
        0
176
     1
290
     1
176
     1
290
     1
176
     1
290
     0
176
     1
290
     0
176
     1
290
     0
176
     1
290
     0
176
     1
290
     0
176
     1
290
     0
176
     1
290
     0
176
     1
 90
       50
176
     1
 40
0.0
176
     1
 40
1.0
176
     1
 90
        0
176
     1
 62
    18
420
        0
176
     1
 90
       50
176
     1
 90
        3
176
     1
 62
     5
420
      255
176
     1
290
     0
176
     1
 90
       50
176
     1
 90
       50
176
     1
 90
       50
176
     1
290
     0
176
     1
 90
       50
176
     1
 62
   256
176
     0
 40
1.0
176
     0
 90
        2
176
     1
  1
strokes_ogs.tif
176
     1
290
     0
176
     1
 40
1.0
176
     1
 40
1.0
176
     1
  0
VISUALSTYLE
  5
31
102
{ACAD_REACTORS
330
2A
102
}
330
2A
100
AcDbVisualStyle
  2
3D Hidden
 70
     6
177
     3
291
     0
 70
    58
 90
        1
176
     1
 90
        2
176
     1
 90
        2
176
     1
 90
        0
176
     1
 40
0.6
176
     1
 40
30.0
176
     1
 62
     7
420
 16777215
176
     1
 90
        2
176
     1
 90
        2
176
     1
 62
     7
176
     1
 62
   257
176
     1
 90
        2
176
     1
 90
        1
176
     1
 40
40.0
176
     1
 90
        0
176
     1
 62
   257
176
     1
 40
1.0
176
     1
 90
        1
176
     1
 90
        6
176
     1
 90
        2
176
     1
 62
     7
176
     1
 90
        3
176
     1
 90
        0
176
     1
 90
        0
176
     1
290
     0
176
     1
 90
        1
176
     1
 40
0.0
176
     1
 90
        0
176
     1
290
     0
176
     1
290
     1
176
     1
290
     1
176
     1
290
     0
176
     1
290
     0
176
     1
290
     0
176
     1
290
     0
176
     1
290
     0
176
     1
290
     0
176
     1
 90
       50
176
     1
 40
0.0
176
     1
 40
1.0
176
     1
 90
        0
176
     1
 62
    18
420
        0
176
     1
 90
       50
176
     1
 90
        3
176
     1
 62
     5
420
      255
176
     1
290
     0
176
     1
 90
       50
176
     1
 90
       50
176
     1
 90
       50
176
     1
290
     0
176
     1
 90
       50
176
     1
 62
   256
176
     0
 40
1.0
176
     0
 90
        2
176
     1
  1
strokes_ogs.tif
176
     1
290
     0
176
     1
 40
1.0
176
     1
 40
1.0
176
     1
  0
VISUALSTYLE
  5
30
102
{ACAD_REACTORS
330
2A
102
}
330
2A
100
AcDbVisualStyle
  2
3dWireframe
 70
     5
177
     3
291
     0
 70
    58
 90
        0
176
     1
 90
        2
176
     1
 90
        0
176
     1
 90
        0
176
     1
 40
0.6
176
     1
 40
30.0
176
     1
 62
     7
420
 16777215
176
     1
 90
        1
176
     1
 90
        4
176
     1
 62
     7
176
     1
 62
   257
176
     1
 90
        1
176
     1
 90
        1
176
     1
 40
1.0
176
     1
 90
        0
176
     1
 62
   257
176
     1
 40
1.0
176
     1
 90
        1
176
     1
 90
        6
176
     1
 90
        2
176
     1
 62
     7
176
     1
 90
        5
176
     1
 90
        0
176
     1
 90
        0
176
     1
290
     0
176
     1
 90
        1
176
     1
 40
0.0
176
     1
 90
        0
176
     1
290
     0
176
     1
290
     1
176
     1
290
     1
176
     1
290
     0
176
     1
290
     0
176
     1
290
     0
176
     1
290
     0
176
     1
290
     0
176
     1
290
     0
176
     1
 90
       50
176
     1
 40
0.0
176
     1
 40
1.0
176
     1
 90
        0
176
     1
 62
    18
420
        0
176
     1
 90
       50
176
     1
 90
        3
176
     1
 62
     5
420
      255
176
     1
290
     0
176
     1
 90
       50
176
     1
 90
       50
176
     1
 90
       50
176
     1
290
     0
176
     1
 90
       50
176
     1
 62
   256
176
     0
 40
1.0
176
     0
 90
        2
176
     1
  1
strokes_ogs.tif
176
     1
290
     0
176
     1
 40
1.0
176
     1
 40
1.0
176
     1
  0
VISUALSTYLE
  5
32
102
{ACAD_REACTORS
330
2A
102
}
330
2A
100
AcDbVisualStyle
  2
Basic
 70
     7
177
     3
291
     1
 70
    58
 90
        1
176
     1
 90
        0
176
     1
 90
        1
176
     1
 90
        0
176
     1
 40
0.6
176
     1
 40
30.0
176
     1
 62
     7
420
 16777215
176
     1
 90
        0
176
     1
 90
        4
176
     1
 62
     7
176
     1
 62
   257
176
     1
 90
        1
176
     1
 90
        1
176
     1
 40
1.0
176
     1
 90
        8
176
     1
 62
     7
176
     1
 40
1.0
176
     1
 90
        1
176
     1
 90
        6
176
     1
 90
        2
176
     1
 62
     7
176
     1
 90
        5
176
     1
 90
        0
176
     1
 90
        0
176
     1
290
     0
176
     1
 90
        1
176
     1
 40
0.0
176
     1
 90
        0
176
     1
290
     0
176
     1
290
     1
176
     1
290
     1
176
     1
290
     0
176
     1
290
     0
176
     1
290
     0
176
     1
290
     0
176
     1
290
     0
176
     1
290
     0
176
     1
 90
       50
176
     1
 40
0.0
176
     1
 40
1.0
176
     1
 90
        0
176
     1
 62
    18
420
        0
176
     1
 90
       50
176
     1
 90
        3
176
     1
 62
     5
420
      255
176
     1
290
     0
176
     1
 90
       50
176
     1
 90
       50
176
     1
 90
       50
176
     1
290
     0
176
     1
 90
       50
176
     1
 62
   256
176
     0
 40
1.0
176
     0
 90
        2
176
     1
  1
strokes_ogs.tif
176
     1
290
     0
176
     1
 40
1.0
176
     1
 40
1.0
176
     1
  0
VISUALSTYLE
  5
36
102
{ACAD_REACTORS
330
2A
102
}
330
2A
100
AcDbVisualStyle
  2
Brighten
 70
    12
177
     3
291
     1
 70
    58
 90
        2
176
     1
 90
        2
176
     1
 90
        0
176
     1
 90
        0
176
     1
 40
0.6
176
     1
 40
30.0
176
     1
 62
     7
420
 16777215
176
     1
 90
        1
176
     1
 90
        4
176
     1
 62
     7
176
     1
 62
   257
176
     1
 90
        1
176
     1
 90
        1
176
     1
 40
1.0
176
     1
 90
        8
176
     1
 62
     7
176
     1
 40
1.0
176
     1
 90
        1
176
     1
 90
        6
176
     1
 90
        2
176
     1
 62
     7
176
     1
 90
        5
176
     1
 90
        0
176
     1
 90
        0
176
     1
290
     0
176
     1
 90
        1
176
     1
 40
50.0
176
     1
 90
        0
176
     1
290
     0
176
     1
290
     1
176
     1
290
     1
176
     1
290
     0
176
     1
290
     0
176
     1
290
     0
176
     1
290
     0
176
     1
290
     0
176
     1
290
     0
176
     1
 90
       50
176
     1
 40
0.0
176
     1
 40
1.0
176
     1
 90
        0
176
     1
 62
    18
420
        0
176
     1
 90
       50
176
     1
 90
        3
176
     1
 62
     5
420
      255
176
     1
290
     0
176
     1
 90
       50
176
     1
 90
       50
176
     1
 90
       50
176
     1
290
     0
176
     1
 90
       50
176
     1
 62
   256
176
     0
 40
1.0
176
     0
 90
        2
176
     1
  1
strokes_ogs.tif
176
     1
290
     0
176
     1
 40
1.0
176
     1
 40
1.0
176
     1
  0
VISUALSTYLE
  5
3A
102
{ACAD_REACTORS
330
2A
102
}
330
2A
100
AcDbVisualStyle
  2
ColorChange
 70
    16
177
     3
291
     1
 70
    58
 90
        2
176
     1
 90
        2
176
     1
 90
        3
176
     1
 90
        0
176
     1
 40
0.6
176
     1
 40
30.0
176
     1
 62
     8
420
  8421504
176
     1
 90
        1
176
     1
 90
        4
176
     1
 62
     7
176
     1
 62
   257
176
     1
 90
        1
176
     1
 90
        1
176
     1
 40
1.0
176
     1
 90
        8
176
     1
 62
     8
420
  8421504
176
     1
 40
1.0
176
     1
 90
        1
176
     1
 90
        6
176
     1
 90
        2
176
     1
 62
     7
176
     1
 90
        5
176
     1
 90
        0
176
     1
 90
        0
176
     1
290
     0
176
     1
 90
        1
176
     1
 40
0.0
176
     1
 90
        0
176
     1
290
     0
176
     1
290
     1
176
     1
290
     1
176
     1
290
     0
176
     1
290
     0
176
     1
290
     0
176
     1
290
     0
176
     1
290
     0
176
     1
290
     0
176
     1
 90
       50
176
     1
 40
0.0
176
     1
 40
1.0
176
     1
 90
        0
176
     1
 62
    18
420
        0
176
     1
 90
       50
176
     1
 90
        3
176
     1
 62
     5
420
      255
176
     1
290
     0
176
     1
 90
       50
176
     1
 90
       50
176
     1
 90
       50
176
     1
290
     0
176
     1
 90
       50
176
     1
 62
   256
176
     0
 40
1.0
176
     0
 90
        2
176
     1
  1
strokes_ogs.tif
176
     1
290
     0
176
     1
 40
1.0
176
     1
 40
1.0
176
     1
  0
VISUALSTYLE
  5
34
102
{ACAD_REACTORS
330
2A
102
}
330
2A
100
AcDbVisualStyle
  2
Conceptual
 70
     9
177
     3
291
     0
 70
    58
 90
        3
176
     1
 90
        2
176
     1
 90
        0
176
     1
 90
        0
176
     1
 40
0.6
176
     1
 40
30.0
176
     1
 62
     7
420
 16777215
176
     1
 90
        2
176
     1
 90
        2
176
     1
 62
     7
176
     1
 62
   257
176
     1
 90
        1
176
     1
 90
        1
176
     1
 40
40.0
176
     1
 90
        8
176
     1
 62
     7
176
     1
 40
1.0
176
     1
 90
        1
176
     1
 90
        6
176
     1
 90
        2
176
     1
 62
     7
176
     1
 90
        3
176
     1
 90
        0
176
     1
 90
        0
176
     1
290
     0
176
     1
 90
        1
176
     1
 40
0.0
176
     1
 90
        0
176
     1
290
     0
176
     1
290
     1
176
     1
290
     1
176
     1
290
     0
176
     1
290
     0
176
     1
290
     0
176
     1
290
     0
176
     1
290
     0
176
     1
290
     0
176
     1
 90
       50
176
     1
 40
0.0
176
     1
 40
1.0
176
     1
 90
        0
176
     1
 62
    18
420
        0
176
     1
 90
       50
176
     1
 90
        3
176
     1
 62
     5
420
      255
176
     1
290
     0
176
     1
 90
       50
176
     1
 90
       50
176
     1
 90
       50
176
     1
290
     0
176
     1
 90
       50
176
     1
 62
   256
176
     0
 40
1.0
176
     0
 90
        2
176
     1
  1
strokes_ogs.tif
176
     1
290
     0
176
     1
 40
1.0
176
     1
 40
1.0
176
     1
  0
VISUALSTYLE
  5
35
102
{ACAD_REACTORS
330
2A
102
}
330
2A
100
AcDbVisualStyle
  2
Dim
 70
    11
177
     3
291
     1
 70
    58
 90
        2
176
     1
 90
        2
176
     1
 90
        0
176
     1
 90
        0
176
     1
 40
0.6
176
     1
 40
30.0
176
     1
 62
     7
420
 16777215
176
     1
 90
        1
176
     1
 90
        4
176
     1
 62
     7
176
     1
 62
   257
176
     1
 90
        1
176
     1
 90
        1
176
     1
 40
1.0
176
     1
 90
        8
176
     1
 62
     7
176
     1
 40
1.0
176
     1
 90
        1
176
     1
 90
        6
176
     1
 90
        2
176
     1
 62
     7
176
     1
 90
        5
176
     1
 90
        0
176
     1
 90
        0
176
     1
290
     0
176
     1
 90
        1
176
     1
 40
-50.0
176
     1
 90
        0
176
     1
290
     0
176
     1
290
     1
176
     1
290
     1
176
     1
290
     0
176
     1
290
     0
176
     1
290
     0
176
     1
290
     0
176
     1
290
     0
176
     1
290
     0
176
     1
 90
       50
176
     1
 40
0.0
176
     1
 40
1.0
176
     1
 90
        0
176
     1
 62
    18
420
        0
176
     1
 90
       50
176
     1
 90
        3
176
     1
 62
     5
420
      255
176
     1
290
     0
176
     1
 90
       50
176
     1
 90
       50
176
     1
 90
       50
176
     1
290
     0
176
     1
 90
       50
176
     1
 62
   256
176
     0
 40
1.0
176
     0
 90
        2
176
     1
  1
strokes_ogs.tif
176
     1
290
     0
176
     1
 40
1.0
176
     1
 40
1.0
176
     1
  0
VISUALSTYLE
  5
100
102
{ACAD_REACTORS
330
2A
102
}
330
2A
100
AcDbVisualStyle
  2
EdgeColorOff
 70
    22
177
     3
291
     1
 70
    58
 90
        2
176
     0
 90
        2
176
     0
 90
        0
176
     0
 90
        0
176
     0
 40
0.6
176
     0
 40
30.0
176
     0
 62
     7
420
 16777215
176
     0
 90
        1
176
     0
 90
        4
176
     0
 62
     7
176
     0
 62
   257
176
     0
 90
        1
176
     0
 90
        1
176
     0
 40
1.0
176
     0
 90
        8
176
     2
 62
     7
176
     0
 40
1.0
176
     0
 90
        1
176
     0
 90
        6
176
     0
 90
        2
176
     0
 62
     7
176
     0
 90
        5
176
     0
 90
        0
176
     0
 90
        0
176
     0
290
     0
176
     0
 90
        1
176
     0
 40
0.0
176
     0
 90
        0
176
     0
290
     0
176
     0
290
     1
176
     0
290
     1
176
     0
290
     0
176
     0
290
     0
176
     0
290
     0
176
     0
290
     0
176
     0
290
     0
176
     0
290
     0
176
     0
 90
       50
176
     0
 40
0.0
176
     0
 40
1.0
176
     0
 90
        0
176
     0
 62
    18
420
        0
176
     0
 90
       50
176
     0
 90
        3
176
     0
 62
     5
420
      255
176
     0
290
     0
176
     0
 90
       50
176
     0
 90
       50
176
     0
 90
       50
176
     0
290
     0
176
     0
 90
       50
176
     0
 62
   256
176
     0
 40
1.0
176
     0
 90
        2
176
     0
  1
strokes_ogs.tif
176
     0
290
     0
176
     0
 40
1.0
176
     0
 40
1.0
176
     0
  0
VISUALSTYLE
  5
39
102
{ACAD_REACTORS
330
2A
102
}
330
2A
100
AcDbVisualStyle
  2
Facepattern
 70
    15
177
     3
291
     1
 70
    58
 90
        2
176
     1
 90
        2
176
     1
 90
        0
176
     1
 90
        0
176
     1
 40
0.6
176
     1
 40
30.0
176
     1
 62
     7
420
 16777215
176
     1
 90
        1
176
     1
 90
        4
176
     1
 62
     7
176
     1
 62
   257
176
     1
 90
        1
176
     1
 90
        1
176
     1
 40
1.0
176
     1
 90
        8
176
     1
 62
     7
176
     1
 40
1.0
176
     1
 90
        1
176
     1
 90
        6
176
     1
 90
        2
176
     1
 62
     7
176
     1
 90
        5
176
     1
 90
        0
176
     1
 90
        0
176
     1
290
     0
176
     1
 90
        1
176
     1
 40
0.0
176
     1
 90
        0
176
     1
290
     0
176
     1
290
     1
176
     1
290
     1
176
     1
290
     0
176
     1
290
     0
176
     1
290
     0
176
     1
290
     0
176
     1
290
     0
176
     1
290
     0
176
     1
 90
       50
176
     1
 40
0.0
176
     1
 40
1.0
176
     1
 90
        0
176
     1
 62
    18
420
        0
176
     1
 90
       50
176
     1
 90
        3
176
     1
 62
     5
420
      255
176
     1
290
     0
176
     1
 90
       50
176
     1
 90
       50
176
     1
 90
       50
176
     1
290
     0
176
     1
 90
       50
176
     1
 62
   256
176
     0
 40
1.0
176
     0
 90
        2
176
     1
  1
strokes_ogs.tif
176
     1
290
     0
176
     1
 40
1.0
176
     1
 40
1.0
176
     1
  0
VISUALSTYLE
  5
2B
102
{ACAD_REACTORS
330
2A
102
}
330
2A
100
AcDbVisualStyle
  2
Flat
 70
     0
177
     3
291
     1
 70
    58
 90
        2
176
     1
 90
        1
176
     1
 90
        1
176
     1
 90
        2
176
     1
 40
0.6
176
     1
 40
30.0
176
     1
 62
     7
420
 16777215
176
     1
 90
        0
176
     1
 90
        4
176
     1
 62
     7
176
     1
 62
   257
176
     1
 90
        1
176
     1
 90
        1
176
     1
 40
1.0
176
     1
 90
        8
176
     1
 62
     7
176
     1
 40
1.0
176
     1
 90
        1
176
     1
 90
        6
176
     1
 90
        2
176
     1
 62
     7
176
     1
 90
        5
176
     1
 90
        0
176
     1
 90
        0
176
     1
290
     0
176
     1
 90
       13
176
     1
 40
0.0
176
     1
 90
        0
176
     1
290
     0
176
     1
290
     1
176
     1
290
     1
176
     1
290
     0
176
     1
290
     0
176
     1
290
     0
176
     1
290
     0
176
     1
290
     0
176
     1
290
     0
176
     1
 90
       50
176
     1
 40
0.0
176
     1
 40
1.0
176
     1
 90
        0
176
     1
 62
    18
420
        0
176
     1
 90
       50
176
     1
 90
        3
176
     1
 62
     5
420
      255
176
     1
290
     0
176
     1
 90
       50
176
     1
 90
       50
176
     1
 90
       50
176
     1
290
     0
176
     1
 90
       50
176
     1
 62
   256
176
     0
 40
1.0
176
     0
 90
        2
176
     1
  1
strokes_ogs.tif
176
     1
290
     0
176
     1
 40
1.0
176
     1
 40
1.0
176
     1
  0
VISUALSTYLE
  5
2C
102
{ACAD_REACTORS
330
2A
102
}
330
2A
100
AcDbVisualStyle
  2
FlatWithEdges
 70
     1
177
     3
291
     1
 70
    58
 90
        2
176
     1
 90
        1
176
     1
 90
        1
176
     1
 90
        2
176
     1
 40
0.6
176
     1
 40
30.0
176
     1
 62
     7
420
 16777215
176
     1
 90
        1
176
     1
 90
        4
176
     1
 62
     7
176
     1
 62
   257
176
     1
 90
        1
176
     1
 90
        1
176
     1
 40
1.0
176
     1
 90
        0
176
     1
 62
   257
176
     1
 40
1.0
176
     1
 90
        1
176
     1
 90
        6
176
     1
 90
        2
176
     1
 62
     7
176
     1
 90
        5
176
     1
 90
        0
176
     1
 90
        0
176
     1
290
     0
176
     1
 90
       13
176
     1
 40
0.0
176
     1
 90
        0
176
     1
290
     0
176
     1
290
     1
176
     1
290
     1
176
     1
290
     0
176
     1
290
     0
176
     1
290
     0
176
     1
290
     0
176
     1
290
     0
176
     1
290
     0
176
     1
 90
       50
176
     1
 40
0.0
176
     1
 40
1.0
176
     1
 90
        0
176
     1
 62
    18
420
        0
176
     1
 90
       50
176
     1
 90
        3
176
     1
 62
     5
420
      255
176
     1
290
     0
176
     1
 90
       50
176
     1
 90
       50
176
     1
 90
       50
176
     1
290
     0
176
     1
 90
       50
176
     1
 62
   256
176
     0
 40
1.0
176
     0
 90
        2
176
     1
  1
strokes_ogs.tif
176
     1
290
     0
176
     1
 40
1.0
176
     1
 40
1.0
176
     1
  0
VISUALSTYLE
  5
2D
102
{ACAD_REACTORS
330
2A
102
}
330
2A
100
AcDbVisualStyle
  2
Gouraud
 70
     2
177
     3
291
     1
 70
    58
 90
        2
176
     1
 90
        2
176
     1
 90
        1
176
     1
 90
        2
176
     1
 40
0.6
176
     1
 40
30.0
176
     1
 62
     7
420
 16777215
176
     1
 90
        0
176
     1
 90
        4
176
     1
 62
     7
176
     1
 62
   257
176
     1
 90
        1
176
     1
 90
        1
176
     1
 40
1.0
176
     1
 90
        0
176
     1
 62
     7
176
     1
 40
1.0
176
     1
 90
        1
176
     1
 90
        6
176
     1
 90
        2
176
     1
 62
     7
176
     1
 90
        5
176
     1
 90
        0
176
     1
 90
        0
176
     1
290
     0
176
     1
 90
       13
176
     1
 40
0.0
176
     1
 90
        0
176
     1
290
     0
176
     1
290
     1
176
     1
290
     1
176
     1
290
     0
176
     1
290
     0
176
     1
290
     0
176
     1
290
     0
176
     1
290
     0
176
     1
290
     0
176
     1
 90
       50
176
     1
 40
0.0
176
     1
 40
1.0
176
     1
 90
        0
176
     1
 62
    18
420
        0
176
     1
 90
       50
176
     1
 90
        3
176
     1
 62
     5
420
      255
176
     1
290
     0
176
     1
 90
       50
176
     1
 90
       50
176
     1
 90
       50
176
     1
290
     0
176
     1
 90
       50
176
     1
 62
   256
176
     0
 40
1.0
176
     0
 90
        2
176
     1
  1
strokes_ogs.tif
176
     1
290
     0
176
     1
 40
1.0
176
     1
 40
1.0
176
     1
  0
VISUALSTYLE
  5
2E
102
{ACAD_REACTORS
330
2A
102
}
330
2A
100
AcDbVisualStyle
  2
GouraudWithEdges
 70
     3
177
     3
291
     1
 70
    58
 90
        2
176
     1
 90
        2
176
     1
 90
        1
176
     1
 90
        2
176
     1
 40
0.6
176
     1
 40
30.0
176
     1
 62
     7
420
 16777215
176
     1
 90
        1
176
     1
 90
        4
176
     1
 62
     7
176
     1
 62
   257
176
     1
 90
        1
176
     1
 90
        1
176
     1
 40
1.0
176
     1
 90
        0
176
     1
 62
   257
176
     1
 40
1.0
176
     1
 90
        1
176
     1
 90
        6
176
     1
 90
        2
176
     1
 62
     7
176
     1
 90
        5
176
     1
 90
        0
176
     1
 90
        0
176
     1
290
     0
176
     1
 90
       13
176
     1
 40
0.0
176
     1
 90
        0
176
     1
290
     0
176
     1
290
     1
176
     1
290
     1
176
     1
290
     0
176
     1
290
     0
176
     1
290
     0
176
     1
290
     0
176
     1
290
     0
176
     1
290
     0
176
     1
 90
       50
176
     1
 40
0.0
176
     1
 40
1.0
176
     1
 90
        0
176
     1
 62
    18
420
        0
176
     1
 90
       50
176
     1
 90
        3
176
     1
 62
     5
420
      255
176
     1
290
     0
176
     1
 90
       50
176
     1
 90
       50
176
     1
 90
       50
176
     1
290
     0
176
     1
 90
       50
176
     1
 62
   256
176
     0
 40
1.0
176
     0
 90
        2
176
     1
  1
strokes_ogs.tif
176
     1
290
     0
176
     1
 40
1.0
176
     1
 40
1.0
176
     1
  0
VISUALSTYLE
  5
F8
102
{ACAD_REACTORS
330
2A
102
}
330
2A
100
AcDbVisualStyle
  2
Hidden
 70
     6
177
     3
291
     0
 70
    58
 90
        1
176
     1
 90
        2
176
     1
 90
        2
176
     1
 90
        0
176
     1
 40
0.6
176
     1
 40
30.0
176
     1
 62
     7
420
 16777215
176
     1
 90
        2
176
     1
 90
        2
176
     1
 62
     7
176
     1
 62
   257
176
     1
 90
        2
176
     1
 90
        1
176
     1
 40
40.0
176
     1
 90
        0
176
     1
 62
   257
176
     1
 40
1.0
176
     1
 90
        1
176
     1
 90
        6
176
     1
 90
        2
176
     1
 62
     7
176
     1
 90
        3
176
     1
 90
        0
176
     1
 90
        0
176
     1
290
     0
176
     1
 90
        1
176
     1
 40
0.0
176
     1
 90
        0
176
     1
290
     0
176
     1
290
     1
176
     1
290
     1
176
     1
290
     0
176
     1
290
     0
176
     1
290
     0
176
     1
290
     0
176
     1
290
     0
176
     1
290
     0
176
     1
 90
       50
176
     1
 40
0.0
176
     1
 40
1.0
176
     1
 90
        0
176
     1
 62
    18
420
        0
176
     1
 90
       50
176
     1
 90
        3
176
     1
 62
     5
420
      255
176
     1
290
     0
176
     1
 90
       50
176
     1
 90
       50
176
     1
 90
       50
176
     1
290
     0
176
     1
 90
       50
176
     1
 62
   256
176
     0
 40
1.0
176
     0
 90
        2
176
     1
  1
strokes_ogs.tif
176
     1
290
     0
176
     1
 40
1.0
176
     1
 40
1.0
176
     1
  0
VISUALSTYLE
  5
FE
102
{ACAD_REACTORS
330
2A
102
}
330
2A
100
AcDbVisualStyle
  2
JitterOff
 70
    20
177
     3
291
     1
 70
    58
 90
        2
176
     0
 90
        2
176
     0
 90
        0
176
     0
 90
        0
176
     0
 40
0.6
176
     0
 40
30.0
176
     0
 62
     7
420
 16777215
176
     0
 90
        1
176
     0
 90
        4
176
     0
 62
     7
176
     0
 62
   257
176
     0
 90
        1
176
     0
 90
        1
176
     0
 40
1.0
176
     0
 90
       10
176
     2
 62
     7
176
     0
 40
1.0
176
     0
 90
        1
176
     0
 90
        6
176
     0
 90
        2
176
     0
 62
     7
176
     0
 90
        5
176
     0
 90
        0
176
     0
 90
        0
176
     0
290
     0
176
     0
 90
        1
176
     0
 40
0.0
176
     0
 90
        0
176
     0
290
     0
176
     0
290
     1
176
     0
290
     1
176
     0
290
     0
176
     0
290
     0
176
     0
290
     0
176
     0
290
     0
176
     0
290
     0
176
     0
290
     0
176
     0
 90
       50
176
     0
 40
0.0
176
     0
 40
1.0
176
     0
 90
        0
176
     0
 62
    18
420
        0
176
     0
 90
       50
176
     0
 90
        3
176
     0
 62
     5
420
      255
176
     0
290
     0
176
     0
 90
       50
176
     0
 90
       50
176
     0
 90
       50
176
     0
290
     0
176
     0
 90
       50
176
     0
 62
   256
176
     0
 40
1.0
176
     0
 90
        2
176
     0
  1
strokes_ogs.tif
176
     0
290
     0
176
     0
 40
1.0
176
     0
 40
1.0
176
     0
  0
VISUALSTYLE
  5
38
102
{ACAD_REACTORS
330
2A
102
}
330
2A
100
AcDbVisualStyle
  2
Linepattern
 70
    14
177
     3
291
     1
 70
    58
 90
        2
176
     1
 90
        2
176
     1
 90
        0
176
     1
 90
        0
176
     1
 40
0.6
176
     1
 40
30.0
176
     1
 62
     7
420
 16777215
176
     1
 90
        1
176
     1
 90
        4
176
     1
 62
     7
176
     1
 62
   257
176
     1
 90
        7
176
     1
 90
        7
176
     1
 40
1.0
176
     1
 90
        8
176
     1
 62
     7
176
     1
 40
1.0
176
     1
 90
        1
176
     1
 90
        6
176
     1
 90
        2
176
     1
 62
     7
176
     1
 90
        5
176
     1
 90
        0
176
     1
 90
        0
176
     1
290
     0
176
     1
 90
        1
176
     1
 40
0.0
176
     1
 90
        0
176
     1
290
     0
176
     1
290
     1
176
     1
290
     1
176
     1
290
     0
176
     1
290
     0
176
     1
290
     0
176
     1
290
     0
176
     1
290
     0
176
     1
290
     0
176
     1
 90
       50
176
     1
 40
0.0
176
     1
 40
1.0
176
     1
 90
        0
176
     1
 62
    18
420
        0
176
     1
 90
       50
176
     1
 90
        3
176
     1
 62
     5
420
      255
176
     1
290
     0
176
     1
 90
       50
176
     1
 90
       50
176
     1
 90
       50
176
     1
290
     0
176
     1
 90
       50
176
     1
 62
   256
176
     0
 40
1.0
176
     0
 90
        2
176
     1
  1
strokes_ogs.tif
176
     1
290
     0
176
     1
 40
1.0
176
     1
 40
1.0
176
     1
  0
VISUALSTYLE
  5
FF
102
{ACAD_REACTORS
330
2A
102
}
330
2A
100
AcDbVisualStyle
  2
OverhangOff
 70
    21
177
     3
291
     1
 70
    58
 90
        2
176
     0
 90
        2
176
     0
 90
        0
176
     0
 90
        0
176
     0
 40
0.6
176
     0
 40
30.0
176
     0
 62
     7
420
 16777215
176
     0
 90
        1
176
     0
 90
        4
176
     0
 62
     7
176
     0
 62
   257
176
     0
 90
        1
176
     0
 90
        1
176
     0
 40
1.0
176
     0
 90
        9
176
     2
 62
     7
176
     0
 40
1.0
176
     0
 90
        1
176
     0
 90
        6
176
     0
 90
        2
176
     0
 62
     7
176
     0
 90
        5
176
     0
 90
        0
176
     0
 90
        0
176
     0
290
     0
176
     0
 90
        1
176
     0
 40
0.0
176
     0
 90
        0
176
     0
290
     0
176
     0
290
     1
176
     0
290
     1
176
     0
290
     0
176
     0
290
     0
176
     0
290
     0
176
     0
290
     0
176
     0
290
     0
176
     0
290
     0
176
     0
 90
       50
176
     0
 40
0.0
176
     0
 40
1.0
176
     0
 90
        0
176
     0
 62
    18
420
        0
176
     0
 90
       50
176
     0
 90
        3
176
     0
 62
     5
420
      255
176
     0
290
     0
176
     0
 90
       50
176
     0
 90
       50
176
     0
 90
       50
176
     0
290
     0
176
     0
 90
       50
176
     0
 62
   256
176
     0
 40
1.0
176
     0
 90
        2
176
     0
  1
strokes_ogs.tif
176
     0
290
     0
176
     0
 40
1.0
176
     0
 40
1.0
176
     0
  0
VISUALSTYLE
  5
33
102
{ACAD_REACTORS
330
2A
102
}
330
2A
100
AcDbVisualStyle
  2
Realistic
 70
     8
177
     3
291
     0
 70
    58
 90
        2
176
     1
 90
        2
176
     1
 90
        0
176
     1
 90
        0
176
     1
 40
0.6
176
     1
 40
30.0
176
     1
 62
     7
420
 16777215
176
     1
 90
        1
176
     1
 90
        0
176
     1
 62
     7
176
     1
 62
   257
176
     1
 90
        1
176
     1
 90
        1
176
     1
 40
1.0
176
     1
 90
        8
176
     1
 62
     8
420
  7895160
176
     1
 40
1.0
176
     1
 90
        1
176
     1
 90
        6
176
     1
 90
        2
176
     1
 62
     7
176
     1
 90
        5
176
     1
 90
        0
176
     1
 90
        0
176
     1
290
     0
176
     1
 90
       13
176
     1
 40
0.0
176
     1
 90
        0
176
     1
290
     0
176
     1
290
     1
176
     1
290
     1
176
     1
290
     0
176
     1
290
     0
176
     1
290
     0
176
     1
290
     0
176
     1
290
     0
176
     1
290
     0
176
     1
 90
       50
176
     1
 40
0.0
176
     1
 40
1.0
176
     1
 90
        0
176
     1
 62
    18
420
        0
176
     1
 90
       50
176
     1
 90
        3
176
     1
 62
     5
420
      255
176
     1
290
     0
176
     1
 90
       50
176
     1
 90
       50
176
     1
 90
       50
176
     1
290
     0
176
     1
 90
       50
176
     1
 62
   256
176
     0
 40
1.0
176
     0
 90
        2
176
     1
  1
strokes_ogs.tif
176
     1
290
     0
176
     1
 40
1.0
176
     1
 40
1.0
176
     1
  0
VISUALSTYLE
  5
FD
102
{ACAD_REACTORS
330
2A
102
}
330
2A
100
AcDbVisualStyle
  2
Shaded
 70
    27
177
     3
291
     0
 70
    58
 90
        2
176
     1
 90
        2
176
     1
 90
        1
176
     1
 90
        2
176
     1
 40
0.6
176
     1
 40
30.0
176
     1
 62
     7
420
 16777215
176
     1
 90
        0
176
     1
 90
        4
176
     1
 62
     7
176
     1
 62
   257
176
     1
 90
        1
176
     1
 90
        1
176
     1
 40
1.0
176
     1
 90
        8
176
     1
 62
   257
176
     1
 40
1.0
176
     1
 90
        1
176
     1
 90
        6
176
     1
 90
        2
176
     1
 62
     8
420
  7895160
176
     1
 90
        3
176
     1
 90
        0
176
     1
 90
        0
176
     1
290
     0
176
     1
 90
        5
176
     1
 40
0.0
176
     1
 90
        0
176
     1
290
     0
176
     1
290
     1
176
     1
290
     1
176
     1
290
     0
176
     1
290
     0
176
     1
290
     0
176
     1
290
     0
176
     1
290
     0
176
     1
290
     0
176
     1
 90
       50
176
     1
 40
0.0
176
     1
 40
1.0
176
     1
 90
        0
176
     1
 62
    18
420
        0
176
     1
 90
       50
176
     1
 90
        3
176
     1
 62
     5
420
      255
176
     1
290
     0
176
     1
 90
       50
176
     1
 90
       50
176
     1
 90
       50
176
     1
290
     0
176
     1
 90
       50
176
     1
 62
   256
176
     0
 40
1.0
176
     0
 90
        2
176
     1
  1
strokes_ogs.tif
176
     1
290
     0
176
     1
 40
1.0
176
     1
 40
1.0
176
     1
  0
VISUALSTYLE
  5
FC
102
{ACAD_REACTORS
330
2A
102
}
330
2A
100
AcDbVisualStyle
  2
Shaded with edges
 70
    26
177
     3
291
     0
 70
    58
 90
        2
176
     1
 90
        2
176
     1
 90
        1
176
     1
 90
        2
176
     1
 40
0.6
176
     1
 40
30.0
176
     1
 62
     7
420
 16777215
176
     1
 90
        1
176
     1
 90
       10
176
     1
 62
     7
176
     1
 62
   257
176
     1
 90
        2
176
     1
 90
        1
176
     1
 40
1.0
176
     1
 90
        8
176
     1
 62
   257
176
     1
 40
1.0
176
     1
 90
        1
176
     1
 90
        6
176
     1
 90
        2
176
     1
 62
     7
176
     1
 90
        3
176
     1
 90
        0
176
     1
 90
        0
176
     1
290
     0
176
     1
 90
        5
176
     1
 40
0.0
176
     1
 90
        0
176
     1
290
     0
176
     1
290
     1
176
     1
290
     1
176
     1
290
     0
176
     1
290
     0
176
     1
290
     0
176
     1
290
     0
176
     1
290
     0
176
     1
290
     0
176
     1
 90
       50
176
     1
 40
0.0
176
     1
 40
1.0
176
     1
 90
        0
176
     1
 62
    18
420
        0
176
     1
 90
       50
176
     1
 90
        3
176
     1
 62
     5
420
      255
176
     1
290
     0
176
     1
 90
       50
176
     1
 90
       50
176
     1
 90
       50
176
     1
290
     0
176
     1
 90
       50
176
     1
 62
   256
176
     0
 40
1.0
176
     0
 90
        2
176
     1
  1
strokes_ogs.tif
176
     1
290
     0
176
     1
 40
1.0
176
     1
 40
1.0
176
     1
  0
VISUALSTYLE
  5
F9
102
{ACAD_REACTORS
330
2A
102
}
330
2A
100
AcDbVisualStyle
  2
Shades of Gray
 70
    23
177
     3
291
     0
 70
    58
 90
        2
176
     1
 90
        2
176
     1
 90
        3
176
     1
 90
        0
176
     1
 40
0.6
176
     1
 40
30.0
176
     1
 62
     7
420
 16777215
176
     1
 90
        2
176
     1
 90
        2
176
     1
 62
     7
176
     1
 62
     7
176
     1
 90
        1
176
     1
 90
        1
176
     1
 40
40.0
176
     1
 90
        8
176
     1
 62
     7
176
     1
 40
1.0
176
     1
 90
        1
176
     1
 90
        6
176
     1
 90
        2
176
     1
 62
     7
176
     1
 90
        3
176
     1
 90
        0
176
     1
 90
        0
176
     1
290
     0
176
     1
 90
        1
176
     1
 40
0.0
176
     1
 90
        0
176
     1
290
     0
176
     1
290
     1
176
     1
290
     1
176
     1
290
     0
176
     1
290
     0
176
     1
290
     0
176
     1
290
     0
176
     1
290
     0
176
     1
290
     0
176
     1
 90
       50
176
     1
 40
0.0
176
     1
 40
1.0
176
     1
 90
        0
176
     1
 62
    18
420
        0
176
     1
 90
       50
176
     1
 90
        3
176
     1
 62
     5
420
      255
176
     1
290
     0
176
     1
 90
       50
176
     1
 90
       50
176
     1
 90
       50
176
     1
290
     0
176
     1
 90
       50
176
     1
 62
   256
176
     0
 40
1.0
176
     0
 90
        2
176
     1
  1
strokes_ogs.tif
176
     1
290
     0
176
     1
 40
1.0
176
     1
 40
1.0
176
     1
  0
VISUALSTYLE
  5
FA
102
{ACAD_REACTORS
330
2A
102
}
330
2A
100
AcDbVisualStyle
  2
Sketchy
 70
    24
177
     3
291
     0
 70
    58
 90
        1
176
     1
 90
        2
176
     1
 90
        2
176
     1
 90
        0
176
     1
 40
0.6
176
     1
 40
30.0
176
     1
 62
     7
420
 16777215
176
     1
 90
        2
176
     1
 90
        2
176
     1
 62
     7
176
     1
 62
     7
176
     1
 90
        1
176
     1
 90
        1
176
     1
 40
40.0
176
     1
 90
       11
176
     1
 62
     7
176
     1
 40
1.0
176
     1
 90
        1
176
     1
 90
        6
176
     1
 90
        2
176
     1
 62
     7
176
     1
 90
        6
176
     1
 90
        0
176
     1
 90
        0
176
     1
290
     0
176
     1
 90
        1
176
     1
 40
0.0
176
     1
 90
        0
176
     1
290
     0
176
     1
290
     1
176
     1
290
     1
176
     1
290
     0
176
     1
290
     0
176
     1
290
     0
176
     1
290
     0
176
     1
290
     0
176
     1
290
     0
176
     1
 90
       50
176
     1
 40
0.0
176
     1
 40
1.0
176
     1
 90
        0
176
     1
 62
    18
420
        0
176
     1
 90
       50
176
     1
 90
        3
176
     1
 62
     5
420
      255
176
     1
290
     0
176
     1
 90
       50
176
     1
 90
       50
176
     1
 90
       50
176
     1
290
     0
176
     1
 90
       50
176
     1
 62
   256
176
     0
 40
1.0
176
     0
 90
        2
176
     1
  1
strokes_ogs.tif
176
     1
290
     0
176
     1
 40
1.0
176
     1
 40
1.0
176
     1
  0
VISUALSTYLE
  5
37
102
{ACAD_REACTORS
330
2A
102
}
330
2A
100
AcDbVisualStyle
  2
Thicken
 70
    13
177
     3
291
     1
 70
    58
 90
        2
176
     1
 90
        2
176
     1
 90
        0
176
     1
 90
        0
176
     1
 40
0.6
176
     1
 40
30.0
176
     1
 62
     7
420
 16777215
176
     1
 90
        1
176
     1
 90
        4
176
     1
 62
     7
176
     1
 62
   257
176
     1
 90
        1
176
     1
 90
        1
176
     1
 40
1.0
176
     1
 90
       12
176
     1
 62
     7
176
     1
 40
1.0
176
     1
 90
        1
176
     1
 90
        6
176
     1
 90
        2
176
     1
 62
     7
176
     1
 90
        5
176
     1
 90
        0
176
     1
 90
        0
176
     1
290
     0
176
     1
 90
        1
176
     1
 40
0.0
176
     1
 90
        0
176
     1
290
     0
176
     1
290
     1
176
     1
290
     1
176
     1
290
     0
176
     1
290
     0
176
     1
290
     0
176
     1
290
     0
176
     1
290
     0
176
     1
290
     0
176
     1
 90
       50
176
     1
 40
0.0
176
     1
 40
1.0
176
     1
 90
        0
176
     1
 62
    18
420
        0
176
     1
 90
       50
176
     1
 90
        3
176
     1
 62
     5
420
      255
176
     1
290
     0
176
     1
 90
       50
176
     1
 90
       50
176
     1
 90
       50
176
     1
290
     0
176
     1
 90
       50
176
     1
 62
   256
176
     0
 40
1.0
176
     0
 90
        2
176
     1
  1
strokes_ogs.tif
176
     1
290
     0
176
     1
 40
1.0
176
     1
 40
1.0
176
     1
  0
VISUALSTYLE
  5
F7
102
{ACAD_REACTORS
330
2A
102
}
330
2A
100
AcDbVisualStyle
  2
Wireframe
 70
     5
177
     3
291
     0
 70
    58
 90
        0
176
     1
 90
        2
176
     1
 90
        0
176
     1
 90
        0
176
     1
 40
0.6
176
     1
 40
30.0
176
     1
 62
     7
420
 16777215
176
     1
 90
        1
176
     1
 90
        4
176
     1
 62
     7
176
     1
 62
   257
176
     1
 90
        1
176
     1
 90
        1
176
     1
 40
1.0
176
     1
 90
        0
176
     1
 62
   257
176
     1
 40
1.0
176
     1
 90
        1
176
     1
 90
        6
176
     1
 90
        2
176
     1
 62
     7
176
     1
 90
        3
176
     1
 90
        0
176
     1
 90
        0
176
     1
290
     0
176
     1
 90
        1
176
     1
 40
0.0
176
     1
 90
        0
176
     1
290
     0
176
     1
290
     1
176
     1
290
     1
176
     1
290
     0
176
     1
290
     0
176
     1
290
     0
176
     1
290
     0
176
     1
290
     0
176
     1
290
     0
176
     1
 90
       50
176
     1
 40
0.0
176
     1
 40
1.0
176
     1
 90
        0
176
     1
 62
    18
420
        0
176
     1
 90
       50
176
     1
 90
        3
176
     1
 62
     5
420
      255
176
     1
290
     0
176
     1
 90
       50
176
     1
 90
       50
176
     1
 90
       50
176
     1
290
     0
176
     1
 90
       50
176
     1
 62
   256
176
     0
 40
1.0
176
     0
 90
        2
176
     1
  1
strokes_ogs.tif
176
     1
290
     0
176
     1
 40
1.0
176
     1
 40
1.0
176
     1
  0
VISUALSTYLE
  5
FB
102
{ACAD_REACTORS
330
2A
102
}
330
2A
100
AcDbVisualStyle
  2
X-Ray
 70
    25
177
     3
291
     0
 70
    58
 90
        2
176
     1
 90
        2
176
     1
 90
        1
176
     1
 90
        1
176
     1
 40
0.5
176
     1
 40
30.0
176
     1
 62
     7
420
 16777215
176
     1
 90
        1
176
     1
 90
        0
176
     1
 62
     7
176
     1
 62
   257
176
     1
 90
        1
176
     1
 90
        1
176
     1
 40
1.0
176
     1
 90
        8
176
     1
 62
     7
176
     1
 40
1.0
176
     1
 90
        1
176
     1
 90
        6
176
     1
 90
        2
176
     1
 62
     7
176
     1
 90
        3
176
     1
 90
        0
176
     1
 90
        0
176
     1
290
     0
176
     1
 90
       13
176
     1
 40
0.0
176
     1
 90
        0
176
     1
290
     0
176
     1
290
     1
176
     1
290
     1
176
     1
290
     0
176
     1
290
     0
176
     1
290
     0
176
     1
290
     0
176
     1
290
     0
176
     1
290
     0
176
     1
 90
       50
176
     1
 40
0.0
176
     1
 40
1.0
176
     1
 90
        0
176
     1
 62
    18
420
        0
176
     1
 90
       50
176
     1
 90
        3
176
     1
 62
     5
420
      255
176
     1
290
     0
176
     1
 90
       50
176
     1
 90
       50
176
     1
 90
       50
176
     1
290
     0
176
     1
 90
       50
176
     1
 62
   256
176
     0
 40
1.0
176
     0
 90
        2
176
     1
  1
strokes_ogs.tif
176
     1
290
     0
176
     1
 40
1.0
176
     1
 40
1.0
176
     1
  0
DICTIONARYVAR
  5
499
102
{ACAD_REACTORS
330
3AE
102
}
330
3AE
100
DictionaryVariables
280
     0
  1
1:1
  0
DICTIONARYVAR
  5
495
102
{ACAD_REACTORS
330
3AE
102
}
330
3AE
100
DictionaryVariables
280
     0
  1
STANDARD
  0
DICTIONARYVAR
  5
494
102
{ACAD_REACTORS
330
3AE
102
}
330
3AE
100
DictionaryVariables
280
     0
  1
STANDARD
  0
DICTIONARYVAR
  5
496
102
{ACAD_REACTORS
330
3AE
102
}
330
3AE
100
DictionaryVariables
280
     0
  1
Imperial24
  0
DICTIONARYVAR
  5
497
102
{ACAD_REACTORS
330
3AE
102
}
330
3AE
100
DictionaryVariables
280
     0
  1
Imperial24
  0
DICTIONARYVAR
  5
49B
102
{ACAD_REACTORS
330
3AE
102
}
330
3AE
100
DictionaryVariables
280
     0
  1
1
  0
DICTIONARYVAR
  5
49C
102
{ACAD_REACTORS
330
3AE
102
}
330
3AE
100
DictionaryVariables
280
     0
  1
15
  0
DICTIONARYVAR
  5
49A
102
{ACAD_REACTORS
330
3AE
102
}
330
3AE
100
DictionaryVariables
280
     0
  1
0
  0
DICTIONARYVAR
  5
498
102
{ACAD_REACTORS
330
3AE
102
}
330
3AE
100
DictionaryVariables
280
     0
  1
0
  0
DICTIONARY
  5
491
330
119
100
AcDbDictionary
280
     1
281
     1
  3
ACAD_XREC_ROUNDTRIP
360
4B5
  0
DICTIONARY
  5
E8
330
E7
100
AcDbDictionary
280
     1
281
     1
  3
BUMPTILE
360
EA
  3
DIFFUSETILE
360
E9
  3
OPACITYTILE
360
ED
  3
REFLECTIONTILE
360
EC
  3
REFRACTIONTILE
360
EE
  3
SPECULARTILE
360
EB
  0
DICTIONARY
  5
E0
330
DF
100
AcDbDictionary
280
     1
281
     1
  3
BUMPTILE
360
E2
  3
DIFFUSETILE
360
E1
  3
OPACITYTILE
360
E5
  3
REFLECTIONTILE
360
E4
  3
REFRACTIONTILE
360
E6
  3
SPECULARTILE
360
E3
  0
DICTIONARY
  5
F0
330
EF
100
AcDbDictionary
280
     1
281
     1
  3
BUMPTILE
360
F2
  3
DIFFUSETILE
360
F1
  3
OPACITYTILE
360
F5
  3
REFLECTIONTILE
360
F4
  3
REFRACTIONTILE
360
F6
  3
SPECULARTILE
360
F3
  0
DICTIONARY
  5
48F
330
117
100
AcDbDictionary
280
     1
281
     1
  3
ACAD_XREC_ROUNDTRIP
360
4B4
  0
DICTIONARY
  5
4B2
330
102
100
AcDbDictionary
280
     1
281
     1
  3
ACAD_ROUNDTRIP_2008_TABLESTYLE_CELLSTYLEMAP
360
4B3
  0
XRECORD
  5
4B5
102
{ACAD_REACTORS
330
491
102
}
330
491
100
AcDbXrecord
280
     1
102
DISPLAYNAME
  1
Imperial24
102
FLAGS
 90
        0
  0
XRECORD
  5
EA
102
{ACAD_REACTORS
330
E8
102
}
330
E8
100
AcDbXrecord
280
     1
270
     1
271
     1
  0
XRECORD
  5
E9
102
{ACAD_REACTORS
330
E8
102
}
330
E8
100
AcDbXrecord
280
     1
270
     1
271
     1
  0
XRECORD
  5
ED
102
{ACAD_REACTORS
330
E8
102
}
330
E8
100
AcDbXrecord
280
     1
270
     1
271
     1
  0
XRECORD
  5
EC
102
{ACAD_REACTORS
330
E8
102
}
330
E8
100
AcDbXrecord
280
     1
270
     1
271
     1
  0
XRECORD
  5
EE
102
{ACAD_REACTORS
330
E8
102
}
330
E8
100
AcDbXrecord
280
     1
270
     1
271
     1
  0
XRECORD
  5
EB
102
{ACAD_REACTORS
330
E8
102
}
330
E8
100
AcDbXrecord
280
     1
270
     1
271
     1
  0
XRECORD
  5
E2
102
{ACAD_REACTORS
330
E0
102
}
330
E0
100
AcDbXrecord
280
     1
270
     1
271
     1
  0
XRECORD
  5
E1
102
{ACAD_REACTORS
330
E0
102
}
330
E0
100
AcDbXrecord
280
     1
270
     1
271
     1
  0
XRECORD
  5
E5
102
{ACAD_REACTORS
330
E0
102
}
330
E0
100
AcDbXrecord
280
     1
270
     1
271
     1
  0
XRECORD
  5
E4
102
{ACAD_REACTORS
330
E0
102
}
330
E0
100
AcDbXrecord
280
     1
270
     1
271
     1
  0
XRECORD
  5
E6
102
{ACAD_REACTORS
330
E0
102
}
330
E0
100
AcDbXrecord
280
     1
270
     1
271
     1
  0
XRECORD
  5
E3
102
{ACAD_REACTORS
330
E0
102
}
330
E0
100
AcDbXrecord
280
     1
270
     1
271
     1
  0
XRECORD
  5
F2
102
{ACAD_REACTORS
330
F0
102
}
330
F0
100
AcDbXrecord
280
     1
270
     1
271
     1
  0
XRECORD
  5
F1
102
{ACAD_REACTORS
330
F0
102
}
330
F0
100
AcDbXrecord
280
     1
270
     1
271
     1
  0
XRECORD
  5
F5
102
{ACAD_REACTORS
330
F0
102
}
330
F0
100
AcDbXrecord
280
     1
270
     1
271
     1
  0
XRECORD
  5
F4
102
{ACAD_REACTORS
330
F0
102
}
330
F0
100
AcDbXrecord
280
     1
270
     1
271
     1
  0
XRECORD
  5
F6
102
{ACAD_REACTORS
330
F0
102
}
330
F0
100
AcDbXrecord
280
     1
270
     1
271
     1
  0
XRECORD
  5
F3
102
{ACAD_REACTORS
330
F0
102
}
330
F0
100
AcDbXrecord
280
     1
270
     1
271
     1
  0
XRECORD
  5
4B4
102
{ACAD_REACTORS
330
48F
102
}
330
48F
100
AcDbXrecord
280
     1
102
DISPLAYNAME
  1
Imperial24
102
FLAGS
 90
        0
  0
CELLSTYLEMAP
  5
4B3
102
{ACAD_REACTORS
330
4B2
102
}
330
4B2
100
AcDbCellStyleMap
 90
        3
300
CELLSTYLE
  1
TABLEFORMAT_BEGIN
 90
        5
170
     1
 91
        0
 92
    32768
 62
   257
 93
        1
300
CONTENTFORMAT
  1
CONTENTFORMAT_BEGIN
 90
        0
 91
        0
 92
      512
 93
        0
300

 40
0.0
140
1.0
 94
        5
 62
     0
340
11
144
0.25
309
CONTENTFORMAT_END
171
     0
 94
        0
309
TABLEFORMAT_END
  1
CELLSTYLE_BEGIN
 90
        1
 91
        1
300
_TITLE
309
CELLSTYLE_END
300
CELLSTYLE
  1
TABLEFORMAT_BEGIN
 90
        5
170
     1
 91
        0
 92
        0
 62
   257
 93
        1
300
CONTENTFORMAT
  1
CONTENTFORMAT_BEGIN
 90
        0
 91
        0
 92
      512
 93
        0
300

 40
0.0
140
1.0
 94
        5
 62
     0
340
11
144
0.18
309
CONTENTFORMAT_END
171
     0
 94
        0
309
TABLEFORMAT_END
  1
CELLSTYLE_BEGIN
 90
        2
 91
        1
300
_HEADER
309
CELLSTYLE_END
300
CELLSTYLE
  1
TABLEFORMAT_BEGIN
 90
        5
170
     1
 91
        0
 92
        0
 62
   257
 93
        1
300
CONTENTFORMAT
  1
CONTENTFORMAT_BEGIN
 90
        0
 91
        0
 92
      512
 93
        0
300

 40
0.0
140
1.0
 94
        2
 62
     0
340
11
144
0.18
309
CONTENTFORMAT_END
171
     0
 94
        0
309
TABLEFORMAT_END
  1
CELLSTYLE_BEGIN
 90
        3
 91
        2
300
_DATA
309
CELLSTYLE_END
  0
ENDSEC
  0
SECTION
  2
ACDSDATA
 70
     2
 71
     8
  0
ACDSSCHEMA
 90
        0
  1
AcDb3DSolid_ASM_Data
  2
AcDbDs::ID
280
    10
 91
        8
  2
ASM_Data
280
    15
 91
        0
101
ACDSRECORD
 95
        0
 90
        1
  2
AcDbDs::TreatedAsObjectData
280
     1
291
     1
101
ACDSRECORD
 95
        0
 90
        2
  2
AcDbDs::Legacy
280
     1
291
     1
101
ACDSRECORD
  1
AcDbDs::ID
 90
        3
  2
AcDs:Indexable
280
     1
291
     1
101
ACDSRECORD
  1
AcDbDs::ID
 90
        4
  2
AcDbDs::HandleAttribute
280
     7
282
     1
  0
ACDSSCHEMA
 90
        1
  1
AcDbDs::TreatedAsObjectDataSchema
  2
AcDbDs::TreatedAsObjectData
280
     1
 91
        0
  0
ACDSSCHEMA
 90
        2
  1
AcDbDs::LegacySchema
  2
AcDbDs::Legacy
280
     1
 91
        0
  0
ACDSSCHEMA
 90
        3
  1
AcDbDs::IndexedPropertySchema
  2
AcDs:Indexable
280
     1
 91
        0
  0
ACDSSCHEMA
 90
        4
  1
AcDbDs::HandleAttributeSchema
  2
AcDbDs::HandleAttribute
280
     7
 91
        1
284
     1
  0
ACDSSCHEMA
 90
        5
  1
AcDb_Thumbnail_Schema
  2
AcDbDs::ID
280
    10
 91
        8
  2
Thumbnail_Data
280
    15
 91
        0
101
ACDSRECORD
 95
        5
 90
        1
  2
AcDbDs::TreatedAsObjectData
280
     1
291
     1
101
ACDSRECORD
 95
        5
 90
        2
  2
AcDbDs::Legacy
280
     1
291
     1
101
ACDSRECORD
  1
AcDbDs::ID
 90
        3
  2
AcDs:Indexable
280
     1
291
     1
101
ACDSRECORD
  1
AcDbDs::ID
 90
        4
  2
AcDbDs::HandleAttribute
280
     7
282
     1
  0
ACDSRECORD
 90
        5
  2
AcDbDs::ID
280
    10
320
22
  2
Thumbnail_Data
280
    15
 94
     1647
310
89504E470D0A1A0A0000000D4948445200000100000000670803000000D82A6C0200000300504C5445000000000000C8C8C80000000000000000000000000000000000000000000000000000330000660000990000CC0000FF0033000033330033660033990033CC0033FF0066000066330066660066990066CC0066FF0099
310
000099330099660099990099CC0099FF00CC0000CC3300CC6600CC9900CCCC00CCFF00FF0000FF3300FF6600FF9900FFCC00FFFF3300003300333300663300993300CC3300FF3333003333333333663333993333CC3333FF3366003366333366663366993366CC3366FF3399003399333399663399993399CC3399FF33CC00
310
33CC3333CC6633CC9933CCCC33CCFF33FF0033FF3333FF6633FF9933FFCC33FFFF6600006600336600666600996600CC6600FF6633006633336633666633996633CC6633FF6666006666336666666666996666CC6666FF6699006699336699666699996699CC6699FF66CC0066CC3366CC6666CC9966CCCC66CCFF66FF0066
310
FF3366FF6666FF9966FFCC66FFFF9900009900339900669900999900CC9900FF9933009933339933669933999933CC9933FF9966009966339966669966999966CC9966FF9999009999339999669999999999CC9999FF99CC0099CC3399CC6699CC9999CCCC99CCFF99FF0099FF3399FF6699FF9999FFCC99FFFFCC0000CC00
310
33CC0066CC0099CC00CCCC00FFCC3300CC3333CC3366CC3399CC33CCCC33FFCC6600CC6633CC6666CC6699CC66CCCC66FFCC9900CC9933CC9966CC9999CC99CCCC99FFCCCC00CCCC33CCCC66CCCC99CCCCCCCCCCFFCCFF00CCFF33CCFF66CCFF99CCFFCCCCFFFFFF0000FF0033FF0066FF0099FF00CCFF00FFFF3300FF3333
310
FF3366FF3399FF33CCFF33FFFF6600FF6633FF6666FF6699FF66CCFF66FFFF9900FF9933FF9966FF9999FF99CCFF99FFFFCC00FFCC33FFCC66FFCC99FFCCCCFFCCFFFFFF00FFFF33FFFF66FFFF99FFFFCCFFFFFF0000000D0D0D1A1A1A2828283535354343435050505D5D5D6B6B6B787878868686939393A1A1A1AEAEAEBB
310
BBBBC9C9C9D6D6D6E4E4E4F1F1F1FFFFFF00000000000000000000000000000000000000000000000000000000000008F1915C0000030A4944415478DAED9CDB96C3200845FDFFFFDDEFB3A6D3A4B182627A1981E469D269BAC20EC103A2A5FCEB0194A4074F473EFBFBE70908744F2F00F900903C06A473018644B20148E6
310
02545A20298087D3DFFE4A05E0D7621A20B91C80D127A91CE0462017807618CC9419AA00B800642904247E0550842F39C4F041FCA41C05E81504B203481400E4936C0E509D9144076A00D224023482607BFC692460A388B45991A093251814D1F89F9100688F5F934BBE5FFAE3079B8DA2FDBD5F70667F5BFE3754405D03F8
310
AB6F1EC21BF3E1ED592E1D43E5EA6181374C7BB783255DA24BBFF46708600C236B67BBDBA33BE1B4A20738C99A10A2FCFC0D4B2913B8700171FC7EC905E8FFF6AA0EC04BA9BE320C3A208016C7D080C90305323ADC00A0131B850102A35C62F530B807BE6200301AEC24D758DD05286600189CC41D00F4FBB33404310100E7
310
00B0A9C81206006011B38C54F4F200B45CB74E61300A000DC0B2C5B24771130DCD0C00CD03D6AEA1DE93F61E006C1A5018075D14040AE2206F4D65A8F523FEEC6F091823E05843539CD489D9ADDE2A02670154E9B51BFBF740009D84C64CE061B8A7A912AA50CD7900F79AA833F39B179FF3008ADB5545EF02D091057E0014
310
5E06505CDBFF0E00A5A40010673A58EF86490240553F2901D885400200D66C301001CC8B448375C4A8F5A12C00D45E08B2D83FF9A4B1E10B4B40AE8A4745309C198AD329372D15A74B089E23A49AE96600D08D735365B474EFC705E002104E03B5C37F2C00C73ED76149A8290113C0FC62ED1E66FB721800549B058CD5FDDE
310
15AE6A46876A67E679324AA63DDA3F11069B6E6BFF04E4195F468B8576580101EC43C1B859D0FFE632F47BC6860BA80909404F7AC4EF7201F02D7C31A7BA4900502E006900886D939D5457EB0D0D0660621F0DEF72585C41D2C90C405E32E7DB016A9BA1F401205CEEDDFE726874AF852052EADCE6814E53E276BF8C5D1BA9
310
EB0AF626532214C5D0A700B5F582A61CD13381F1CE014018FBDB979C8F5DE42210F2D9ABFC0C8596AB0862FF430EF28DAB16467066178538DD21A7B69188D5207406C077EEEC0749E2A91D9B9308ED0000000049454E44AE426082A9EE266B10DA01F09937FB02772EEE052ECA18C50000000049454E44AE426082
  0
ENDSEC
  0
EOF
