  0
SECTION
  2
HEADER
  9
$ACADVER
  1
AC1027
  9
$ACADMAINTVER
 70
   105
  9
$DWGCODEPAGE
  3
ANSI_1252
  9
$LASTSAVEDBY
  1
Sandra
  9
$REQUIREDVERSIONS
160
                 0
  9
$INSBASE
 10
0.0
 20
0.0
 30
0.0
  9
$EXTMIN
 10
-1239.11545250438
 20
-1239.11545250438
 30
0.0
  9
$EXTMAX
 10
1239.115452504379
 20
1239.115452504379
 30
0.0
  9
$LIMMIN
 10
0.0
 20
0.0
  9
$LIMMAX
 10
12.0
 20
9.0
  9
$ORTHOMODE
 70
     1
  9
$REGENMODE
 70
     1
  9
$FILLMODE
 70
     1
  9
$QTEXTMODE
 70
     0
  9
$MIRRTEXT
 70
     1
  9
$LTSCALE
 40
1.0
  9
$ATTMODE
 70
     1
  9
$TEXTSIZE
 40
0.2
  9
$TRACEWID
 40
0.05
  9
$TEXTSTYLE
  7
Standard
  9
$CLAYER
  8
Default
  9
$CELTYPE
  6
ByLayer
  9
$CECOLOR
 62
   256
  9
$CELTSCALE
 40
1.0
  9
$DISPSILH
 70
     0
  9
$DIMSCALE
 40
1.0
  9
$DIMASZ
 40
0.18
  9
$DIMEXO
 40
0.0625
  9
$DIMDLI
 40
0.38
  9
$DIMRND
 40
0.0
  9
$DIMDLE
 40
0.0
  9
$DIMEXE
 40
0.18
  9
$DIMTP
 40
0.0
  9
$DIMTM
 40
0.0
  9
$DIMTXT
 40
0.18
  9
$DIMCEN
 40
0.09
  9
$DIMTSZ
 40
0.0
  9
$DIMTOL
 70
     0
  9
$DIMLIM
 70
     0
  9
$DIMTIH
 70
     1
  9
$DIMTOH
 70
     1
  9
$DIMSE1
 70
     0
  9
$DIMSE2
 70
     0
  9
$DIMTAD
 70
     0
  9
$DIMZIN
 70
     0
  9
$DIMBLK
  1

  9
$DIMASO
 70
     1
  9
$DIMSHO
 70
     1
  9
$DIMPOST
  1

  9
$DIMAPOST
  1

  9
$DIMALT
 70
     0
  9
$DIMALTD
 70
     2
  9
$DIMALTF
 40
25.4
  9
$DIMLFAC
 40
1.0
  9
$DIMTOFL
 70
     0
  9
$DIMTVP
 40
0.0
  9
$DIMTIX
 70
     0
  9
$DIMSOXD
 70
     0
  9
$DIMSAH
 70
     0
  9
$DIMBLK1
  1

  9
$DIMBLK2
  1

  9
$DIMSTYLE
  2
Standard
  9
$DIMCLRD
 70
     0
  9
$DIMCLRE
 70
     0
  9
$DIMCLRT
 70
     0
  9
$DIMTFAC
 40
1.0
  9
$DIMGAP
 40
0.09
  9
$DIMJUST
 70
     0
  9
$DIMSD1
 70
     0
  9
$DIMSD2
 70
     0
  9
$DIMTOLJ
 70
     1
  9
$DIMTZIN
 70
     0
  9
$DIMALTZ
 70
     0
  9
$DIMALTTZ
 70
     0
  9
$DIMUPT
 70
     0
  9
$DIMDEC
 70
     4
  9
$DIMTDEC
 70
     4
  9
$DIMALTU
 70
     2
  9
$DIMALTTD
 70
     2
  9
$DIMTXSTY
  7
Standard
  9
$DIMAUNIT
 70
     0
  9
$DIMADEC
 70
     0
  9
$DIMALTRND
 40
0.0
  9
$DIMAZIN
 70
     0
  9
$DIMDSEP
 70
    46
  9
$DIMATFIT
 70
     3
  9
$DIMFRAC
 70
     0
  9
$DIMLDRBLK
  1

  9
$DIMLUNIT
 70
     2
  9
$DIMLWD
 70
    -2
  9
$DIMLWE
 70
    -2
  9
$DIMTMOVE
 70
     2
  9
$DIMFXL
 40
1.0
  9
$DIMFXLON
 70
     0
  9
$DIMJOGANG
 40
0.7853981633974483
  9
$DIMTFILL
 70
     0
  9
$DIMTFILLCLR
 70
     0
  9
$DIMARCSYM
 70
     0
  9
$DIMLTYPE
  6

  9
$DIMLTEX1
  6

  9
$DIMLTEX2
  6

  9
$DIMTXTDIRECTION
 70
     0
  9
$LUNITS
 70
     2
  9
$LUPREC
 70
     3
  9
$SKETCHINC
 40
0.1
  9
$FILLETRAD
 40
0.5
  9
$AUNITS
 70
     0
  9
$AUPREC
 70
     0
  9
$MENU
  1
.
  9
$ELEVATION
 40
0.0
  9
$PELEVATION
 40
0.0
  9
$THICKNESS
 40
0.0
  9
$LIMCHECK
 70
     0
  9
$CHAMFERA
 40
0.0
  9
$CHAMFERB
 40
0.0
  9
$CHAMFERC
 40
0.0
  9
$CHAMFERD
 40
0.0
  9
$SKPOLY
 70
     0
  9
$TDCREATE
 40
2456645.632341875
  9
$TDUCREATE
 40
2456645.799008542
  9
$TDUPDATE
 40
2457854.461940382
  9
$TDUUPDATE
 40
2457854.628607049
  9
$TDINDWG
 40
0.0086654167
  9
$TDUSRTIMER
 40
0.0086654167
  9
$USRTIMER
 70
     1
  9
$ANGBASE
 50
0.0
  9
$ANGDIR
 70
     0
  9
$PDMODE
 70
     0
  9
$PDSIZE
 40
0.0
  9
$PLINEWID
 40
0.0
  9
$SPLFRAME
 70
     0
  9
$SPLINETYPE
 70
     6
  9
$SPLINESEGS
 70
     8
  9
$HANDSEED
  5
9B56D
  9
$SURFTAB1
 70
     6
  9
$SURFTAB2
 70
     6
  9
$SURFTYPE
 70
     6
  9
$SURFU
 70
     6
  9
$SURFV
 70
     6
  9
$UCSBASE
  2

  9
$UCSNAME
  2

  9
$UCSORG
 10
0.0
 20
0.0
 30
0.0
  9
$UCSXDIR
 10
1.0
 20
0.0
 30
0.0
  9
$UCSYDIR
 10
0.0
 20
1.0
 30
0.0
  9
$UCSORTHOREF
  2

  9
$UCSORTHOVIEW
 70
     0
  9
$UCSORGTOP
 10
0.0
 20
0.0
 30
0.0
  9
$UCSORGBOTTOM
 10
0.0
 20
0.0
 30
0.0
  9
$UCSORGLEFT
 10
0.0
 20
0.0
 30
0.0
  9
$UCSORGRIGHT
 10
0.0
 20
0.0
 30
0.0
  9
$UCSORGFRONT
 10
0.0
 20
0.0
 30
0.0
  9
$UCSORGBACK
 10
0.0
 20
0.0
 30
0.0
  9
$PUCSBASE
  2

  9
$PUCSNAME
  2

  9
$PUCSORG
 10
0.0
 20
0.0
 30
0.0
  9
$PUCSXDIR
 10
1.0
 20
0.0
 30
0.0
  9
$PUCSYDIR
 10
0.0
 20
1.0
 30
0.0
  9
$PUCSORTHOREF
  2

  9
$PUCSORTHOVIEW
 70
     0
  9
$PUCSORGTOP
 10
0.0
 20
0.0
 30
0.0
  9
$PUCSORGBOTTOM
 10
0.0
 20
0.0
 30
0.0
  9
$PUCSORGLEFT
 10
0.0
 20
0.0
 30
0.0
  9
$PUCSORGRIGHT
 10
0.0
 20
0.0
 30
0.0
  9
$PUCSORGFRONT
 10
0.0
 20
0.0
 30
0.0
  9
$PUCSORGBACK
 10
0.0
 20
0.0
 30
0.0
  9
$USERI1
 70
     0
  9
$USERI2
 70
     0
  9
$USERI3
 70
     0
  9
$USERI4
 70
     0
  9
$USERI5
 70
     0
  9
$USERR1
 40
0.0
  9
$USERR2
 40
0.0
  9
$USERR3
 40
0.0
  9
$USERR4
 40
0.0
  9
$USERR5
 40
0.0
  9
$WORLDVIEW
 70
     1
  9
$SHADEDGE
 70
     3
  9
$SHADEDIF
 70
    70
  9
$TILEMODE
 70
     1
  9
$MAXACTVP
 70
    64
  9
$PINSBASE
 10
0.0
 20
0.0
 30
0.0
  9
$PLIMCHECK
 70
     0
  9
$PEXTMIN
 10
1.000000000000000E+20
 20
1.000000000000000E+20
 30
1.000000000000000E+20
  9
$PEXTMAX
 10
-1.000000000000000E+20
 20
-1.000000000000000E+20
 30
-1.000000000000000E+20
  9
$PLIMMIN
 10
0.0
 20
0.0
  9
$PLIMMAX
 10
12.0
 20
9.0
  9
$UNITMODE
 70
     0
  9
$VISRETAIN
 70
     1
  9
$PLINEGEN
 70
     0
  9
$PSLTSCALE
 70
     1
  9
$TREEDEPTH
 70
  3020
  9
$CMLSTYLE
  2
Standard
  9
$CMLJUST
 70
     0
  9
$CMLSCALE
 40
1.0
  9
$PROXYGRAPHICS
 70
     1
  9
$MEASUREMENT
 70
     0
  9
$CELWEIGHT
370
    -1
  9
$ENDCAPS
280
     0
  9
$JOINSTYLE
280
     0
  9
$LWDISPLAY
290
     0
  9
$INSUNITS
 70
     4
  9
$HYPERLINKBASE
  1

  9
$STYLESHEET
  1

  9
$XEDIT
290
     1
  9
$CEPSNTYPE
380
     0
  9
$PSTYLEMODE
290
     1
  9
$FINGERPRINTGUID
  2
{68489FF6-7D1C-4EE8-B3BF-7D9188491E5C}
  9
$VERSIONGUID
  2
{DB646117-5ED1-427A-820F-F93EF99C896C}
  9
$EXTNAMES
290
     1
  9
$PSVPSCALE
 40
0.0
  9
$OLESTARTUP
290
     0
  9
$SORTENTS
280
   127
  9
$INDEXCTL
280
     0
  9
$HIDETEXT
280
     1
  9
$XCLIPFRAME
280
     0
  9
$HALOGAP
280
     0
  9
$OBSCOLOR
 70
   257
  9
$OBSLTYPE
280
     0
  9
$INTERSECTIONDISPLAY
280
     0
  9
$INTERSECTIONCOLOR
 70
   257
  9
$DIMASSOC
280
     2
  9
$PROJECTNAME
  1

  9
$CAMERADISPLAY
290
     0
  9
$LENSLENGTH
 40
50.0
  9
$CAMERAHEIGHT
 40
0.0
  9
$STEPSPERSEC
 40
2.0
  9
$STEPSIZE
 40
6.0
  9
$3DDWFPREC
 40
2.0
  9
$PSOLWIDTH
 40
0.25
  9
$PSOLHEIGHT
 40
4.0
  9
$LOFTANG1
 40
1.570796326794896
  9
$LOFTANG2
 40
1.570796326794896
  9
$LOFTMAG1
 40
0.0
  9
$LOFTMAG2
 40
0.0
  9
$LOFTPARAM
 70
     7
  9
$LOFTNORMALS
280
     1
  9
$LATITUDE
 40
37.795
  9
$LONGITUDE
 40
-122.394
  9
$NORTHDIRECTION
 40
0.0
  9
$TIMEZONE
 70
 -8000
  9
$LIGHTGLYPHDISPLAY
280
     1
  9
$TILEMODELIGHTSYNCH
280
     1
  9
$CMATERIAL
347
44
  9
$SOLIDHIST
280
     0
  9
$SHOWHIST
280
     1
  9
$DWFFRAME
280
     2
  9
$DGNFRAME
280
     0
  9
$REALWORLDSCALE
290
     1
  9
$INTERFERECOLOR
 62
     1
  9
$INTERFEREOBJVS
345
33
  9
$INTERFEREVPVS
346
30
  9
$CSHADOW
280
     0
  9
$SHADOWPLANELOCATION
 40
0.0
  0
ENDSEC
  0
SECTION
  2
CLASSES
  0
CLASS
  1
ACDBDICTIONARYWDFLT
  2
AcDbDictionaryWithDefault
  3
ObjectDBX Classes
 90
        0
 91
        1
280
     0
281
     0
  0
CLASS
  1
VISUALSTYLE
  2
AcDbVisualStyle
  3
ObjectDBX Classes
 90
     4095
 91
       26
280
     0
281
     0
  0
CLASS
  1
MATERIAL
  2
AcDbMaterial
  3
ObjectDBX Classes
 90
     1153
 91
        3
280
     0
281
     0
  0
CLASS
  1
SCALE
  2
AcDbScale
  3
ObjectDBX Classes
 90
     1153
 91
       33
280
     0
281
     0
  0
CLASS
  1
SUN
  2
AcDbSun
  3
SCENEOE
 90
     1153
 91
        1
280
     0
281
     0
  0
CLASS
  1
DICTIONARYVAR
  2
AcDbDictionaryVar
  3
ObjectDBX Classes
 90
        0
 91
        9
280
     0
281
     0
  0
CLASS
  1
TABLESTYLE
  2
AcDbTableStyle
  3
ObjectDBX Classes
 90
     4095
 91
        1
280
     0
281
     0
  0
CLASS
  1
MLEADERSTYLE
  2
AcDbMLeaderStyle
  3
ACDB_MLEADERSTYLE_CLASS
 90
     4095
 91
        1
280
     0
281
     0
  0
CLASS
  1
ACDBSECTIONVIEWSTYLE
  2
AcDbSectionViewStyle
  3
ObjectDBX Classes
 90
     1025
 91
        1
280
     0
281
     0
  0
CLASS
  1
ACDBDETAILVIEWSTYLE
  2
AcDbDetailViewStyle
  3
ObjectDBX Classes
 90
     1025
 91
        1
280
     0
281
     0
  0
CLASS
  1
SOLID_BACKGROUND
  2
AcDbSolidBackground
  3
SCENEOE
 90
     4095
 91
        0
280
     0
281
     0
  0
CLASS
  1
NPOCOLLECTION
  2
AcDbImpNonPersistentObjectsCollection
  3
ObjectDBX Classes
 90
     1153
 91
        0
280
     0
281
     0
  0
CLASS
  1
SORTENTSTABLE
  2
AcDbSortentsTable
  3
ObjectDBX Classes
 90
        0
 91
        1
280
     0
281
     0
  0
CLASS
  1
CELLSTYLEMAP
  2
AcDbCellStyleMap
  3
ObjectDBX Classes
 90
     1152
 91
        1
280
     0
281
     0
  0
ENDSEC
  0
SECTION
  2
TABLES
  0
TABLE
  2
VPORT
  5
8
102
{ACAD_XDICTIONARY
360
9AC34
102
}
330
0
100
AcDbSymbolTable
 70
     1
  0
VPORT
  5
29
330
8
100
AcDbSymbolTableRecord
100
AcDbViewportTableRecord
  2
*Active
 70
     0
 10
0.0
 20
0.0
 11
1.0
 21
1.0
 12
380.6071363396595
 22
-1679.477557736641
 13
0.0
 23
0.0
 14
0.5
 24
0.5
 15
0.5
 25
0.5
 16
-0.0000000000038416
 26
0.0
 36
17301.0519853668
 17
-0.8257019254737087
 27
1463.891364253162
 37
462.8289520824328
 40
3994.249717954927
 41
2.472938144329897
 42
50.0
 43
0.0
 44
0.0
 50
0.0
 51
0.0
 71
     0
 72
   100
 73
     1
 74
     3
 75
     1
 76
     0
 77
     0
 78
     0
281
     0
 65
     1
110
0.0
120
0.0
130
0.0
111
1.0
121
0.0
131
0.0
112
0.0
122
1.0
132
0.0
 79
     0
146
0.0
348
2F
 60
     3
 61
     5
292
     1
282
     1
141
0.0
142
0.0
 63
   250
421
  3355443
361
69
1001
ACAD_NAV_VCDISPLAY
1070
     3
  0
ENDTAB
  0
TABLE
  2
LTYPE
  5
5
330
0
100
AcDbSymbolTable
 70
     1
  0
LTYPE
  5
14
330
5
100
AcDbSymbolTableRecord
100
AcDbLinetypeTableRecord
  2
ByBlock
 70
     0
  3

 72
    65
 73
     0
 40
0.0
  0
LTYPE
  5
15
330
5
100
AcDbSymbolTableRecord
100
AcDbLinetypeTableRecord
  2
ByLayer
 70
     0
  3

 72
    65
 73
     0
 40
0.0
  0
LTYPE
  5
16
330
5
100
AcDbSymbolTableRecord
100
AcDbLinetypeTableRecord
  2
Continuous
 70
     0
  3
Solid line
 72
    65
 73
     0
 40
0.0
  0
ENDTAB
  0
TABLE
  2
LAYER
  5
2
102
{ACAD_XDICTIONARY
360
9AC84
102
}
330
0
100
AcDbSymbolTable
 70
     4
  0
LAYER
  5
10
102
{ACAD_XDICTIONARY
360
9AC7D
102
}
330
2
100
AcDbSymbolTableRecord
100
AcDbLayerTableRecord
  2
0
 70
     0
 62
     7
  6
Continuous
370
    -3
390
F
347
46
348
0
  0
LAYER
  5
6A
102
{ACAD_XDICTIONARY
360
9AC7F
102
}
330
2
100
AcDbSymbolTableRecord
100
AcDbLayerTableRecord
  2
Default
 70
     0
 62
     7
  6
Continuous
370
    -3
390
F
347
46
348
0
  0
ENDTAB
  0
TABLE
  2
STYLE
  5
3
330
0
100
AcDbSymbolTable
 70
     1
  0
STYLE
  5
11
330
3
100
AcDbSymbolTableRecord
100
AcDbTextStyleTableRecord
  2
Standard
 70
     0
 40
0.0
 41
1.0
 50
0.0
 71
     0
 42
0.2
  3
txt
  4

  0
ENDTAB
  0
TABLE
  2
VIEW
  5
6
330
0
100
AcDbSymbolTable
 70
     1
  0
ENDTAB
  0
TABLE
  2
UCS
  5
7
330
0
100
AcDbSymbolTable
 70
     0
  0
ENDTAB
  0
TABLE
  2
APPID
  5
9
330
0
100
AcDbSymbolTable
 70
     3
  0
APPID
  5
12
330
9
100
AcDbSymbolTableRecord
100
AcDbRegAppTableRecord
  2
ACAD
 70
     0
  0
APPID
  5
9AC8A
330
9
100
AcDbSymbolTableRecord
100
AcDbRegAppTableRecord
  2
ACAD_NAV_VCDISPLAY
 70
     0
  0
APPID
  5
9AF23
330
9
100
AcDbSymbolTableRecord
100
AcDbRegAppTableRecord
  2
ACAD_EXEMPT_FROM_CAD_STANDARDS
 70
     0
  0
ENDTAB
  0
TABLE
  2
DIMSTYLE
  5
A
330
0
100
AcDbSymbolTable
 70
     1
100
AcDbDimStyleTable
 71
     1
340
27
  0
DIMSTYLE
105
27
330
A
100
AcDbSymbolTableRecord
100
AcDbDimStyleTableRecord
  2
Standard
 70
     0
340
11
  0
ENDTAB
  0
TABLE
  2
BLOCK_RECORD
  5
1
330
0
100
AcDbSymbolTable
 70
     1
  0
BLOCK_RECORD
  5
1F
102
{ACAD_XDICTIONARY
360
9AEFA
102
}
330
1
100
AcDbSymbolTableRecord
100
AcDbBlockTableRecord
  2
*Model_Space
340
22
 70
     0
280
     1
281
     0
  0
BLOCK_RECORD
  5
1B
330
1
100
AcDbSymbolTableRecord
100
AcDbBlockTableRecord
  2
*Paper_Space
340
1E
 70
     0
280
     1
281
     0
  0
BLOCK_RECORD
  5
23
330
1
100
AcDbSymbolTableRecord
100
AcDbBlockTableRecord
  2
*Paper_Space0
340
26
 70
     0
280
     1
281
     0
  0
ENDTAB
  0
ENDSEC
  0
SECTION
  2
BLOCKS
  0
BLOCK
  5
20
330
1F
100
AcDbEntity
  8
0
100
AcDbBlockBegin
  2
*Model_Space
 70
     0
 10
0.0
 20
0.0
 30
0.0
  3
*Model_Space
  1

  0
ENDBLK
  5
21
330
1F
100
AcDbEntity
  8
0
100
AcDbBlockEnd
  0
BLOCK
  5
1C
330
1B
100
AcDbEntity
 67
     1
  8
0
100
AcDbBlockBegin
  2
*Paper_Space
 70
     0
 10
0.0
 20
0.0
 30
0.0
  3
*Paper_Space
  1

  0
ENDBLK
  5
1D
330
1B
100
AcDbEntity
 67
     1
  8
0
100
AcDbBlockEnd
  0
BLOCK
  5
24
330
23
100
AcDbEntity
 67
     1
  8
0
100
AcDbBlockBegin
  2
*Paper_Space0
 70
     0
 10
0.0
 20
0.0
 30
0.0
  3
*Paper_Space0
  1

  0
ENDBLK
  5
25
330
23
100
AcDbEntity
 67
     1
  8
0
100
AcDbBlockEnd
  0
ENDSEC
  0
SECTION
  2
ENTITIES
  0
SPLINE
  5
9B379
330
1F
100
AcDbEntity
  8
Default
100
AcDbSpline
210
0.0
220
0.0
230
1.0
 70
    12
 71
     2
 72
     6
 73
     3
 74
     0
 42
0.000000001
 43
0.0000000001
 40
0.0
 40
0.0
 40
0.0
 40
2.356194490192339
 40
2.356194490192339
 40
2.356194490192339
 10
-381.0
 20
342.9000000000003
 30
0.0
 41
1.0
 10
-380.9999999999927
 20
381.0000000000002
 30
0.0
 41
0.7071067811865471
 10
-342.9000000000014
 20
381.0000000000002
 30
0.0
 41
1.0
  0
SPLINE
  5
9B37A
330
1F
100
AcDbEntity
  8
Default
100
AcDbSpline
210
0.0
220
0.0
230
1.0
 70
    24
 71
     2
 72
     6
 73
     3
 74
     0
 42
0.000000001
 43
0.0000000001
 40
0.0
 40
0.0
 40
0.0
 40
27.0
 40
27.0
 40
27.0
 10
-342.9000000000014
 20
381.0000000000002
 30
0.0
 10
0.0
 20
381.0000000000002
 30
0.0
 10
342.9000000000014
 20
381.0000000000002
 30
0.0
  0
SPLINE
  5
9B37B
330
1F
100
AcDbEntity
  8
Default
100
AcDbSpline
210
0.0
220
0.0
230
1.0
 70
    12
 71
     2
 72
     6
 73
     3
 74
     0
 42
0.000000001
 43
0.0000000001
 40
0.0
 40
0.0
 40
0.0
 40
2.35619449019235
 40
2.35619449019235
 40
2.35619449019235
 10
342.9000000000014
 20
381.0000000000002
 30
0.0
 41
1.0
 10
380.9999999999927
 20
381.0000000000002
 30
0.0
 41
0.707106781186544
 10
381.0
 20
342.9000000000003
 30
0.0
 41
1.0
  0
SPLINE
  5
9B37C
330
1F
100
AcDbEntity
  8
Default
100
AcDbSpline
210
0.0
220
0.0
230
1.0
 70
    24
 71
     2
 72
     6
 73
     3
 74
     0
 42
0.000000001
 43
0.0000000001
 40
0.0
 40
0.0
 40
0.0
 40
27.0
 40
27.0
 40
27.0
 10
381.0
 20
342.9000000000003
 30
0.0
 10
381.0
 20
-0.0000000000002274
 30
0.0
 10
381.0
 20
-342.9000000000003
 30
0.0
  0
SPLINE
  5
9B37D
330
1F
100
AcDbEntity
  8
Default
100
AcDbSpline
210
0.0
220
0.0
230
1.0
 70
    12
 71
     2
 72
     6
 73
     3
 74
     0
 42
0.000000001
 43
0.0000000001
 40
0.0
 40
0.0
 40
0.0
 40
2.35619449019235
 40
2.35619449019235
 40
2.35619449019235
 10
381.0
 20
-342.9000000000003
 30
0.0
 41
1.0
 10
381.0
 20
-380.9999999999998
 30
0.0
 41
0.707106781186546
 10
342.9000000000014
 20
-381.0000000000002
 30
0.0
 41
1.0
  0
SPLINE
  5
9B37E
330
1F
100
AcDbEntity
  8
Default
100
AcDbSpline
210
0.0
220
0.0
230
1.0
 70
    24
 71
     2
 72
     6
 73
     3
 74
     0
 42
0.000000001
 43
0.0000000001
 40
0.0
 40
0.0
 40
0.0
 40
27.0
 40
27.0
 40
27.0
 10
342.9000000000014
 20
-381.0000000000002
 30
0.0
 10
0.0
 20
-381.0000000000002
 30
0.0
 10
-342.9000000000014
 20
-381.0000000000002
 30
0.0
  0
SPLINE
  5
9B37F
330
1F
100
AcDbEntity
  8
Default
100
AcDbSpline
210
0.0
220
0.0
230
1.0
 70
    12
 71
     2
 72
     6
 73
     3
 74
     0
 42
0.000000001
 43
0.0000000001
 40
0.0
 40
0.0
 40
0.0
 40
2.356194490192339
 40
2.356194490192339
 40
2.356194490192339
 10
-342.9000000000014
 20
-381.0000000000002
 30
0.0
 41
1.0
 10
-381.0
 20
-381.0000000000004
 30
0.0
 41
0.707106781186548
 10
-381.0
 20
-342.9000000000003
 30
0.0
 41
1.0
  0
SPLINE
  5
9B380
330
1F
100
AcDbEntity
  8
Default
100
AcDbSpline
210
0.0
220
0.0
230
1.0
 70
    24
 71
     2
 72
     6
 73
     3
 74
     0
 42
0.000000001
 43
0.0000000001
 40
0.0
 40
0.0
 40
0.0
 40
27.0
 40
27.0
 40
27.0
 10
-381.0
 20
-342.9000000000003
 30
0.0
 10
-381.0
 20
-0.0000000000002274
 30
0.0
 10
-381.0
 20
342.9000000000003
 30
0.0
  0
ARC
  5
9B494
330
1F
100
AcDbEntity
  8
Default
100
AcDbCircle
 10
68.35241131926887
 20
1069.236462786023
 30
0.0
 40
455.7859007505599
100
AcDbArc
 50
226.6258777617988
 51
235.4652013669213
  0
SPLINE
  5
9B495
330
1F
100
AcDbEntity
  8
Default
100
AcDbSpline
210
0.0
220
0.0
230
1.0
 70
     8
 71
     3
 72
    14
 73
    10
 74
     0
 42
0.000000001
 43
0.0000000001
 40
0.0000000000000002
 40
0.0000000000000002
 40
0.0000000000000002
 40
0.0000000000000002
 40
1.0
 40
2.0
 40
3.0
 40
4.0
 40
5.0
 40
6.0
 40
7.0
 40
7.0
 40
7.0
 40
7.0
 10
-244.6627865012342
 20
737.932564142512
 30
0.0
 10
-254.9947963351733
 20
747.6942244045686
 30
0.0
 10
-275.408250744571
 20
767.5218208249344
 30
0.0
 10
-303.7297316790864
 20
799.4191815765116
 30
0.0
 10
-331.2748065587366
 20
832.0267026964193
 30
0.0
 10
-356.4863334533511
 20
866.3744894311612
 30
0.0
 10
-375.6562887168548
 20
905.2755651711013
 30
0.0
 10
-374.4786626953355
 20
948.970328031436
 30
0.0
 10
-366.5564463827177
 20
976.2906309185181
 30
0.0
 10
-361.2646189710285
 20
989.5116972212372
 30
0.0
  0
ARC
  5
9B496
330
1F
100
AcDbEntity
  8
Default
100
AcDbCircle
 10
-68.35235771688167
 20
1069.236462786023
 30
0.0
 40
455.7859007505599
100
AcDbArc
 50
304.5347986330786
 51
313.3741222382012
  0
SPLINE
  5
9B497
330
1F
100
AcDbEntity
  8
Default
100
AcDbSpline
210
0.0
220
0.0
230
1.0
 70
     8
 71
     3
 72
    14
 73
    10
 74
     0
 42
0.000000001
 43
0.0000000001
 40
0.0000000000000002
 40
0.0000000000000002
 40
0.0000000000000002
 40
0.0000000000000002
 40
1.0
 40
2.0
 40
3.0
 40
4.0
 40
5.0
 40
6.0
 40
7.0
 40
7.0
 40
7.0
 40
7.0
 10
244.6628401036214
 20
737.932564142512
 30
0.0
 10
254.9948499375605
 20
747.6942244045686
 30
0.0
 10
275.4083043469582
 20
767.5218208249344
 30
0.0
 10
303.7297852814736
 20
799.4191815765116
 30
0.0
 10
331.2748601611311
 20
832.0267026964193
 30
0.0
 10
356.4863870557383
 20
866.3744894311612
 30
0.0
 10
375.656342319242
 20
905.2755651711013
 30
0.0
 10
374.47871629773
 20
948.970328031436
 30
0.0
 10
366.5564999851049
 20
976.2906309185181
 30
0.0
 10
361.2646725734157
 20
989.5116972212372
 30
0.0
  0
SPLINE
  5
9B498
330
1F
100
AcDbEntity
  8
Default
100
AcDbSpline
210
0.0
220
0.0
230
1.0
 70
     8
 71
     3
 72
    19
 73
    15
 74
     0
 42
0.000000001
 43
0.0000000001
 40
-12.0
 40
-12.0
 40
-12.0
 40
-12.0
 40
-11.0
 40
-10.0
 40
-9.0
 40
-8.0
 40
-7.0
 40
-6.0
 40
-5.0
 40
-4.0
 40
-3.0
 40
-2.0
 40
-1.0
 40
0.0
 40
0.0
 40
0.0
 40
0.0
 10
209.8966606542308
 20
676.6504389037354
 30
0.0
 10
227.2964684137987
 20
693.4076051183502
 30
0.0
 10
261.8007532613483
 20
727.0404379242572
 30
0.0
 10
313.6984177194463
 20
778.0646070720804
 30
0.0
 10
356.9738452459569
 20
835.2822519707197
 30
0.0
 10
400.7839282064305
 20
896.4438685101159
 30
0.0
 10
395.3829634418434
 20
971.7774246655835
 30
0.0
 10
365.0453760672681
 20
1037.93418185932
 30
0.0
 10
322.7085994186418
 20
1097.09005131293
 30
0.0
 10
269.8080796576178
 20
1147.021167664819
 30
0.0
 10
209.1798092451718
 20
1187.096490171214
 30
0.0
 10
142.7442046373689
 20
1216.552103990611
 30
0.0
 10
72.41501499273727
 20
1234.842269138078
 30
0.0
 10
24.14556605177495
 20
1239.10410945868
 30
0.0
 10
0.0000268011935987
 20
1239.115452504379
 30
0.0
  0
SPLINE
  5
9B499
330
1F
100
AcDbEntity
  8
Default
100
AcDbSpline
210
0.0
220
0.0
230
1.0
 70
     8
 71
     3
 72
    19
 73
    15
 74
     0
 42
0.000000001
 43
0.0000000001
 40
0.0
 40
0.0
 40
0.0
 40
0.0
 40
1.0
 40
2.0
 40
3.0
 40
4.0
 40
5.0
 40
6.0
 40
7.0
 40
8.0
 40
9.0
 40
10.0
 40
11.0
 40
12.0
 40
12.0
 40
12.0
 40
12.0
 10
0.0000268011935987
 20
1239.115452504379
 30
0.0
 10
-24.14551244938775
 20
1239.10410945868
 30
0.0
 10
-72.41496139035007
 20
1234.842269138078
 30
0.0
 10
-142.7441510349817
 20
1216.552103990611
 30
0.0
 10
-209.1797556427773
 20
1187.096490171214
 30
0.0
 10
-269.8080260552233
 20
1147.021167664819
 30
0.0
 10
-322.7085458162546
 20
1097.09005131293
 30
0.0
 10
-365.0453224648809
 20
1037.93418185932
 30
0.0
 10
-395.382909839449
 20
971.7774246655835
 30
0.0
 10
-400.7838746040433
 20
896.4438685101159
 30
0.0
 10
-356.9737916435624
 20
835.2822519707197
 30
0.0
 10
-313.6983641170591
 20
778.0646070720804
 30
0.0
 10
-261.8006996589538
 20
727.0404379242572
 30
0.0
 10
-227.2964148114042
 20
693.4076051183502
 30
0.0
 10
-209.8966070518436
 20
676.6504389037354
 30
0.0
  0
SPLINE
  5
9B49A
330
1F
100
AcDbEntity
  8
Default
100
AcDbSpline
210
0.0
220
0.0
230
1.0
 70
     8
 71
     3
 72
    10
 73
     6
 74
     0
 42
0.000000001
 43
0.0000000001
 40
0.0
 40
0.0
 40
0.0
 40
0.0
 40
1.0
 40
2.0
 40
3.0
 40
3.0
 40
3.0
 40
3.0
 10
378.7501959686779
 20
881.8575906418837
 30
0.0
 10
384.4679814884803
 20
893.4896512777276
 30
0.0
 10
389.8608583561945
 20
919.2687191250325
 30
0.0
 10
384.7427648174125
 20
958.0227524851906
 30
0.0
 10
376.7207762466642
 20
982.6403836755106
 30
0.0
 10
371.7964322036496
 20
994.5884444117291
 30
0.0
  0
SPLINE
  5
9B49B
330
1F
100
AcDbEntity
  8
Default
100
AcDbSpline
210
0.0
220
0.0
230
1.0
 70
     8
 71
     3
 72
    10
 73
     6
 74
     0
 42
0.000000001
 43
0.0000000001
 40
-3.0
 40
-3.0
 40
-3.0
 40
-3.0
 40
-2.0
 40
-1.0
 40
0.0
 40
0.0
 40
0.0
 40
0.0
 10
371.7964322036496
 20
994.5884444117291
 30
0.0
 10
352.025297424545
 20
1042.349135894165
 30
0.0
 10
289.4716740175645
 20
1127.231307242237
 30
0.0
 10
154.8472380722451
 20
1208.925780208661
 30
0.0
 10
51.60678600776737
 20
1227.631237096246
 30
0.0
 10
0.0000268011935987
 20
1227.211786669992
 30
0.0
  0
SPLINE
  5
9B49C
330
1F
100
AcDbEntity
  8
Default
100
AcDbSpline
210
0.0
220
0.0
230
1.0
 70
     8
 71
     3
 72
    10
 73
     6
 74
     0
 42
0.000000001
 43
0.0000000001
 40
0.0
 40
0.0
 40
0.0
 40
0.0
 40
1.0
 40
2.0
 40
3.0
 40
3.0
 40
3.0
 40
3.0
 10
0.0000268011935987
 20
1227.211786669992
 30
0.0
 10
-51.60673240538017
 20
1227.631237096246
 30
0.0
 10
-154.8471844698579
 20
1208.925780208661
 30
0.0
 10
-289.47162041517
 20
1127.231307242237
 30
0.0
 10
-352.0252438221578
 20
1042.349135894165
 30
0.0
 10
-371.7963786012624
 20
994.5884444117291
 30
0.0
  0
SPLINE
  5
9B49D
330
1F
100
AcDbEntity
  8
Default
100
AcDbSpline
210
0.0
220
0.0
230
1.0
 70
     8
 71
     3
 72
    10
 73
     6
 74
     0
 42
0.000000001
 43
0.0000000001
 40
-3.0
 40
-3.0
 40
-3.0
 40
-3.0
 40
-2.0
 40
-1.0
 40
0.0
 40
0.0
 40
0.0
 40
0.0
 10
-371.7963786012624
 20
994.5884444117291
 30
0.0
 10
-376.720722644277
 20
982.6403836755106
 30
0.0
 10
-384.7427112150254
 20
958.0227524851906
 30
0.0
 10
-389.8608047538001
 20
919.2687191250325
 30
0.0
 10
-384.4679278860858
 20
893.4896512777276
 30
0.0
 10
-378.7501423662907
 20
881.8575906418837
 30
0.0
  0
SPLINE
  5
9B49E
330
1F
100
AcDbEntity
  8
Default
100
AcDbSpline
210
0.0
220
0.0
230
1.0
 70
     8
 71
     3
 72
    24
 73
    20
 74
     0
 42
0.000000001
 43
0.0000000001
 40
0.0
 40
0.0
 40
0.0
 40
0.0
 40
1.0
 40
2.0
 40
3.0
 40
4.0
 40
5.0
 40
6.0
 40
7.0
 40
8.0
 40
9.0
 40
10.0
 40
11.0
 40
12.0
 40
13.0
 40
14.0
 40
15.0
 40
16.0
 40
17.0
 40
17.0
 40
17.0
 40
17.0
 10
-378.7501959686706
 20
881.8575906418837
 30
0.0
 10
-374.4975251771102
 20
873.0338846220938
 30
0.0
 10
-364.5030704375531
 20
856.1693310413092
 30
0.0
 10
-347.7346873842471
 20
832.0392807413726
 30
0.0
 10
-329.4203579542227
 20
809.0721075772917
 30
0.0
 10
-310.9342710113924
 20
786.2539362206307
 30
0.0
 10
-292.2829773966587
 20
763.5657664788286
 30
0.0
 10
-272.9682810580707
 20
741.4373358741904
 30
0.0
 10
-252.9059233433291
 20
719.9819830670685
 30
0.0
 10
-232.1885113119933
 20
699.168010096656
 30
0.0
 10
-211.7136112406588
 20
678.0984619586006
 30
0.0
 10
-189.6197632873227
 20
658.708008796404
 30
0.0
 10
-165.9716964156614
 20
641.2507566669892
 30
0.0
 10
-140.8687028755375
 20
625.9481463547526
 30
0.0
 10
-114.4624791250535
 20
613.020615195528
 30
0.0
 10
-86.91071479221864
 20
602.740949800529
 30
0.0
 10
-58.44381679753133
 20
595.3630207110463
 30
0.0
 10
-29.36961537378375
 20
590.9508584395235
 30
0.0
 10
-9.789590057996974
 20
589.9837033275798
 30
0.0
 10
0.0
 20
590.0
 30
0.0
  0
SPLINE
  5
9B49F
330
1F
100
AcDbEntity
  8
Default
100
AcDbSpline
210
0.0
220
0.0
230
1.0
 70
     8
 71
     3
 72
    24
 73
    20
 74
     0
 42
0.000000001
 43
0.0000000001
 40
-17.0
 40
-17.0
 40
-17.0
 40
-17.0
 40
-16.0
 40
-15.0
 40
-14.0
 40
-13.0
 40
-12.0
 40
-11.0
 40
-10.0
 40
-9.0
 40
-8.0
 40
-7.0
 40
-6.0
 40
-5.0
 40
-4.0
 40
-3.0
 40
-2.0
 40
-1.0
 40
0.0
 40
0.0
 40
0.0
 40
0.0
 10
0.0
 20
590.0
 30
0.0
 10
9.789590057996974
 20
589.9837033275798
 30
0.0
 10
29.36961537379102
 20
590.9508584395235
 30
0.0
 10
58.4438167975386
 20
595.3630207110463
 30
0.0
 10
86.91071479221864
 20
602.740949800529
 30
0.0
 10
114.4624791250608
 20
613.020615195528
 30
0.0
 10
140.8687028755448
 20
625.9481463547526
 30
0.0
 10
165.9716964156614
 20
641.2507566669892
 30
0.0
 10
189.6197632873227
 20
658.708008796404
 30
0.0
 10
211.7136112406661
 20
678.0984619586006
 30
0.0
 10
232.1885113120006
 20
699.168010096656
 30
0.0
 10
252.9059233433363
 20
719.9819830670685
 30
0.0
 10
272.968281058078
 20
741.4373358741904
 30
0.0
 10
292.282977396666
 20
763.5657664788286
 30
0.0
 10
310.9342710113997
 20
786.2539362206307
 30
0.0
 10
329.42035795423
 20
809.0721075772917
 30
0.0
 10
347.7346873842543
 20
832.0392807413726
 30
0.0
 10
364.5030704375604
 20
856.1693310413092
 30
0.0
 10
374.4975251771102
 20
873.0338846220938
 30
0.0
 10
378.7501959686779
 20
881.8575906418837
 30
0.0
  0
SPLINE
  5
9B4A0
330
1F
100
AcDbEntity
  8
Default
100
AcDbSpline
210
0.0
220
0.0
230
1.0
 70
     8
 71
     3
 72
    12
 73
     8
 74
     0
 42
0.000000001
 43
0.0000000001
 40
-15.35241690788854
 40
-15.35241690788854
 40
-15.35241690788854
 40
-15.35241690788854
 40
-11.42846741267097
 40
-7.624448814229928
 40
-3.868777023834103
 40
-1.918304340297428
 40
0.0
 40
0.0
 40
0.0
 40
0.0
 10
244.4746714390567
 20
842.9018671671638
 30
0.0
 10
244.475207215095
 20
876.1093959779536
 30
0.0
 10
232.6523560278656
 20
941.6872692432844
 30
0.0
 10
179.198570549699
 20
1025.245525216015
 30
0.0
 10
111.1289116722837
 20
1071.339066799796
 30
0.0
 10
49.00233395535178
 20
1089.98482390361
 30
0.0
 10
16.24009443981776
 20
1093.155005493243
 30
0.0
 10
0.0000268011935987
 20
1093.141527722501
 30
0.0
  0
SPLINE
  5
9B4A1
330
1F
100
AcDbEntity
  8
Default
100
AcDbSpline
210
0.0
220
0.0
230
1.0
 70
     8
 71
     3
 72
    12
 73
     8
 74
     0
 42
0.000000001
 43
0.0000000001
 40
0.0
 40
0.0
 40
0.0
 40
0.0
 40
1.918304340297428
 40
3.868777023834103
 40
7.624448814229928
 40
11.42846741267097
 40
15.35241690788854
 40
15.35241690788854
 40
15.35241690788854
 40
15.35241690788854
 10
0.0000268011935987
 20
1093.141527722501
 30
0.0
 10
-16.24004083742329
 20
1093.155005493243
 30
0.0
 10
-49.00228035296459
 20
1089.98482390361
 30
0.0
 10
-111.1288580698965
 20
1071.339066799796
 30
0.0
 10
-179.1985169473119
 20
1025.245525216015
 30
0.0
 10
-232.6523024254784
 20
941.6872692432844
 30
0.0
 10
-244.4751536127078
 20
876.1093959779536
 30
0.0
 10
-244.4746178366695
 20
842.9018671671638
 30
0.0
  0
SPLINE
  5
9B4A2
330
1F
100
AcDbEntity
  8
Default
100
AcDbSpline
210
0.0
220
0.0
230
1.0
 70
     8
 71
     3
 72
    12
 73
     8
 74
     0
 42
0.000000001
 43
0.0000000001
 40
-14.89017237659325
 40
-14.89017237659325
 40
-14.89017237659325
 40
-14.89017237659325
 40
-11.21816892444778
 40
-7.516681648226318
 40
-3.774518777477096
 40
-1.889354184169619
 40
0.0
 40
0.0
 40
0.0
 40
0.0
 10
-244.4746178366695
 20
842.9018671671638
 30
0.0
 10
-244.4829505858507
 20
811.8080433026316
 30
0.0
 10
-231.6012645097144
 20
749.3952790412622
 30
0.0
 10
-176.9403155099062
 20
670.4819842442557
 30
0.0
 10
-109.2973611974521
 20
626.8733854685624
 30
0.0
 10
-47.95467141199333
 20
608.8977994048154
 30
0.0
 10
-15.9951758610623
 20
605.824057615926
 30
0.0
 10
0.0000268011935987
 20
605.8223346031891
 30
0.0
  0
SPLINE
  5
9B4A3
330
1F
100
AcDbEntity
  8
Default
100
AcDbSpline
210
0.0
220
0.0
230
1.0
 70
     8
 71
     3
 72
    12
 73
     8
 74
     0
 42
0.000000001
 43
0.0000000001
 40
0.0
 40
0.0
 40
0.0
 40
0.0
 40
1.889354184169619
 40
3.774518777477096
 40
7.516681648226318
 40
11.21816892444778
 40
14.89017237659325
 40
14.89017237659325
 40
14.89017237659325
 40
14.89017237659325
 10
0.0000268011935987
 20
605.8223346031891
 30
0.0
 10
15.9952294634495
 20
605.824057615926
 30
0.0
 10
47.95472501438053
 20
608.8977994048154
 30
0.0
 10
109.297414799832
 20
626.8733854685624
 30
0.0
 10
176.9403691123007
 20
670.4819842442557
 30
0.0
 10
231.6013181121089
 20
749.3952790412622
 30
0.0
 10
244.4830041882451
 20
811.8080433026316
 30
0.0
 10
244.4746714390567
 20
842.9018671671638
 30
0.0
  0
POLYLINE
  5
9B4A4
330
1F
100
AcDbEntity
  8
Default
100
AcDb2dPolyline
 66
     1
 10
0.0
 20
0.0
 30
0.0
  0
VERTEX
  5
9B4A5
330
9B4A4
100
AcDbEntity
  8
Default
100
AcDbVertex
100
AcDb2dVertex
 10
-229.2161933842653
 20
695.3331592679242
 30
0.0
  0
VERTEX
  5
9B4A6
330
9B4A4
100
AcDbEntity
  8
Default
100
AcDbVertex
100
AcDb2dVertex
 10
-232.8485314187929
 20
689.1666729017633
 30
0.0
  0
SEQEND
  5
9B4A7
330
9B4A4
100
AcDbEntity
  8
Default
  0
SPLINE
  5
9B4A8
330
1F
100
AcDbEntity
  8
Default
100
AcDbSpline
210
0.0
220
0.0
230
1.0
 70
    12
 71
     2
 72
     8
 73
     5
 74
     0
 42
0.000000001
 43
0.0000000001
 40
0.0
 40
0.0
 40
0.0
 40
0.0657021758075414
 40
0.0657021758075414
 40
0.5513779496561005
 40
0.5513779496561005
 40
0.5513779496561005
 10
-232.8485314187929
 20
689.1666729017633
 30
0.0
 41
1.0
 10
-233.273853777544
 20
688.4443668293798
 30
0.0
 41
0.9938146782922427
 10
-233.5291457729909
 20
687.6463271233087
 30
0.0
 41
1.0
 10
-235.7907122710671
 20
680.1771139913926
 30
0.0
 41
0.7132736251541142
 10
-228.3622646911172
 20
677.7850449315455
 30
0.0
 41
1.0
  0
SPLINE
  5
9B4A9
330
1F
100
AcDbEntity
  8
Default
100
AcDbSpline
210
0.0
220
0.0
230
1.0
 70
    12
 71
     2
 72
     6
 73
     3
 74
     0
 42
0.000000001
 43
0.0000000001
 40
0.0
 40
0.0
 40
0.0
 40
0.4162774601092229
 40
0.4162774601092229
 40
0.4162774601092229
 10
-228.3622646911172
 20
677.7850449315455
 30
0.0
 41
1.0
 10
-222.4194611919155
 20
675.7254806416467
 30
0.0
 41
0.7771276355120614
 10
-219.1696384435636
 20
681.1104013094627
 30
0.0
 41
0.9999999774845855
  0
POLYLINE
  5
9B4AA
330
1F
100
AcDbEntity
  8
Default
100
AcDb2dPolyline
 66
     1
 10
0.0
 20
0.0
 30
0.0
  0
VERTEX
  5
9B4AB
330
9B4AA
100
AcDbEntity
  8
Default
100
AcDbVertex
100
AcDb2dVertex
 10
-219.1696384435636
 20
681.1104013094627
 30
0.0
  0
VERTEX
  5
9B4AC
330
9B4AA
100
AcDbEntity
  8
Default
100
AcDbVertex
100
AcDb2dVertex
 10
-217.4847670426752
 20
683.970745254408
 30
0.0
  0
SEQEND
  5
9B4AD
330
9B4AA
100
AcDbEntity
  8
Default
  0
POLYLINE
  5
9B4AE
330
1F
100
AcDbEntity
  8
Default
100
AcDb2dPolyline
 66
     1
 10
0.0
 20
0.0
 30
0.0
  0
VERTEX
  5
9B4AF
330
9B4AE
100
AcDbEntity
  8
Default
100
AcDbVertex
100
AcDb2dVertex
 10
229.2162469866525
 20
695.3331592679242
 30
0.0
  0
VERTEX
  5
9B4B0
330
9B4AE
100
AcDbEntity
  8
Default
100
AcDbVertex
100
AcDb2dVertex
 10
232.8485850211728
 20
689.1666729017633
 30
0.0
  0
SEQEND
  5
9B4B1
330
9B4AE
100
AcDbEntity
  8
Default
  0
SPLINE
  5
9B4B2
330
1F
100
AcDbEntity
  8
Default
100
AcDbSpline
210
0.0
220
0.0
230
1.0
 70
    12
 71
     2
 72
     8
 73
     5
 74
     0
 42
0.000000001
 43
0.0000000001
 40
0.0
 40
0.0
 40
0.0
 40
0.0657021758075414
 40
0.0657021758075414
 40
0.5513779496561005
 40
0.5513779496561005
 40
0.5513779496561005
 10
232.8485850211728
 20
689.1666729017633
 30
0.0
 41
1.0
 10
233.2739073799312
 20
688.4443668293798
 30
0.0
 41
0.9938146782922427
 10
233.5291993753781
 20
687.6463271233087
 30
0.0
 41
1.0
 10
235.7907658734621
 20
680.1771139913926
 30
0.0
 41
0.7132736251541142
 10
228.3623182935043
 20
677.7850449315455
 30
0.0
 41
1.0
  0
SPLINE
  5
9B4B3
330
1F
100
AcDbEntity
  8
Default
100
AcDbSpline
210
0.0
220
0.0
230
1.0
 70
    12
 71
     2
 72
     6
 73
     3
 74
     0
 42
0.000000001
 43
0.0000000001
 40
0.0
 40
0.0
 40
0.0
 40
0.4162774601092229
 40
0.4162774601092229
 40
0.4162774601092229
 10
228.3623182935043
 20
677.7850449315455
 30
0.0
 41
1.0
 10
222.4195147942956
 20
675.7254806416467
 30
0.0
 41
0.7771276355120614
 10
219.1696920459581
 20
681.1104013094627
 30
0.0
 41
0.9999999774845855
  0
POLYLINE
  5
9B4B4
330
1F
100
AcDbEntity
  8
Default
100
AcDb2dPolyline
 66
     1
 10
0.0
 20
0.0
 30
0.0
  0
VERTEX
  5
9B4B5
330
9B4B4
100
AcDbEntity
  8
Default
100
AcDbVertex
100
AcDb2dVertex
 10
219.1696920459581
 20
681.1104013094627
 30
0.0
  0
VERTEX
  5
9B4B6
330
9B4B4
100
AcDbEntity
  8
Default
100
AcDbVertex
100
AcDb2dVertex
 10
217.4848206450697
 20
683.970745254408
 30
0.0
  0
SEQEND
  5
9B4B7
330
9B4B4
100
AcDbEntity
  8
Default
  0
SPLINE
  5
9B4B8
330
1F
100
AcDbEntity
  8
Default
100
AcDbSpline
210
0.0
220
0.0
230
1.0
 70
    24
 71
     2
 72
     6
 73
     3
 74
     0
 42
0.000000001
 43
0.0000000001
 40
3.997083449540205
 40
3.997083449540205
 40
3.997083449540205
 40
4.523710136401241
 40
4.523710136401241
 40
4.523710136401241
 10
-206.2480210501017
 20
1186.394608671354
 30
0.0
 10
-209.5921005116688
 20
1192.186724203336
 30
0.0
 10
-212.936179973236
 20
1197.978839735318
 30
0.0
  0
SPLINE
  5
9B4B9
330
1F
100
AcDbEntity
  8
Default
100
AcDbSpline
210
0.0
220
0.0
230
1.0
 70
    12
 71
     2
 72
     8
 73
     5
 74
     0
 42
0.000000001
 43
0.0000000001
 40
0.0
 40
0.0
 40
0.0
 40
0.4730574302815958
 40
0.4730574302815958
 40
0.9455180233888372
 40
0.9455180233888372
 40
0.9455180233888372
 10
-212.936179973236
 20
1197.978839735318
 30
0.0
 41
1.0
 10
-217.1093851644181
 20
1204.370126664331
 30
0.0
 41
0.7091869777201399
 10
-223.5251510794333
 20
1200.234653547447
 30
0.0
 41
1.0
 10
-230.2358013727862
 20
1196.583678763746
 30
0.0
 41
0.7071352214376397
 10
-226.5856706858031
 20
1189.872559132062
 30
0.0
 41
1.0
  0
SPLINE
  5
9B4BA
330
1F
100
AcDbEntity
  8
Default
100
AcDbSpline
210
0.0
220
0.0
230
1.0
 70
    24
 71
     2
 72
     6
 73
     3
 74
     0
 42
0.000000001
 43
0.0000000001
 40
-4.466989253625452
 40
-4.466989253625452
 40
-4.466989253625452
 40
-3.954134239084437
 40
-3.954134239084437
 40
-3.954134239084437
 10
-226.5856706858031
 20
1189.872559132062
 30
0.0
 10
-223.3290588095915
 20
1184.231901565645
 30
0.0
 10
-220.0724469333873
 20
1178.591243999226
 30
0.0
  0
SPLINE
  5
9B4BB
330
1F
100
AcDbEntity
  8
Default
100
AcDbSpline
210
0.0
220
0.0
230
1.0
 70
    24
 71
     2
 72
     6
 73
     3
 74
     0
 42
0.000000001
 43
0.0000000001
 40
3.997083449540205
 40
3.997083449540205
 40
3.997083449540205
 40
4.523710136401241
 40
4.523710136401241
 40
4.523710136401241
 10
206.2480746524961
 20
1186.394608671354
 30
0.0
 10
209.5921541140633
 20
1192.186724203336
 30
0.0
 10
212.9362335756304
 20
1197.978839735318
 30
0.0
  0
SPLINE
  5
9B4BC
330
1F
100
AcDbEntity
  8
Default
100
AcDbSpline
210
0.0
220
0.0
230
1.0
 70
    12
 71
     2
 72
     8
 73
     5
 74
     0
 42
0.000000001
 43
0.0000000001
 40
0.0
 40
0.0
 40
0.0
 40
0.4730574302815958
 40
0.4730574302815958
 40
0.9455180233888372
 40
0.9455180233888372
 40
0.9455180233888372
 10
212.9362335756304
 20
1197.978839735318
 30
0.0
 41
1.0
 10
217.1094387667981
 20
1204.370126664331
 30
0.0
 41
0.7091869777201399
 10
223.5252046818132
 20
1200.234653547447
 30
0.0
 41
1.0
 10
230.235854975188
 20
1196.583678763746
 30
0.0
 41
0.7071352214376397
 10
226.5857242881903
 20
1189.872559132062
 30
0.0
 41
1.0
  0
SPLINE
  5
9B4BD
330
1F
100
AcDbEntity
  8
Default
100
AcDbSpline
210
0.0
220
0.0
230
1.0
 70
    24
 71
     2
 72
     6
 73
     3
 74
     0
 42
0.000000001
 43
0.0000000001
 40
-4.466989253625452
 40
-4.466989253625452
 40
-4.466989253625452
 40
-3.954134239084437
 40
-3.954134239084437
 40
-3.954134239084437
 10
226.5857242881903
 20
1189.872559132062
 30
0.0
 10
223.329112411986
 20
1184.231901565645
 30
0.0
 10
220.0725005357745
 20
1178.591243999226
 30
0.0
  0
ARC
  5
9B4C9
330
1F
100
AcDbEntity
  8
Default
100
AcDbCircle
 10
68.35241131926887
 20
-1069.236462786024
 30
0.0
 40
455.7859007505599
100
AcDbArc
 50
124.5347986330787
 51
133.3741222382012
  0
SPLINE
  5
9B4CA
330
1F
100
AcDbEntity
  8
Default
100
AcDbSpline
210
0.0
220
0.0
230
1.0
 70
     8
 71
     3
 72
    14
 73
    10
 74
     0
 42
0.000000001
 43
0.0000000001
 40
0.0000000000000002
 40
0.0000000000000002
 40
0.0000000000000002
 40
0.0000000000000002
 40
1.0
 40
2.0
 40
3.0
 40
4.0
 40
5.0
 40
6.0
 40
7.0
 40
7.0
 40
7.0
 40
7.0
 10
-244.6627865012342
 20
-737.9325641425126
 30
0.0
 10
-254.9947963351733
 20
-747.694224404569
 30
0.0
 10
-275.408250744571
 20
-767.5218208249348
 30
0.0
 10
-303.7297316790864
 20
-799.4191815765121
 30
0.0
 10
-331.2748065587366
 20
-832.0267026964197
 30
0.0
 10
-356.4863334533511
 20
-866.3744894311617
 30
0.0
 10
-375.6562887168548
 20
-905.2755651711018
 30
0.0
 10
-374.4786626953355
 20
-948.9703280314365
 30
0.0
 10
-366.5564463827177
 20
-976.2906309185186
 30
0.0
 10
-361.2646189710285
 20
-989.5116972212376
 30
0.0
  0
ARC
  5
9B4CB
330
1F
100
AcDbEntity
  8
Default
100
AcDbCircle
 10
-68.35235771688167
 20
-1069.236462786024
 30
0.0
 40
455.7859007505599
100
AcDbArc
 50
46.62587776179879
 51
55.46520136692137
  0
SPLINE
  5
9B4CC
330
1F
100
AcDbEntity
  8
Default
100
AcDbSpline
210
0.0
220
0.0
230
1.0
 70
     8
 71
     3
 72
    14
 73
    10
 74
     0
 42
0.000000001
 43
0.0000000001
 40
0.0000000000000002
 40
0.0000000000000002
 40
0.0000000000000002
 40
0.0000000000000002
 40
1.0
 40
2.0
 40
3.0
 40
4.0
 40
5.0
 40
6.0
 40
7.0
 40
7.0
 40
7.0
 40
7.0
 10
244.6628401036214
 20
-737.9325641425126
 30
0.0
 10
254.9948499375605
 20
-747.694224404569
 30
0.0
 10
275.4083043469582
 20
-767.5218208249348
 30
0.0
 10
303.7297852814736
 20
-799.4191815765121
 30
0.0
 10
331.2748601611311
 20
-832.0267026964197
 30
0.0
 10
356.4863870557383
 20
-866.3744894311617
 30
0.0
 10
375.656342319242
 20
-905.2755651711018
 30
0.0
 10
374.47871629773
 20
-948.9703280314365
 30
0.0
 10
366.5564999851049
 20
-976.2906309185186
 30
0.0
 10
361.2646725734157
 20
-989.5116972212376
 30
0.0
  0
SPLINE
  5
9B4CD
330
1F
100
AcDbEntity
  8
Default
100
AcDbSpline
210
0.0
220
0.0
230
1.0
 70
     8
 71
     3
 72
    19
 73
    15
 74
     0
 42
0.000000001
 43
0.0000000001
 40
-12.0
 40
-12.0
 40
-12.0
 40
-12.0
 40
-11.0
 40
-10.0
 40
-9.0
 40
-8.0
 40
-7.0
 40
-6.0
 40
-5.0
 40
-4.0
 40
-3.0
 40
-2.0
 40
-1.0
 40
0.0
 40
0.0
 40
0.0
 40
0.0
 10
209.8966606542308
 20
-676.6504389037359
 30
0.0
 10
227.2964684137987
 20
-693.4076051183506
 30
0.0
 10
261.8007532613483
 20
-727.0404379242577
 30
0.0
 10
313.6984177194463
 20
-778.0646070720808
 30
0.0
 10
356.9738452459569
 20
-835.2822519707201
 30
0.0
 10
400.7839282064305
 20
-896.4438685101162
 30
0.0
 10
395.3829634418434
 20
-971.777424665584
 30
0.0
 10
365.0453760672681
 20
-1037.934181859321
 30
0.0
 10
322.7085994186418
 20
-1097.09005131293
 30
0.0
 10
269.8080796576178
 20
-1147.02116766482
 30
0.0
 10
209.1798092451718
 20
-1187.096490171214
 30
0.0
 10
142.7442046373689
 20
-1216.552103990612
 30
0.0
 10
72.41501499273727
 20
-1234.842269138079
 30
0.0
 10
24.14556605177495
 20
-1239.10410945868
 30
0.0
 10
0.0000268011935987
 20
-1239.11545250438
 30
0.0
  0
SPLINE
  5
9B4CE
330
1F
100
AcDbEntity
  8
Default
100
AcDbSpline
210
0.0
220
0.0
230
1.0
 70
     8
 71
     3
 72
    19
 73
    15
 74
     0
 42
0.000000001
 43
0.0000000001
 40
0.0
 40
0.0
 40
0.0
 40
0.0
 40
1.0
 40
2.0
 40
3.0
 40
4.0
 40
5.0
 40
6.0
 40
7.0
 40
8.0
 40
9.0
 40
10.0
 40
11.0
 40
12.0
 40
12.0
 40
12.0
 40
12.0
 10
0.0000268011935987
 20
-1239.11545250438
 30
0.0
 10
-24.14551244938775
 20
-1239.10410945868
 30
0.0
 10
-72.41496139035007
 20
-1234.842269138079
 30
0.0
 10
-142.7441510349817
 20
-1216.552103990612
 30
0.0
 10
-209.1797556427773
 20
-1187.096490171214
 30
0.0
 10
-269.8080260552233
 20
-1147.02116766482
 30
0.0
 10
-322.7085458162546
 20
-1097.09005131293
 30
0.0
 10
-365.0453224648809
 20
-1037.934181859321
 30
0.0
 10
-395.382909839449
 20
-971.777424665584
 30
0.0
 10
-400.7838746040433
 20
-896.4438685101162
 30
0.0
 10
-356.9737916435624
 20
-835.2822519707201
 30
0.0
 10
-313.6983641170591
 20
-778.0646070720808
 30
0.0
 10
-261.8006996589538
 20
-727.0404379242577
 30
0.0
 10
-227.2964148114042
 20
-693.4076051183506
 30
0.0
 10
-209.8966070518436
 20
-676.6504389037359
 30
0.0
  0
SPLINE
  5
9B4CF
330
1F
100
AcDbEntity
  8
Default
100
AcDbSpline
210
0.0
220
0.0
230
1.0
 70
     8
 71
     3
 72
    10
 73
     6
 74
     0
 42
0.000000001
 43
0.0000000001
 40
0.0
 40
0.0
 40
0.0
 40
0.0
 40
1.0
 40
2.0
 40
3.0
 40
3.0
 40
3.0
 40
3.0
 10
378.7501959686779
 20
-881.8575906418841
 30
0.0
 10
384.4679814884803
 20
-893.4896512777282
 30
0.0
 10
389.8608583561945
 20
-919.2687191250328
 30
0.0
 10
384.7427648174125
 20
-958.0227524851911
 30
0.0
 10
376.7207762466642
 20
-982.6403836755112
 30
0.0
 10
371.7964322036496
 20
-994.5884444117295
 30
0.0
  0
SPLINE
  5
9B4D0
330
1F
100
AcDbEntity
  8
Default
100
AcDbSpline
210
0.0
220
0.0
230
1.0
 70
     8
 71
     3
 72
    10
 73
     6
 74
     0
 42
0.000000001
 43
0.0000000001
 40
-3.0
 40
-3.0
 40
-3.0
 40
-3.0
 40
-2.0
 40
-1.0
 40
0.0
 40
0.0
 40
0.0
 40
0.0
 10
371.7964322036496
 20
-994.5884444117295
 30
0.0
 10
352.025297424545
 20
-1042.349135894165
 30
0.0
 10
289.4716740175645
 20
-1127.231307242237
 30
0.0
 10
154.8472380722451
 20
-1208.925780208662
 30
0.0
 10
51.60678600776737
 20
-1227.631237096246
 30
0.0
 10
0.0000268011935987
 20
-1227.211786669992
 30
0.0
  0
SPLINE
  5
9B4D1
330
1F
100
AcDbEntity
  8
Default
100
AcDbSpline
210
0.0
220
0.0
230
1.0
 70
     8
 71
     3
 72
    10
 73
     6
 74
     0
 42
0.000000001
 43
0.0000000001
 40
0.0
 40
0.0
 40
0.0
 40
0.0
 40
1.0
 40
2.0
 40
3.0
 40
3.0
 40
3.0
 40
3.0
 10
0.0000268011935987
 20
-1227.211786669992
 30
0.0
 10
-51.60673240538017
 20
-1227.631237096246
 30
0.0
 10
-154.8471844698579
 20
-1208.925780208662
 30
0.0
 10
-289.47162041517
 20
-1127.231307242237
 30
0.0
 10
-352.0252438221578
 20
-1042.349135894165
 30
0.0
 10
-371.7963786012624
 20
-994.5884444117295
 30
0.0
  0
SPLINE
  5
9B4D2
330
1F
100
AcDbEntity
  8
Default
100
AcDbSpline
210
0.0
220
0.0
230
1.0
 70
     8
 71
     3
 72
    10
 73
     6
 74
     0
 42
0.000000001
 43
0.0000000001
 40
-3.0
 40
-3.0
 40
-3.0
 40
-3.0
 40
-2.0
 40
-1.0
 40
0.0
 40
0.0
 40
0.0
 40
0.0
 10
-371.7963786012624
 20
-994.5884444117295
 30
0.0
 10
-376.720722644277
 20
-982.6403836755112
 30
0.0
 10
-384.7427112150254
 20
-958.0227524851911
 30
0.0
 10
-389.8608047538001
 20
-919.2687191250328
 30
0.0
 10
-384.4679278860858
 20
-893.4896512777282
 30
0.0
 10
-378.7501423662907
 20
-881.8575906418841
 30
0.0
  0
SPLINE
  5
9B4D3
330
1F
100
AcDbEntity
  8
Default
100
AcDbSpline
210
0.0
220
0.0
230
1.0
 70
     8
 71
     3
 72
    24
 73
    20
 74
     0
 42
0.000000001
 43
0.0000000001
 40
0.0
 40
0.0
 40
0.0
 40
0.0
 40
1.0
 40
2.0
 40
3.0
 40
4.0
 40
5.0
 40
6.0
 40
7.0
 40
8.0
 40
9.0
 40
10.0
 40
11.0
 40
12.0
 40
13.0
 40
14.0
 40
15.0
 40
16.0
 40
17.0
 40
17.0
 40
17.0
 40
17.0
 10
-378.7501959686706
 20
-881.8575906418841
 30
0.0
 10
-374.4975251771102
 20
-873.0338846220943
 30
0.0
 10
-364.5030704375531
 20
-856.1693310413097
 30
0.0
 10
-347.7346873842471
 20
-832.0392807413732
 30
0.0
 10
-329.4203579542227
 20
-809.0721075772922
 30
0.0
 10
-310.9342710113924
 20
-786.2539362206311
 30
0.0
 10
-292.2829773966587
 20
-763.5657664788291
 30
0.0
 10
-272.9682810580707
 20
-741.4373358741909
 30
0.0
 10
-252.9059233433291
 20
-719.981983067069
 30
0.0
 10
-232.1885113119933
 20
-699.1680100966564
 30
0.0
 10
-211.7136112406588
 20
-678.0984619586011
 30
0.0
 10
-189.6197632873227
 20
-658.7080087964046
 30
0.0
 10
-165.9716964156614
 20
-641.2507566669896
 30
0.0
 10
-140.8687028755375
 20
-625.9481463547531
 30
0.0
 10
-114.4624791250535
 20
-613.0206151955285
 30
0.0
 10
-86.91071479221864
 20
-602.7409498005295
 30
0.0
 10
-58.44381679753133
 20
-595.3630207110468
 30
0.0
 10
-29.36961537378375
 20
-590.9508584395239
 30
0.0
 10
-9.789590057996974
 20
-589.9837033275803
 30
0.0
 10
0.0
 20
-590.0000000000004
 30
0.0
  0
SPLINE
  5
9B4D4
330
1F
100
AcDbEntity
  8
Default
100
AcDbSpline
210
0.0
220
0.0
230
1.0
 70
     8
 71
     3
 72
    24
 73
    20
 74
     0
 42
0.000000001
 43
0.0000000001
 40
-17.0
 40
-17.0
 40
-17.0
 40
-17.0
 40
-16.0
 40
-15.0
 40
-14.0
 40
-13.0
 40
-12.0
 40
-11.0
 40
-10.0
 40
-9.0
 40
-8.0
 40
-7.0
 40
-6.0
 40
-5.0
 40
-4.0
 40
-3.0
 40
-2.0
 40
-1.0
 40
0.0
 40
0.0
 40
0.0
 40
0.0
 10
0.0
 20
-590.0000000000004
 30
0.0
 10
9.789590057996974
 20
-589.9837033275803
 30
0.0
 10
29.36961537379102
 20
-590.9508584395239
 30
0.0
 10
58.4438167975386
 20
-595.3630207110468
 30
0.0
 10
86.91071479221864
 20
-602.7409498005295
 30
0.0
 10
114.4624791250608
 20
-613.0206151955285
 30
0.0
 10
140.8687028755448
 20
-625.9481463547531
 30
0.0
 10
165.9716964156614
 20
-641.2507566669896
 30
0.0
 10
189.6197632873227
 20
-658.7080087964046
 30
0.0
 10
211.7136112406661
 20
-678.0984619586011
 30
0.0
 10
232.1885113120006
 20
-699.1680100966564
 30
0.0
 10
252.9059233433363
 20
-719.981983067069
 30
0.0
 10
272.968281058078
 20
-741.4373358741909
 30
0.0
 10
292.282977396666
 20
-763.5657664788291
 30
0.0
 10
310.9342710113997
 20
-786.2539362206311
 30
0.0
 10
329.42035795423
 20
-809.0721075772922
 30
0.0
 10
347.7346873842543
 20
-832.0392807413732
 30
0.0
 10
364.5030704375604
 20
-856.1693310413097
 30
0.0
 10
374.4975251771102
 20
-873.0338846220943
 30
0.0
 10
378.7501959686779
 20
-881.8575906418841
 30
0.0
  0
SPLINE
  5
9B4D5
330
1F
100
AcDbEntity
  8
Default
100
AcDbSpline
210
0.0
220
0.0
230
1.0
 70
     8
 71
     3
 72
    12
 73
     8
 74
     0
 42
0.000000001
 43
0.0000000001
 40
-15.35241690788854
 40
-15.35241690788854
 40
-15.35241690788854
 40
-15.35241690788854
 40
-11.42846741267097
 40
-7.624448814229928
 40
-3.868777023834103
 40
-1.918304340297428
 40
0.0
 40
0.0
 40
0.0
 40
0.0
 10
244.4746714390567
 20
-842.9018671671641
 30
0.0
 10
244.475207215095
 20
-876.1093959779541
 30
0.0
 10
232.6523560278656
 20
-941.6872692432848
 30
0.0
 10
179.198570549699
 20
-1025.245525216015
 30
0.0
 10
111.1289116722837
 20
-1071.339066799797
 30
0.0
 10
49.00233395535178
 20
-1089.98482390361
 30
0.0
 10
16.24009443981776
 20
-1093.155005493243
 30
0.0
 10
0.0000268011935987
 20
-1093.141527722502
 30
0.0
  0
SPLINE
  5
9B4D6
330
1F
100
AcDbEntity
  8
Default
100
AcDbSpline
210
0.0
220
0.0
230
1.0
 70
     8
 71
     3
 72
    12
 73
     8
 74
     0
 42
0.000000001
 43
0.0000000001
 40
0.0
 40
0.0
 40
0.0
 40
0.0
 40
1.918304340297428
 40
3.868777023834103
 40
7.624448814229928
 40
11.42846741267097
 40
15.35241690788854
 40
15.35241690788854
 40
15.35241690788854
 40
15.35241690788854
 10
0.0000268011935987
 20
-1093.141527722502
 30
0.0
 10
-16.24004083742329
 20
-1093.155005493243
 30
0.0
 10
-49.00228035296459
 20
-1089.98482390361
 30
0.0
 10
-111.1288580698965
 20
-1071.339066799797
 30
0.0
 10
-179.1985169473119
 20
-1025.245525216015
 30
0.0
 10
-232.6523024254784
 20
-941.6872692432848
 30
0.0
 10
-244.4751536127078
 20
-876.1093959779541
 30
0.0
 10
-244.4746178366695
 20
-842.9018671671641
 30
0.0
  0
SPLINE
  5
9B4D7
330
1F
100
AcDbEntity
  8
Default
100
AcDbSpline
210
0.0
220
0.0
230
1.0
 70
     8
 71
     3
 72
    12
 73
     8
 74
     0
 42
0.000000001
 43
0.0000000001
 40
-14.89017237659325
 40
-14.89017237659325
 40
-14.89017237659325
 40
-14.89017237659325
 40
-11.21816892444778
 40
-7.516681648226318
 40
-3.774518777477096
 40
-1.889354184169619
 40
0.0
 40
0.0
 40
0.0
 40
0.0
 10
-244.4746178366695
 20
-842.9018671671641
 30
0.0
 10
-244.4829505858507
 20
-811.8080433026321
 30
0.0
 10
-231.6012645097144
 20
-749.3952790412627
 30
0.0
 10
-176.9403155099062
 20
-670.4819842442561
 30
0.0
 10
-109.2973611974521
 20
-626.8733854685629
 30
0.0
 10
-47.95467141199333
 20
-608.8977994048159
 30
0.0
 10
-15.9951758610623
 20
-605.8240576159264
 30
0.0
 10
0.0000268011935987
 20
-605.8223346031895
 30
0.0
  0
SPLINE
  5
9B4D8
330
1F
100
AcDbEntity
  8
Default
100
AcDbSpline
210
0.0
220
0.0
230
1.0
 70
     8
 71
     3
 72
    12
 73
     8
 74
     0
 42
0.000000001
 43
0.0000000001
 40
0.0
 40
0.0
 40
0.0
 40
0.0
 40
1.889354184169619
 40
3.774518777477096
 40
7.516681648226318
 40
11.21816892444778
 40
14.89017237659325
 40
14.89017237659325
 40
14.89017237659325
 40
14.89017237659325
 10
0.0000268011935987
 20
-605.8223346031895
 30
0.0
 10
15.9952294634495
 20
-605.8240576159264
 30
0.0
 10
47.95472501438053
 20
-608.8977994048159
 30
0.0
 10
109.297414799832
 20
-626.8733854685629
 30
0.0
 10
176.9403691123007
 20
-670.4819842442561
 30
0.0
 10
231.6013181121089
 20
-749.3952790412627
 30
0.0
 10
244.4830041882451
 20
-811.8080433026321
 30
0.0
 10
244.4746714390567
 20
-842.9018671671641
 30
0.0
  0
POLYLINE
  5
9B4D9
330
1F
100
AcDbEntity
  8
Default
100
AcDb2dPolyline
 66
     1
 10
0.0
 20
0.0
 30
0.0
  0
VERTEX
  5
9B4DA
330
9B4D9
100
AcDbEntity
  8
Default
100
AcDbVertex
100
AcDb2dVertex
 10
-229.2161933842653
 20
-695.3331592679246
 30
0.0
  0
VERTEX
  5
9B4DB
330
9B4D9
100
AcDbEntity
  8
Default
100
AcDbVertex
100
AcDb2dVertex
 10
-232.8485314187929
 20
-689.1666729017638
 30
0.0
  0
SEQEND
  5
9B4DC
330
9B4D9
100
AcDbEntity
  8
Default
  0
SPLINE
  5
9B4DD
330
1F
100
AcDbEntity
  8
Default
100
AcDbSpline
210
0.0
220
0.0
230
1.0
 70
    12
 71
     2
 72
     8
 73
     5
 74
     0
 42
0.000000001
 43
0.0000000001
 40
0.0
 40
0.0
 40
0.0
 40
0.0657021758075414
 40
0.0657021758075414
 40
0.5513779496561005
 40
0.5513779496561005
 40
0.5513779496561005
 10
-232.8485314187929
 20
-689.1666729017638
 30
0.0
 41
1.0
 10
-233.273853777544
 20
-688.4443668293802
 30
0.0
 41
0.9938146782922427
 10
-233.5291457729909
 20
-687.6463271233092
 30
0.0
 41
1.0
 10
-235.7907122710671
 20
-680.177113991393
 30
0.0
 41
0.7132736251541142
 10
-228.3622646911172
 20
-677.785044931546
 30
0.0
 41
1.0
  0
SPLINE
  5
9B4DE
330
1F
100
AcDbEntity
  8
Default
100
AcDbSpline
210
0.0
220
0.0
230
1.0
 70
    12
 71
     2
 72
     6
 73
     3
 74
     0
 42
0.000000001
 43
0.0000000001
 40
0.0
 40
0.0
 40
0.0
 40
0.4162774601092229
 40
0.4162774601092229
 40
0.4162774601092229
 10
-228.3622646911172
 20
-677.785044931546
 30
0.0
 41
1.0
 10
-222.4194611919155
 20
-675.7254806416471
 30
0.0
 41
0.7771276355120614
 10
-219.1696384435636
 20
-681.1104013094632
 30
0.0
 41
0.9999999774845855
  0
POLYLINE
  5
9B4DF
330
1F
100
AcDbEntity
  8
Default
100
AcDb2dPolyline
 66
     1
 10
0.0
 20
0.0
 30
0.0
  0
VERTEX
  5
9B4E0
330
9B4DF
100
AcDbEntity
  8
Default
100
AcDbVertex
100
AcDb2dVertex
 10
-219.1696384435636
 20
-681.1104013094632
 30
0.0
  0
VERTEX
  5
9B4E1
330
9B4DF
100
AcDbEntity
  8
Default
100
AcDbVertex
100
AcDb2dVertex
 10
-217.4847670426752
 20
-683.9707452544084
 30
0.0
  0
SEQEND
  5
9B4E2
330
9B4DF
100
AcDbEntity
  8
Default
  0
POLYLINE
  5
9B4E3
330
1F
100
AcDbEntity
  8
Default
100
AcDb2dPolyline
 66
     1
 10
0.0
 20
0.0
 30
0.0
  0
VERTEX
  5
9B4E4
330
9B4E3
100
AcDbEntity
  8
Default
100
AcDbVertex
100
AcDb2dVertex
 10
229.2162469866525
 20
-695.3331592679246
 30
0.0
  0
VERTEX
  5
9B4E5
330
9B4E3
100
AcDbEntity
  8
Default
100
AcDbVertex
100
AcDb2dVertex
 10
232.8485850211728
 20
-689.1666729017638
 30
0.0
  0
SEQEND
  5
9B4E6
330
9B4E3
100
AcDbEntity
  8
Default
  0
SPLINE
  5
9B4E7
330
1F
100
AcDbEntity
  8
Default
100
AcDbSpline
210
0.0
220
0.0
230
1.0
 70
    12
 71
     2
 72
     8
 73
     5
 74
     0
 42
0.000000001
 43
0.0000000001
 40
0.0
 40
0.0
 40
0.0
 40
0.0657021758075414
 40
0.0657021758075414
 40
0.5513779496561005
 40
0.5513779496561005
 40
0.5513779496561005
 10
232.8485850211728
 20
-689.1666729017638
 30
0.0
 41
1.0
 10
233.2739073799312
 20
-688.4443668293802
 30
0.0
 41
0.9938146782922427
 10
233.5291993753781
 20
-687.6463271233092
 30
0.0
 41
1.0
 10
235.7907658734621
 20
-680.177113991393
 30
0.0
 41
0.7132736251541142
 10
228.3623182935043
 20
-677.785044931546
 30
0.0
 41
1.0
  0
SPLINE
  5
9B4E8
330
1F
100
AcDbEntity
  8
Default
100
AcDbSpline
210
0.0
220
0.0
230
1.0
 70
    12
 71
     2
 72
     6
 73
     3
 74
     0
 42
0.000000001
 43
0.0000000001
 40
0.0
 40
0.0
 40
0.0
 40
0.4162774601092229
 40
0.4162774601092229
 40
0.4162774601092229
 10
228.3623182935043
 20
-677.785044931546
 30
0.0
 41
1.0
 10
222.4195147942956
 20
-675.7254806416471
 30
0.0
 41
0.7771276355120614
 10
219.1696920459581
 20
-681.1104013094632
 30
0.0
 41
0.9999999774845855
  0
POLYLINE
  5
9B4E9
330
1F
100
AcDbEntity
  8
Default
100
AcDb2dPolyline
 66
     1
 10
0.0
 20
0.0
 30
0.0
  0
VERTEX
  5
9B4EA
330
9B4E9
100
AcDbEntity
  8
Default
100
AcDbVertex
100
AcDb2dVertex
 10
219.1696920459581
 20
-681.1104013094632
 30
0.0
  0
VERTEX
  5
9B4EB
330
9B4E9
100
AcDbEntity
  8
Default
100
AcDbVertex
100
AcDb2dVertex
 10
217.4848206450697
 20
-683.9707452544084
 30
0.0
  0
SEQEND
  5
9B4EC
330
9B4E9
100
AcDbEntity
  8
Default
  0
SPLINE
  5
9B4ED
330
1F
100
AcDbEntity
  8
Default
100
AcDbSpline
210
0.0
220
0.0
230
1.0
 70
    24
 71
     2
 72
     6
 73
     3
 74
     0
 42
0.000000001
 43
0.0000000001
 40
3.997083449540205
 40
3.997083449540205
 40
3.997083449540205
 40
4.523710136401241
 40
4.523710136401241
 40
4.523710136401241
 10
-206.2480210501017
 20
-1186.394608671354
 30
0.0
 10
-209.5921005116688
 20
-1192.186724203336
 30
0.0
 10
-212.936179973236
 20
-1197.978839735319
 30
0.0
  0
SPLINE
  5
9B4EE
330
1F
100
AcDbEntity
  8
Default
100
AcDbSpline
210
0.0
220
0.0
230
1.0
 70
    12
 71
     2
 72
     8
 73
     5
 74
     0
 42
0.000000001
 43
0.0000000001
 40
0.0
 40
0.0
 40
0.0
 40
0.4730574302815958
 40
0.4730574302815958
 40
0.9455180233888372
 40
0.9455180233888372
 40
0.9455180233888372
 10
-212.936179973236
 20
-1197.978839735319
 30
0.0
 41
1.0
 10
-217.1093851644181
 20
-1204.370126664331
 30
0.0
 41
0.7091869777201399
 10
-223.5251510794333
 20
-1200.234653547447
 30
0.0
 41
1.0
 10
-230.2358013727862
 20
-1196.583678763747
 30
0.0
 41
0.7071352214376397
 10
-226.5856706858031
 20
-1189.872559132063
 30
0.0
 41
1.0
  0
SPLINE
  5
9B4EF
330
1F
100
AcDbEntity
  8
Default
100
AcDbSpline
210
0.0
220
0.0
230
1.0
 70
    24
 71
     2
 72
     6
 73
     3
 74
     0
 42
0.000000001
 43
0.0000000001
 40
-4.466989253625452
 40
-4.466989253625452
 40
-4.466989253625452
 40
-3.954134239084437
 40
-3.954134239084437
 40
-3.954134239084437
 10
-226.5856706858031
 20
-1189.872559132063
 30
0.0
 10
-223.3290588095915
 20
-1184.231901565645
 30
0.0
 10
-220.0724469333873
 20
-1178.591243999226
 30
0.0
  0
SPLINE
  5
9B4F0
330
1F
100
AcDbEntity
  8
Default
100
AcDbSpline
210
0.0
220
0.0
230
1.0
 70
    24
 71
     2
 72
     6
 73
     3
 74
     0
 42
0.000000001
 43
0.0000000001
 40
3.997083449540205
 40
3.997083449540205
 40
3.997083449540205
 40
4.523710136401241
 40
4.523710136401241
 40
4.523710136401241
 10
206.2480746524961
 20
-1186.394608671354
 30
0.0
 10
209.5921541140633
 20
-1192.186724203336
 30
0.0
 10
212.9362335756304
 20
-1197.978839735319
 30
0.0
  0
SPLINE
  5
9B4F1
330
1F
100
AcDbEntity
  8
Default
100
AcDbSpline
210
0.0
220
0.0
230
1.0
 70
    12
 71
     2
 72
     8
 73
     5
 74
     0
 42
0.000000001
 43
0.0000000001
 40
0.0
 40
0.0
 40
0.0
 40
0.4730574302815958
 40
0.4730574302815958
 40
0.9455180233888372
 40
0.9455180233888372
 40
0.9455180233888372
 10
212.9362335756304
 20
-1197.978839735319
 30
0.0
 41
1.0
 10
217.1094387667981
 20
-1204.370126664331
 30
0.0
 41
0.7091869777201399
 10
223.5252046818132
 20
-1200.234653547447
 30
0.0
 41
1.0
 10
230.235854975188
 20
-1196.583678763747
 30
0.0
 41
0.7071352214376397
 10
226.5857242881903
 20
-1189.872559132063
 30
0.0
 41
1.0
  0
SPLINE
  5
9B4F2
330
1F
100
AcDbEntity
  8
Default
100
AcDbSpline
210
0.0
220
0.0
230
1.0
 70
    24
 71
     2
 72
     6
 73
     3
 74
     0
 42
0.000000001
 43
0.0000000001
 40
-4.466989253625452
 40
-4.466989253625452
 40
-4.466989253625452
 40
-3.954134239084437
 40
-3.954134239084437
 40
-3.954134239084437
 10
226.5857242881903
 20
-1189.872559132063
 30
0.0
 10
223.329112411986
 20
-1184.231901565645
 30
0.0
 10
220.0725005357745
 20
-1178.591243999226
 30
0.0
  0
ARC
  5
9B4F6
330
1F
100
AcDbEntity
  8
Default
100
AcDbCircle
 10
1069.236462786023
 20
68.35241131926863
 30
0.0
 40
455.7859007505599
100
AcDbArc
 50
214.5347986330787
 51
223.3741222382013
  0
SPLINE
  5
9B4F7
330
1F
100
AcDbEntity
  8
Default
100
AcDbSpline
210
0.0
220
0.0
230
1.0
 70
     8
 71
     3
 72
    14
 73
    10
 74
     0
 42
0.000000001
 43
0.0000000001
 40
0.0000000000000002
 40
0.0000000000000002
 40
0.0000000000000002
 40
0.0000000000000002
 40
1.0
 40
2.0
 40
3.0
 40
4.0
 40
5.0
 40
6.0
 40
7.0
 40
7.0
 40
7.0
 40
7.0
 10
737.932564142512
 20
-244.6627865012344
 30
0.0
 10
747.6942244045686
 20
-254.9947963351735
 30
0.0
 10
767.5218208249342
 20
-275.4082507445712
 30
0.0
 10
799.4191815765114
 20
-303.7297316790866
 30
0.0
 10
832.0267026964192
 20
-331.2748065587368
 30
0.0
 10
866.374489431161
 20
-356.4863334533513
 30
0.0
 10
905.2755651711011
 20
-375.656288716855
 30
0.0
 10
948.970328031436
 20
-374.4786626953358
 30
0.0
 10
976.2906309185181
 20
-366.5564463827179
 30
0.0
 10
989.511697221237
 20
-361.2646189710288
 30
0.0
  0
ARC
  5
9B4F8
330
1F
100
AcDbEntity
  8
Default
100
AcDbCircle
 10
1069.236462786023
 20
-68.35235771688191
 30
0.0
 40
455.7859007505599
100
AcDbArc
 50
136.6258777617988
 51
145.4652013669213
  0
SPLINE
  5
9B4F9
330
1F
100
AcDbEntity
  8
Default
100
AcDbSpline
210
0.0
220
0.0
230
1.0
 70
     8
 71
     3
 72
    14
 73
    10
 74
     0
 42
0.000000001
 43
0.0000000001
 40
0.0000000000000002
 40
0.0000000000000002
 40
0.0000000000000002
 40
0.0000000000000002
 40
1.0
 40
2.0
 40
3.0
 40
4.0
 40
5.0
 40
6.0
 40
7.0
 40
7.0
 40
7.0
 40
7.0
 10
737.932564142512
 20
244.6628401036213
 30
0.0
 10
747.6942244045686
 20
254.9948499375603
 30
0.0
 10
767.5218208249344
 20
275.408304346958
 30
0.0
 10
799.4191815765117
 20
303.7297852814734
 30
0.0
 10
832.0267026964193
 20
331.2748601611309
 30
0.0
 10
866.3744894311614
 20
356.4863870557382
 30
0.0
 10
905.2755651711015
 20
375.6563423192417
 30
0.0
 10
948.9703280314362
 20
374.4787162977297
 30
0.0
 10
976.2906309185183
 20
366.5564999851047
 30
0.0
 10
989.5116972212374
 20
361.2646725734155
 30
0.0
  0
SPLINE
  5
9B4FA
330
1F
100
AcDbEntity
  8
Default
100
AcDbSpline
210
0.0
220
0.0
230
1.0
 70
     8
 71
     3
 72
    19
 73
    15
 74
     0
 42
0.000000001
 43
0.0000000001
 40
-12.0
 40
-12.0
 40
-12.0
 40
-12.0
 40
-11.0
 40
-10.0
 40
-9.0
 40
-8.0
 40
-7.0
 40
-6.0
 40
-5.0
 40
-4.0
 40
-3.0
 40
-2.0
 40
-1.0
 40
0.0
 40
0.0
 40
0.0
 40
0.0
 10
676.6504389037354
 20
209.8966606542306
 30
0.0
 10
693.4076051183502
 20
227.2964684137986
 30
0.0
 10
727.0404379242574
 20
261.8007532613481
 30
0.0
 10
778.0646070720806
 20
313.6984177194461
 30
0.0
 10
835.2822519707197
 20
356.9738452459568
 30
0.0
 10
896.4438685101159
 20
400.7839282064303
 30
0.0
 10
971.7774246655837
 20
395.3829634418432
 30
0.0
 10
1037.93418185932
 20
365.0453760672679
 30
0.0
 10
1097.09005131293
 20
322.7085994186416
 30
0.0
 10
1147.021167664819
 20
269.8080796576176
 30
0.0
 10
1187.096490171214
 20
209.1798092451715
 30
0.0
 10
1216.552103990611
 20
142.7442046373687
 30
0.0
 10
1234.842269138078
 20
72.415014992737
 30
0.0
 10
1239.10410945868
 20
24.14556605177468
 30
0.0
 10
1239.115452504379
 20
0.0000268011933235
 30
0.0
  0
SPLINE
  5
9B4FB
330
1F
100
AcDbEntity
  8
Default
100
AcDbSpline
210
0.0
220
0.0
230
1.0
 70
     8
 71
     3
 72
    19
 73
    15
 74
     0
 42
0.000000001
 43
0.0000000001
 40
0.0
 40
0.0
 40
0.0
 40
0.0
 40
1.0
 40
2.0
 40
3.0
 40
4.0
 40
5.0
 40
6.0
 40
7.0
 40
8.0
 40
9.0
 40
10.0
 40
11.0
 40
12.0
 40
12.0
 40
12.0
 40
12.0
 10
1239.115452504379
 20
0.0000268011933235
 30
0.0
 10
1239.10410945868
 20
-24.14551244938803
 30
0.0
 10
1234.842269138078
 20
-72.41496139035034
 30
0.0
 10
1216.552103990611
 20
-142.744151034982
 30
0.0
 10
1187.096490171214
 20
-209.1797556427775
 30
0.0
 10
1147.021167664819
 20
-269.8080260552235
 30
0.0
 10
1097.09005131293
 20
-322.7085458162548
 30
0.0
 10
1037.93418185932
 20
-365.0453224648811
 30
0.0
 10
971.7774246655833
 20
-395.3829098394492
 30
0.0
 10
896.4438685101157
 20
-400.7838746040436
 30
0.0
 10
835.2822519707196
 20
-356.9737916435626
 30
0.0
 10
778.0646070720803
 20
-313.6983641170593
 30
0.0
 10
727.0404379242571
 20
-261.800699658954
 30
0.0
 10
693.4076051183502
 20
-227.2964148114044
 30
0.0
 10
676.6504389037354
 20
-209.8966070518438
 30
0.0
  0
SPLINE
  5
9B4FC
330
1F
100
AcDbEntity
  8
Default
100
AcDbSpline
210
0.0
220
0.0
230
1.0
 70
     8
 71
     3
 72
    10
 73
     6
 74
     0
 42
0.000000001
 43
0.0000000001
 40
0.0
 40
0.0
 40
0.0
 40
0.0
 40
1.0
 40
2.0
 40
3.0
 40
3.0
 40
3.0
 40
3.0
 10
881.8575906418837
 20
378.7501959686777
 30
0.0
 10
893.4896512777278
 20
384.4679814884801
 30
0.0
 10
919.2687191250326
 20
389.8608583561943
 30
0.0
 10
958.0227524851908
 20
384.7427648174123
 30
0.0
 10
982.6403836755108
 20
376.720776246664
 30
0.0
 10
994.5884444117293
 20
371.7964322036494
 30
0.0
  0
SPLINE
  5
9B4FD
330
1F
100
AcDbEntity
  8
Default
100
AcDbSpline
210
0.0
220
0.0
230
1.0
 70
     8
 71
     3
 72
    10
 73
     6
 74
     0
 42
0.000000001
 43
0.0000000001
 40
-3.0
 40
-3.0
 40
-3.0
 40
-3.0
 40
-2.0
 40
-1.0
 40
0.0
 40
0.0
 40
0.0
 40
0.0
 10
994.5884444117293
 20
371.7964322036494
 30
0.0
 10
1042.349135894165
 20
352.0252974245448
 30
0.0
 10
1127.231307242237
 20
289.4716740175643
 30
0.0
 10
1208.925780208661
 20
154.8472380722448
 30
0.0
 10
1227.631237096246
 20
51.6067860077671
 30
0.0
 10
1227.211786669992
 20
0.0000268011933262
 30
0.0
  0
SPLINE
  5
9B4FE
330
1F
100
AcDbEntity
  8
Default
100
AcDbSpline
210
0.0
220
0.0
230
1.0
 70
     8
 71
     3
 72
    10
 73
     6
 74
     0
 42
0.000000001
 43
0.0000000001
 40
0.0
 40
0.0
 40
0.0
 40
0.0
 40
1.0
 40
2.0
 40
3.0
 40
3.0
 40
3.0
 40
3.0
 10
1227.211786669992
 20
0.0000268011933262
 30
0.0
 10
1227.631237096246
 20
-51.60673240538044
 30
0.0
 10
1208.925780208661
 20
-154.8471844698581
 30
0.0
 10
1127.231307242237
 20
-289.4716204151702
 30
0.0
 10
1042.349135894165
 20
-352.025243822158
 30
0.0
 10
994.588444411729
 20
-371.7963786012626
 30
0.0
  0
SPLINE
  5
9B4FF
330
1F
100
AcDbEntity
  8
Default
100
AcDbSpline
210
0.0
220
0.0
230
1.0
 70
     8
 71
     3
 72
    10
 73
     6
 74
     0
 42
0.000000001
 43
0.0000000001
 40
-3.0
 40
-3.0
 40
-3.0
 40
-3.0
 40
-2.0
 40
-1.0
 40
0.0
 40
0.0
 40
0.0
 40
0.0
 10
994.588444411729
 20
-371.7963786012626
 30
0.0
 10
982.6403836755106
 20
-376.7207226442772
 30
0.0
 10
958.0227524851906
 20
-384.7427112150256
 30
0.0
 10
919.2687191250323
 20
-389.8608047538003
 30
0.0
 10
893.4896512777276
 20
-384.467927886086
 30
0.0
 10
881.8575906418836
 20
-378.7501423662908
 30
0.0
  0
SPLINE
  5
9B500
330
1F
100
AcDbEntity
  8
Default
100
AcDbSpline
210
0.0
220
0.0
230
1.0
 70
     8
 71
     3
 72
    24
 73
    20
 74
     0
 42
0.000000001
 43
0.0000000001
 40
0.0
 40
0.0
 40
0.0
 40
0.0
 40
1.0
 40
2.0
 40
3.0
 40
4.0
 40
5.0
 40
6.0
 40
7.0
 40
8.0
 40
9.0
 40
10.0
 40
11.0
 40
12.0
 40
13.0
 40
14.0
 40
15.0
 40
16.0
 40
17.0
 40
17.0
 40
17.0
 40
17.0
 10
881.8575906418836
 20
-378.7501959686708
 30
0.0
 10
873.0338846220938
 20
-374.4975251771104
 30
0.0
 10
856.1693310413092
 20
-364.5030704375533
 30
0.0
 10
832.0392807413726
 20
-347.7346873842472
 30
0.0
 10
809.0721075772915
 20
-329.4203579542229
 30
0.0
 10
786.2539362206306
 20
-310.9342710113926
 30
0.0
 10
763.5657664788285
 20
-292.2829773966589
 30
0.0
 10
741.4373358741904
 20
-272.9682810580709
 30
0.0
 10
719.9819830670685
 20
-252.9059233433292
 30
0.0
 10
699.168010096656
 20
-232.1885113119935
 30
0.0
 10
678.0984619586006
 20
-211.7136112406589
 30
0.0
 10
658.708008796404
 20
-189.6197632873228
 30
0.0
 10
641.2507566669892
 20
-165.9716964156615
 30
0.0
 10
625.9481463547526
 20
-140.8687028755377
 30
0.0
 10
613.020615195528
 20
-114.4624791250536
 30
0.0
 10
602.740949800529
 20
-86.91071479221877
 30
0.0
 10
595.3630207110463
 20
-58.44381679753146
 30
0.0
 10
590.9508584395235
 20
-29.36961537378388
 30
0.0
 10
589.9837033275798
 20
-9.789590057997106
 30
0.0
 10
590.0
 20
-0.000000000000131
 30
0.0
  0
SPLINE
  5
9B501
330
1F
100
AcDbEntity
  8
Default
100
AcDbSpline
210
0.0
220
0.0
230
1.0
 70
     8
 71
     3
 72
    24
 73
    20
 74
     0
 42
0.000000001
 43
0.0000000001
 40
-17.0
 40
-17.0
 40
-17.0
 40
-17.0
 40
-16.0
 40
-15.0
 40
-14.0
 40
-13.0
 40
-12.0
 40
-11.0
 40
-10.0
 40
-9.0
 40
-8.0
 40
-7.0
 40
-6.0
 40
-5.0
 40
-4.0
 40
-3.0
 40
-2.0
 40
-1.0
 40
0.0
 40
0.0
 40
0.0
 40
0.0
 10
590.0
 20
-0.000000000000131
 30
0.0
 10
589.9837033275798
 20
9.789590057996843
 30
0.0
 10
590.9508584395235
 20
29.36961537379089
 30
0.0
 10
595.3630207110463
 20
58.44381679753847
 30
0.0
 10
602.740949800529
 20
86.91071479221852
 30
0.0
 10
613.020615195528
 20
114.4624791250606
 30
0.0
 10
625.9481463547526
 20
140.8687028755447
 30
0.0
 10
641.2507566669892
 20
165.9716964156613
 30
0.0
 10
658.708008796404
 20
189.6197632873225
 30
0.0
 10
678.0984619586006
 20
211.7136112406659
 30
0.0
 10
699.168010096656
 20
232.1885113120005
 30
0.0
 10
719.9819830670685
 20
252.9059233433362
 30
0.0
 10
741.4373358741905
 20
272.9682810580778
 30
0.0
 10
763.5657664788287
 20
292.2829773966658
 30
0.0
 10
786.2539362206308
 20
310.9342710113995
 30
0.0
 10
809.0721075772918
 20
329.4203579542298
 30
0.0
 10
832.0392807413728
 20
347.7346873842542
 30
0.0
 10
856.1693310413094
 20
364.5030704375602
 30
0.0
 10
873.033884622094
 20
374.4975251771101
 30
0.0
 10
881.8575906418837
 20
378.7501959686777
 30
0.0
  0
SPLINE
  5
9B502
330
1F
100
AcDbEntity
  8
Default
100
AcDbSpline
210
0.0
220
0.0
230
1.0
 70
     8
 71
     3
 72
    12
 73
     8
 74
     0
 42
0.000000001
 43
0.0000000001
 40
-15.35241690788854
 40
-15.35241690788854
 40
-15.35241690788854
 40
-15.35241690788854
 40
-11.42846741267097
 40
-7.624448814229928
 40
-3.868777023834103
 40
-1.918304340297428
 40
0.0
 40
0.0
 40
0.0
 40
0.0
 10
842.9018671671638
 20
244.4746714390565
 30
0.0
 10
876.1093959779536
 20
244.4752072150948
 30
0.0
 10
941.6872692432844
 20
232.6523560278654
 30
0.0
 10
1025.245525216015
 20
179.1985705496988
 30
0.0
 10
1071.339066799796
 20
111.1289116722835
 30
0.0
 10
1089.98482390361
 20
49.00233395535154
 30
0.0
 10
1093.155005493243
 20
16.24009443981752
 30
0.0
 10
1093.141527722501
 20
0.0000268011933559
 30
0.0
  0
SPLINE
  5
9B503
330
1F
100
AcDbEntity
  8
Default
100
AcDbSpline
210
0.0
220
0.0
230
1.0
 70
     8
 71
     3
 72
    12
 73
     8
 74
     0
 42
0.000000001
 43
0.0000000001
 40
0.0
 40
0.0
 40
0.0
 40
0.0
 40
1.918304340297428
 40
3.868777023834103
 40
7.624448814229928
 40
11.42846741267097
 40
15.35241690788854
 40
15.35241690788854
 40
15.35241690788854
 40
15.35241690788854
 10
1093.141527722501
 20
0.0000268011933559
 30
0.0
 10
1093.155005493243
 20
-16.24004083742353
 30
0.0
 10
1089.98482390361
 20
-49.00228035296483
 30
0.0
 10
1071.339066799796
 20
-111.1288580698967
 30
0.0
 10
1025.245525216015
 20
-179.1985169473121
 30
0.0
 10
941.6872692432844
 20
-232.6523024254786
 30
0.0
 10
876.1093959779536
 20
-244.475153612708
 30
0.0
 10
842.9018671671638
 20
-244.4746178366697
 30
0.0
  0
SPLINE
  5
9B504
330
1F
100
AcDbEntity
  8
Default
100
AcDbSpline
210
0.0
220
0.0
230
1.0
 70
     8
 71
     3
 72
    12
 73
     8
 74
     0
 42
0.000000001
 43
0.0000000001
 40
-14.89017237659325
 40
-14.89017237659325
 40
-14.89017237659325
 40
-14.89017237659325
 40
-11.21816892444778
 40
-7.516681648226318
 40
-3.774518777477096
 40
-1.889354184169619
 40
0.0
 40
0.0
 40
0.0
 40
0.0
 10
842.9018671671638
 20
-244.4746178366697
 30
0.0
 10
811.8080433026316
 20
-244.4829505858508
 30
0.0
 10
749.3952790412622
 20
-231.6012645097146
 30
0.0
 10
670.4819842442557
 20
-176.9403155099063
 30
0.0
 10
626.8733854685624
 20
-109.2973611974522
 30
0.0
 10
608.8977994048154
 20
-47.95467141199346
 30
0.0
 10
605.824057615926
 20
-15.99517586106244
 30
0.0
 10
605.8223346031891
 20
0.0000268011934641
 30
0.0
  0
SPLINE
  5
9B505
330
1F
100
AcDbEntity
  8
Default
100
AcDbSpline
210
0.0
220
0.0
230
1.0
 70
     8
 71
     3
 72
    12
 73
     8
 74
     0
 42
0.000000001
 43
0.0000000001
 40
0.0
 40
0.0
 40
0.0
 40
0.0
 40
1.889354184169619
 40
3.774518777477096
 40
7.516681648226318
 40
11.21816892444778
 40
14.89017237659325
 40
14.89017237659325
 40
14.89017237659325
 40
14.89017237659325
 10
605.8223346031891
 20
0.0000268011934641
 30
0.0
 10
605.824057615926
 20
15.99522946344937
 30
0.0
 10
608.8977994048154
 20
47.95472501438039
 30
0.0
 10
626.8733854685624
 20
109.2974147998319
 30
0.0
 10
670.4819842442557
 20
176.9403691123005
 30
0.0
 10
749.3952790412622
 20
231.6013181121087
 30
0.0
 10
811.8080433026316
 20
244.483004188245
 30
0.0
 10
842.9018671671638
 20
244.4746714390565
 30
0.0
  0
POLYLINE
  5
9B506
330
1F
100
AcDbEntity
  8
Default
100
AcDb2dPolyline
 66
     1
 10
0.0
 20
0.0
 30
0.0
  0
VERTEX
  5
9B507
330
9B506
100
AcDbEntity
  8
Default
100
AcDbVertex
100
AcDb2dVertex
 10
695.3331592679242
 20
-229.2161933842655
 30
0.0
  0
VERTEX
  5
9B508
330
9B506
100
AcDbEntity
  8
Default
100
AcDbVertex
100
AcDb2dVertex
 10
689.1666729017633
 20
-232.848531418793
 30
0.0
  0
SEQEND
  5
9B509
330
9B506
100
AcDbEntity
  8
Default
  0
SPLINE
  5
9B50A
330
1F
100
AcDbEntity
  8
Default
100
AcDbSpline
210
0.0
220
0.0
230
1.0
 70
    12
 71
     2
 72
     8
 73
     5
 74
     0
 42
0.000000001
 43
0.0000000001
 40
0.0
 40
0.0
 40
0.0
 40
0.0657021758075414
 40
0.0657021758075414
 40
0.5513779496561005
 40
0.5513779496561005
 40
0.5513779496561005
 10
689.1666729017633
 20
-232.848531418793
 30
0.0
 41
1.0
 10
688.4443668293798
 20
-233.2738537775441
 30
0.0
 41
0.9938146782922427
 10
687.6463271233087
 20
-233.529145772991
 30
0.0
 41
1.0
 10
680.1771139913926
 20
-235.7907122710673
 30
0.0
 41
0.7132736251541142
 10
677.7850449315455
 20
-228.3622646911173
 30
0.0
 41
1.0
  0
SPLINE
  5
9B50B
330
1F
100
AcDbEntity
  8
Default
100
AcDbSpline
210
0.0
220
0.0
230
1.0
 70
    12
 71
     2
 72
     6
 73
     3
 74
     0
 42
0.000000001
 43
0.0000000001
 40
0.0
 40
0.0
 40
0.0
 40
0.4162774601092229
 40
0.4162774601092229
 40
0.4162774601092229
 10
677.7850449315455
 20
-228.3622646911173
 30
0.0
 41
1.0
 10
675.7254806416467
 20
-222.4194611919156
 30
0.0
 41
0.7771276355120614
 10
681.1104013094627
 20
-219.1696384435637
 30
0.0
 41
0.9999999774845855
  0
POLYLINE
  5
9B50C
330
1F
100
AcDbEntity
  8
Default
100
AcDb2dPolyline
 66
     1
 10
0.0
 20
0.0
 30
0.0
  0
VERTEX
  5
9B50D
330
9B50C
100
AcDbEntity
  8
Default
100
AcDbVertex
100
AcDb2dVertex
 10
681.1104013094627
 20
-219.1696384435637
 30
0.0
  0
VERTEX
  5
9B50E
330
9B50C
100
AcDbEntity
  8
Default
100
AcDbVertex
100
AcDb2dVertex
 10
683.970745254408
 20
-217.4847670426754
 30
0.0
  0
SEQEND
  5
9B50F
330
9B50C
100
AcDbEntity
  8
Default
  0
POLYLINE
  5
9B510
330
1F
100
AcDbEntity
  8
Default
100
AcDb2dPolyline
 66
     1
 10
0.0
 20
0.0
 30
0.0
  0
VERTEX
  5
9B511
330
9B510
100
AcDbEntity
  8
Default
100
AcDbVertex
100
AcDb2dVertex
 10
695.3331592679242
 20
229.2162469866524
 30
0.0
  0
VERTEX
  5
9B512
330
9B510
100
AcDbEntity
  8
Default
100
AcDbVertex
100
AcDb2dVertex
 10
689.1666729017633
 20
232.8485850211726
 30
0.0
  0
SEQEND
  5
9B513
330
9B510
100
AcDbEntity
  8
Default
  0
SPLINE
  5
9B514
330
1F
100
AcDbEntity
  8
Default
100
AcDbSpline
210
0.0
220
0.0
230
1.0
 70
    12
 71
     2
 72
     8
 73
     5
 74
     0
 42
0.000000001
 43
0.0000000001
 40
0.0
 40
0.0
 40
0.0
 40
0.0657021758075414
 40
0.0657021758075414
 40
0.5513779496561005
 40
0.5513779496561005
 40
0.5513779496561005
 10
689.1666729017633
 20
232.8485850211726
 30
0.0
 41
1.0
 10
688.4443668293798
 20
233.273907379931
 30
0.0
 41
0.9938146782922427
 10
687.6463271233087
 20
233.5291993753779
 30
0.0
 41
1.0
 10
680.1771139913926
 20
235.7907658734619
 30
0.0
 41
0.7132736251541142
 10
677.7850449315455
 20
228.3623182935042
 30
0.0
 41
1.0
  0
SPLINE
  5
9B515
330
1F
100
AcDbEntity
  8
Default
100
AcDbSpline
210
0.0
220
0.0
230
1.0
 70
    12
 71
     2
 72
     6
 73
     3
 74
     0
 42
0.000000001
 43
0.0000000001
 40
0.0
 40
0.0
 40
0.0
 40
0.4162774601092229
 40
0.4162774601092229
 40
0.4162774601092229
 10
677.7850449315455
 20
228.3623182935042
 30
0.0
 41
1.0
 10
675.7254806416467
 20
222.4195147942954
 30
0.0
 41
0.7771276355120614
 10
681.1104013094627
 20
219.1696920459579
 30
0.0
 41
0.9999999774845855
  0
POLYLINE
  5
9B516
330
1F
100
AcDbEntity
  8
Default
100
AcDb2dPolyline
 66
     1
 10
0.0
 20
0.0
 30
0.0
  0
VERTEX
  5
9B517
330
9B516
100
AcDbEntity
  8
Default
100
AcDbVertex
100
AcDb2dVertex
 10
681.1104013094627
 20
219.1696920459579
 30
0.0
  0
VERTEX
  5
9B518
330
9B516
100
AcDbEntity
  8
Default
100
AcDbVertex
100
AcDb2dVertex
 10
683.970745254408
 20
217.4848206450695
 30
0.0
  0
SEQEND
  5
9B519
330
9B516
100
AcDbEntity
  8
Default
  0
SPLINE
  5
9B51A
330
1F
100
AcDbEntity
  8
Default
100
AcDbSpline
210
0.0
220
0.0
230
1.0
 70
    24
 71
     2
 72
     6
 73
     3
 74
     0
 42
0.000000001
 43
0.0000000001
 40
3.997083449540205
 40
3.997083449540205
 40
3.997083449540205
 40
4.523710136401241
 40
4.523710136401241
 40
4.523710136401241
 10
1186.394608671354
 20
-206.2480210501019
 30
0.0
 10
1192.186724203336
 20
-209.5921005116691
 30
0.0
 10
1197.978839735318
 20
-212.9361799732362
 30
0.0
  0
SPLINE
  5
9B51B
330
1F
100
AcDbEntity
  8
Default
100
AcDbSpline
210
0.0
220
0.0
230
1.0
 70
    12
 71
     2
 72
     8
 73
     5
 74
     0
 42
0.000000001
 43
0.0000000001
 40
0.0
 40
0.0
 40
0.0
 40
0.4730574302815958
 40
0.4730574302815958
 40
0.9455180233888372
 40
0.9455180233888372
 40
0.9455180233888372
 10
1197.978839735318
 20
-212.9361799732362
 30
0.0
 41
1.0
 10
1204.370126664331
 20
-217.1093851644184
 30
0.0
 41
0.7091869777201399
 10
1200.234653547447
 20
-223.5251510794335
 30
0.0
 41
1.0
 10
1196.583678763746
 20
-230.2358013727865
 30
0.0
 41
0.7071352214376397
 10
1189.872559132062
 20
-226.5856706858033
 30
0.0
 41
1.0
  0
SPLINE
  5
9B51C
330
1F
100
AcDbEntity
  8
Default
100
AcDbSpline
210
0.0
220
0.0
230
1.0
 70
    24
 71
     2
 72
     6
 73
     3
 74
     0
 42
0.000000001
 43
0.0000000001
 40
-4.466989253625452
 40
-4.466989253625452
 40
-4.466989253625452
 40
-3.954134239084437
 40
-3.954134239084437
 40
-3.954134239084437
 10
1189.872559132062
 20
-226.5856706858033
 30
0.0
 10
1184.231901565645
 20
-223.3290588095918
 30
0.0
 10
1178.591243999226
 20
-220.0724469333875
 30
0.0
  0
SPLINE
  5
9B51D
330
1F
100
AcDbEntity
  8
Default
100
AcDbSpline
210
0.0
220
0.0
230
1.0
 70
    24
 71
     2
 72
     6
 73
     3
 74
     0
 42
0.000000001
 43
0.0000000001
 40
3.997083449540205
 40
3.997083449540205
 40
3.997083449540205
 40
4.523710136401241
 40
4.523710136401241
 40
4.523710136401241
 10
1186.394608671354
 20
206.2480746524959
 30
0.0
 10
1192.186724203336
 20
209.5921541140631
 30
0.0
 10
1197.978839735318
 20
212.9362335756302
 30
0.0
  0
SPLINE
  5
9B51E
330
1F
100
AcDbEntity
  8
Default
100
AcDbSpline
210
0.0
220
0.0
230
1.0
 70
    12
 71
     2
 72
     8
 73
     5
 74
     0
 42
0.000000001
 43
0.0000000001
 40
0.0
 40
0.0
 40
0.0
 40
0.4730574302815958
 40
0.4730574302815958
 40
0.9455180233888372
 40
0.9455180233888372
 40
0.9455180233888372
 10
1197.978839735318
 20
212.9362335756302
 30
0.0
 41
1.0
 10
1204.370126664331
 20
217.1094387667978
 30
0.0
 41
0.7091869777201399
 10
1200.234653547447
 20
223.5252046818129
 30
0.0
 41
1.0
 10
1196.583678763746
 20
230.2358549751877
 30
0.0
 41
0.7071352214376397
 10
1189.872559132062
 20
226.58572428819
 30
0.0
 41
1.0
  0
SPLINE
  5
9B51F
330
1F
100
AcDbEntity
  8
Default
100
AcDbSpline
210
0.0
220
0.0
230
1.0
 70
    24
 71
     2
 72
     6
 73
     3
 74
     0
 42
0.000000001
 43
0.0000000001
 40
-4.466989253625452
 40
-4.466989253625452
 40
-4.466989253625452
 40
-3.954134239084437
 40
-3.954134239084437
 40
-3.954134239084437
 10
1189.872559132062
 20
226.58572428819
 30
0.0
 10
1184.231901565645
 20
223.3291124119857
 30
0.0
 10
1178.591243999226
 20
220.0725005357742
 30
0.0
  0
ARC
  5
9B520
330
1F
100
AcDbEntity
  8
Default
100
AcDbCircle
 10
-1069.236462786024
 20
68.35241131926911
 30
0.0
 40
455.7859007505599
100
AcDbArc
 50
316.6258777617987
 51
325.4652013669213
  0
SPLINE
  5
9B521
330
1F
100
AcDbEntity
  8
Default
100
AcDbSpline
210
0.0
220
0.0
230
1.0
 70
     8
 71
     3
 72
    14
 73
    10
 74
     0
 42
0.000000001
 43
0.0000000001
 40
0.0000000000000002
 40
0.0000000000000002
 40
0.0000000000000002
 40
0.0000000000000002
 40
1.0
 40
2.0
 40
3.0
 40
4.0
 40
5.0
 40
6.0
 40
7.0
 40
7.0
 40
7.0
 40
7.0
 10
-737.9325641425126
 20
-244.6627865012341
 30
0.0
 10
-747.694224404569
 20
-254.9947963351731
 30
0.0
 10
-767.5218208249349
 20
-275.4082507445708
 30
0.0
 10
-799.4191815765121
 20
-303.7297316790863
 30
0.0
 10
-832.0267026964199
 20
-331.2748065587364
 30
0.0
 10
-866.3744894311617
 20
-356.4863334533509
 30
0.0
 10
-905.2755651711018
 20
-375.6562887168545
 30
0.0
 10
-948.9703280314367
 20
-374.4786626953353
 30
0.0
 10
-976.2906309185188
 20
-366.5564463827175
 30
0.0
 10
-989.5116972212377
 20
-361.2646189710283
 30
0.0
  0
ARC
  5
9B522
330
1F
100
AcDbEntity
  8
Default
100
AcDbCircle
 10
-1069.236462786024
 20
-68.35235771688143
 30
0.0
 40
455.7859007505599
100
AcDbArc
 50
34.53479863307862
 51
43.37412223820119
  0
SPLINE
  5
9B523
330
1F
100
AcDbEntity
  8
Default
100
AcDbSpline
210
0.0
220
0.0
230
1.0
 70
     8
 71
     3
 72
    14
 73
    10
 74
     0
 42
0.000000001
 43
0.0000000001
 40
0.0000000000000002
 40
0.0000000000000002
 40
0.0000000000000002
 40
0.0000000000000002
 40
1.0
 40
2.0
 40
3.0
 40
4.0
 40
5.0
 40
6.0
 40
7.0
 40
7.0
 40
7.0
 40
7.0
 10
-737.9325641425126
 20
244.6628401036216
 30
0.0
 10
-747.694224404569
 20
254.9948499375607
 30
0.0
 10
-767.5218208249347
 20
275.4083043469583
 30
0.0
 10
-799.419181576512
 20
303.7297852814738
 30
0.0
 10
-832.0267026964197
 20
331.2748601611312
 30
0.0
 10
-866.3744894311616
 20
356.4863870557385
 30
0.0
 10
-905.2755651711017
 20
375.6563423192422
 30
0.0
 10
-948.9703280314364
 20
374.4787162977302
 30
0.0
 10
-976.2906309185185
 20
366.5564999851051
 30
0.0
 10
-989.5116972212376
 20
361.264672573416
 30
0.0
  0
SPLINE
  5
9B524
330
1F
100
AcDbEntity
  8
Default
100
AcDbSpline
210
0.0
220
0.0
230
1.0
 70
     8
 71
     3
 72
    19
 73
    15
 74
     0
 42
0.000000001
 43
0.0000000001
 40
-12.0
 40
-12.0
 40
-12.0
 40
-12.0
 40
-11.0
 40
-10.0
 40
-9.0
 40
-8.0
 40
-7.0
 40
-6.0
 40
-5.0
 40
-4.0
 40
-3.0
 40
-2.0
 40
-1.0
 40
0.0
 40
0.0
 40
0.0
 40
0.0
 10
-676.6504389037359
 20
209.896660654231
 30
0.0
 10
-693.4076051183506
 20
227.2964684137988
 30
0.0
 10
-727.0404379242576
 20
261.8007532613485
 30
0.0
 10
-778.0646070720807
 20
313.6984177194465
 30
0.0
 10
-835.2822519707199
 20
356.9738452459571
 30
0.0
 10
-896.4438685101162
 20
400.7839282064308
 30
0.0
 10
-971.7774246655839
 20
395.3829634418437
 30
0.0
 10
-1037.934181859321
 20
365.0453760672683
 30
0.0
 10
-1097.09005131293
 20
322.708599418642
 30
0.0
 10
-1147.02116766482
 20
269.808079657618
 30
0.0
 10
-1187.096490171214
 20
209.179809245172
 30
0.0
 10
-1216.552103990612
 20
142.7442046373692
 30
0.0
 10
-1234.842269138079
 20
72.41501499273754
 30
0.0
 10
-1239.10410945868
 20
24.14556605177522
 30
0.0
 10
-1239.11545250438
 20
0.0000268011938738
 30
0.0
  0
SPLINE
  5
9B525
330
1F
100
AcDbEntity
  8
Default
100
AcDbSpline
210
0.0
220
0.0
230
1.0
 70
     8
 71
     3
 72
    19
 73
    15
 74
     0
 42
0.000000001
 43
0.0000000001
 40
0.0
 40
0.0
 40
0.0
 40
0.0
 40
1.0
 40
2.0
 40
3.0
 40
4.0
 40
5.0
 40
6.0
 40
7.0
 40
8.0
 40
9.0
 40
10.0
 40
11.0
 40
12.0
 40
12.0
 40
12.0
 40
12.0
 10
-1239.11545250438
 20
0.0000268011938738
 30
0.0
 10
-1239.10410945868
 20
-24.14551244938748
 30
0.0
 10
-1234.842269138079
 20
-72.4149613903498
 30
0.0
 10
-1216.552103990612
 20
-142.7441510349814
 30
0.0
 10
-1187.096490171214
 20
-209.1797556427771
 30
0.0
 10
-1147.02116766482
 20
-269.8080260552231
 30
0.0
 10
-1097.09005131293
 20
-322.7085458162544
 30
0.0
 10
-1037.934181859321
 20
-365.0453224648807
 30
0.0
 10
-971.777424665584
 20
-395.3829098394487
 30
0.0
 10
-896.4438685101164
 20
-400.7838746040431
 30
0.0
 10
-835.2822519707203
 20
-356.9737916435623
 30
0.0
 10
-778.064607072081
 20
-313.6983641170589
 30
0.0
 10
-727.0404379242578
 20
-261.8006996589536
 30
0.0
 10
-693.4076051183506
 20
-227.2964148114041
 30
0.0
 10
-676.6504389037359
 20
-209.8966070518434
 30
0.0
  0
SPLINE
  5
9B526
330
1F
100
AcDbEntity
  8
Default
100
AcDbSpline
210
0.0
220
0.0
230
1.0
 70
     8
 71
     3
 72
    10
 73
     6
 74
     0
 42
0.000000001
 43
0.0000000001
 40
0.0
 40
0.0
 40
0.0
 40
0.0
 40
1.0
 40
2.0
 40
3.0
 40
3.0
 40
3.0
 40
3.0
 10
-881.8575906418841
 20
378.750195968678
 30
0.0
 10
-893.489651277728
 20
384.4679814884805
 30
0.0
 10
-919.2687191250328
 20
389.8608583561948
 30
0.0
 10
-958.022752485191
 20
384.7427648174128
 30
0.0
 10
-982.640383675511
 20
376.7207762466644
 30
0.0
 10
-994.5884444117295
 20
371.7964322036498
 30
0.0
  0
SPLINE
  5
9B527
330
1F
100
AcDbEntity
  8
Default
100
AcDbSpline
210
0.0
220
0.0
230
1.0
 70
     8
 71
     3
 72
    10
 73
     6
 74
     0
 42
0.000000001
 43
0.0000000001
 40
-3.0
 40
-3.0
 40
-3.0
 40
-3.0
 40
-2.0
 40
-1.0
 40
0.0
 40
0.0
 40
0.0
 40
0.0
 10
-994.5884444117295
 20
371.7964322036498
 30
0.0
 10
-1042.349135894165
 20
352.0252974245452
 30
0.0
 10
-1127.231307242237
 20
289.4716740175647
 30
0.0
 10
-1208.925780208662
 20
154.8472380722453
 30
0.0
 10
-1227.631237096246
 20
51.60678600776764
 30
0.0
 10
-1227.211786669992
 20
0.0000268011938712
 30
0.0
  0
SPLINE
  5
9B528
330
1F
100
AcDbEntity
  8
Default
100
AcDbSpline
210
0.0
220
0.0
230
1.0
 70
     8
 71
     3
 72
    10
 73
     6
 74
     0
 42
0.000000001
 43
0.0000000001
 40
0.0
 40
0.0
 40
0.0
 40
0.0
 40
1.0
 40
2.0
 40
3.0
 40
3.0
 40
3.0
 40
3.0
 10
-1227.211786669992
 20
0.0000268011938712
 30
0.0
 10
-1227.631237096246
 20
-51.6067324053799
 30
0.0
 10
-1208.925780208662
 20
-154.8471844698576
 30
0.0
 10
-1127.231307242237
 20
-289.4716204151698
 30
0.0
 10
-1042.349135894165
 20
-352.0252438221576
 30
0.0
 10
-994.5884444117297
 20
-371.7963786012622
 30
0.0
  0
SPLINE
  5
9B529
330
1F
100
AcDbEntity
  8
Default
100
AcDbSpline
210
0.0
220
0.0
230
1.0
 70
     8
 71
     3
 72
    10
 73
     6
 74
     0
 42
0.000000001
 43
0.0000000001
 40
-3.0
 40
-3.0
 40
-3.0
 40
-3.0
 40
-2.0
 40
-1.0
 40
0.0
 40
0.0
 40
0.0
 40
0.0
 10
-994.5884444117297
 20
-371.7963786012622
 30
0.0
 10
-982.6403836755114
 20
-376.7207226442768
 30
0.0
 10
-958.0227524851913
 20
-384.7427112150251
 30
0.0
 10
-919.268719125033
 20
-389.8608047537998
 30
0.0
 10
-893.4896512777283
 20
-384.4679278860856
 30
0.0
 10
-881.8575906418843
 20
-378.7501423662905
 30
0.0
  0
SPLINE
  5
9B52A
330
1F
100
AcDbEntity
  8
Default
100
AcDbSpline
210
0.0
220
0.0
230
1.0
 70
     8
 71
     3
 72
    24
 73
    20
 74
     0
 42
0.000000001
 43
0.0000000001
 40
0.0
 40
0.0
 40
0.0
 40
0.0
 40
1.0
 40
2.0
 40
3.0
 40
4.0
 40
5.0
 40
6.0
 40
7.0
 40
8.0
 40
9.0
 40
10.0
 40
11.0
 40
12.0
 40
13.0
 40
14.0
 40
15.0
 40
16.0
 40
17.0
 40
17.0
 40
17.0
 40
17.0
 10
-881.8575906418843
 20
-378.7501959686704
 30
0.0
 10
-873.0338846220943
 20
-374.4975251771101
 30
0.0
 10
-856.1693310413099
 20
-364.5030704375529
 30
0.0
 10
-832.0392807413734
 20
-347.7346873842469
 30
0.0
 10
-809.0721075772922
 20
-329.4203579542225
 30
0.0
 10
-786.2539362206313
 20
-310.9342710113923
 30
0.0
 10
-763.5657664788292
 20
-292.2829773966585
 30
0.0
 10
-741.437335874191
 20
-272.9682810580706
 30
0.0
 10
-719.981983067069
 20
-252.9059233433289
 30
0.0
 10
-699.1680100966564
 20
-232.1885113119932
 30
0.0
 10
-678.0984619586011
 20
-211.7136112406587
 30
0.0
 10
-658.7080087964046
 20
-189.6197632873225
 30
0.0
 10
-641.2507566669896
 20
-165.9716964156613
 30
0.0
 10
-625.9481463547531
 20
-140.8687028755374
 30
0.0
 10
-613.0206151955285
 20
-114.4624791250533
 30
0.0
 10
-602.7409498005295
 20
-86.91071479221852
 30
0.0
 10
-595.3630207110468
 20
-58.44381679753119
 30
0.0
 10
-590.9508584395239
 20
-29.36961537378362
 30
0.0
 10
-589.9837033275803
 20
-9.789590057996843
 30
0.0
 10
-590.0000000000004
 20
0.000000000000131
 30
0.0
  0
SPLINE
  5
9B52B
330
1F
100
AcDbEntity
  8
Default
100
AcDbSpline
210
0.0
220
0.0
230
1.0
 70
     8
 71
     3
 72
    24
 73
    20
 74
     0
 42
0.000000001
 43
0.0000000001
 40
-17.0
 40
-17.0
 40
-17.0
 40
-17.0
 40
-16.0
 40
-15.0
 40
-14.0
 40
-13.0
 40
-12.0
 40
-11.0
 40
-10.0
 40
-9.0
 40
-8.0
 40
-7.0
 40
-6.0
 40
-5.0
 40
-4.0
 40
-3.0
 40
-2.0
 40
-1.0
 40
0.0
 40
0.0
 40
0.0
 40
0.0
 10
-590.0000000000004
 20
0.000000000000131
 30
0.0
 10
-589.9837033275803
 20
9.789590057997106
 30
0.0
 10
-590.9508584395239
 20
29.36961537379115
 30
0.0
 10
-595.3630207110468
 20
58.44381679753873
 30
0.0
 10
-602.7409498005295
 20
86.91071479221877
 30
0.0
 10
-613.0206151955285
 20
114.4624791250609
 30
0.0
 10
-625.9481463547531
 20
140.868702875545
 30
0.0
 10
-641.2507566669896
 20
165.9716964156615
 30
0.0
 10
-658.7080087964046
 20
189.6197632873228
 30
0.0
 10
-678.0984619586011
 20
211.7136112406662
 30
0.0
 10
-699.1680100966564
 20
232.1885113120008
 30
0.0
 10
-719.981983067069
 20
252.9059233433365
 30
0.0
 10
-741.4373358741908
 20
272.9682810580781
 30
0.0
 10
-763.565766478829
 20
292.2829773966661
 30
0.0
 10
-786.2539362206311
 20
310.9342710113998
 30
0.0
 10
-809.072107577292
 20
329.4203579542302
 30
0.0
 10
-832.039280741373
 20
347.7346873842545
 30
0.0
 10
-856.1693310413096
 20
364.5030704375606
 30
0.0
 10
-873.0338846220941
 20
374.4975251771104
 30
0.0
 10
-881.8575906418841
 20
378.750195968678
 30
0.0
  0
SPLINE
  5
9B52C
330
1F
100
AcDbEntity
  8
Default
100
AcDbSpline
210
0.0
220
0.0
230
1.0
 70
     8
 71
     3
 72
    12
 73
     8
 74
     0
 42
0.000000001
 43
0.0000000001
 40
-15.35241690788854
 40
-15.35241690788854
 40
-15.35241690788854
 40
-15.35241690788854
 40
-11.42846741267097
 40
-7.624448814229928
 40
-3.868777023834103
 40
-1.918304340297428
 40
0.0
 40
0.0
 40
0.0
 40
0.0
 10
-842.9018671671641
 20
244.4746714390569
 30
0.0
 10
-876.1093959779541
 20
244.4752072150952
 30
0.0
 10
-941.6872692432848
 20
232.6523560278658
 30
0.0
 10
-1025.245525216015
 20
179.1985705496993
 30
0.0
 10
-1071.339066799797
 20
111.1289116722839
 30
0.0
 10
-1089.98482390361
 20
49.00233395535202
 30
0.0
 10
-1093.155005493243
 20
16.24009443981801
 30
0.0
 10
-1093.141527722502
 20
0.0000268011938414
 30
0.0
  0
SPLINE
  5
9B52D
330
1F
100
AcDbEntity
  8
Default
100
AcDbSpline
210
0.0
220
0.0
230
1.0
 70
     8
 71
     3
 72
    12
 73
     8
 74
     0
 42
0.000000001
 43
0.0000000001
 40
0.0
 40
0.0
 40
0.0
 40
0.0
 40
1.918304340297428
 40
3.868777023834103
 40
7.624448814229928
 40
11.42846741267097
 40
15.35241690788854
 40
15.35241690788854
 40
15.35241690788854
 40
15.35241690788854
 10
-1093.141527722502
 20
0.0000268011938414
 30
0.0
 10
-1093.155005493243
 20
-16.24004083742305
 30
0.0
 10
-1089.98482390361
 20
-49.00228035296435
 30
0.0
 10
-1071.339066799797
 20
-111.1288580698962
 30
0.0
 10
-1025.245525216015
 20
-179.1985169473116
 30
0.0
 10
-941.6872692432848
 20
-232.6523024254782
 30
0.0
 10
-876.1093959779541
 20
-244.4751536127076
 30
0.0
 10
-842.9018671671641
 20
-244.4746178366693
 30
0.0
  0
SPLINE
  5
9B52E
330
1F
100
AcDbEntity
  8
Default
100
AcDbSpline
210
0.0
220
0.0
230
1.0
 70
     8
 71
     3
 72
    12
 73
     8
 74
     0
 42
0.000000001
 43
0.0000000001
 40
-14.89017237659325
 40
-14.89017237659325
 40
-14.89017237659325
 40
-14.89017237659325
 40
-11.21816892444778
 40
-7.516681648226318
 40
-3.774518777477096
 40
-1.889354184169619
 40
0.0
 40
0.0
 40
0.0
 40
0.0
 10
-842.9018671671641
 20
-244.4746178366693
 30
0.0
 10
-811.8080433026321
 20
-244.4829505858505
 30
0.0
 10
-749.3952790412627
 20
-231.6012645097142
 30
0.0
 10
-670.4819842442561
 20
-176.9403155099061
 30
0.0
 10
-626.8733854685629
 20
-109.2973611974519
 30
0.0
 10
-608.8977994048159
 20
-47.9546714119932
 30
0.0
 10
-605.8240576159264
 20
-15.99517586106217
 30
0.0
 10
-605.8223346031895
 20
0.0000268011937332
 30
0.0
  0
SPLINE
  5
9B52F
330
1F
100
AcDbEntity
  8
Default
100
AcDbSpline
210
0.0
220
0.0
230
1.0
 70
     8
 71
     3
 72
    12
 73
     8
 74
     0
 42
0.000000001
 43
0.0000000001
 40
0.0
 40
0.0
 40
0.0
 40
0.0
 40
1.889354184169619
 40
3.774518777477096
 40
7.516681648226318
 40
11.21816892444778
 40
14.89017237659325
 40
14.89017237659325
 40
14.89017237659325
 40
14.89017237659325
 10
-605.8223346031895
 20
0.0000268011937332
 30
0.0
 10
-605.8240576159264
 20
15.99522946344964
 30
0.0
 10
-608.8977994048159
 20
47.95472501438066
 30
0.0
 10
-626.8733854685629
 20
109.2974147998322
 30
0.0
 10
-670.4819842442561
 20
176.9403691123008
 30
0.0
 10
-749.3952790412627
 20
231.601318112109
 30
0.0
 10
-811.8080433026321
 20
244.4830041882453
 30
0.0
 10
-842.9018671671641
 20
244.4746714390569
 30
0.0
  0
POLYLINE
  5
9B530
330
1F
100
AcDbEntity
  8
Default
100
AcDb2dPolyline
 66
     1
 10
0.0
 20
0.0
 30
0.0
  0
VERTEX
  5
9B531
330
9B530
100
AcDbEntity
  8
Default
100
AcDbVertex
100
AcDb2dVertex
 10
-695.3331592679246
 20
-229.2161933842652
 30
0.0
  0
VERTEX
  5
9B532
330
9B530
100
AcDbEntity
  8
Default
100
AcDbVertex
100
AcDb2dVertex
 10
-689.1666729017638
 20
-232.8485314187927
 30
0.0
  0
SEQEND
  5
9B533
330
9B530
100
AcDbEntity
  8
Default
  0
SPLINE
  5
9B534
330
1F
100
AcDbEntity
  8
Default
100
AcDbSpline
210
0.0
220
0.0
230
1.0
 70
    12
 71
     2
 72
     8
 73
     5
 74
     0
 42
0.000000001
 43
0.0000000001
 40
0.0
 40
0.0
 40
0.0
 40
0.0657021758075414
 40
0.0657021758075414
 40
0.5513779496561005
 40
0.5513779496561005
 40
0.5513779496561005
 10
-689.1666729017638
 20
-232.8485314187927
 30
0.0
 41
1.0
 10
-688.4443668293802
 20
-233.2738537775438
 30
0.0
 41
0.9938146782922427
 10
-687.6463271233092
 20
-233.5291457729907
 30
0.0
 41
1.0
 10
-680.177113991393
 20
-235.790712271067
 30
0.0
 41
0.7132736251541142
 10
-677.785044931546
 20
-228.362264691117
 30
0.0
 41
1.0
  0
SPLINE
  5
9B535
330
1F
100
AcDbEntity
  8
Default
100
AcDbSpline
210
0.0
220
0.0
230
1.0
 70
    12
 71
     2
 72
     6
 73
     3
 74
     0
 42
0.000000001
 43
0.0000000001
 40
0.0
 40
0.0
 40
0.0
 40
0.4162774601092229
 40
0.4162774601092229
 40
0.4162774601092229
 10
-677.785044931546
 20
-228.362264691117
 30
0.0
 41
1.0
 10
-675.7254806416471
 20
-222.4194611919154
 30
0.0
 41
0.7771276355120614
 10
-681.1104013094632
 20
-219.1696384435635
 30
0.0
 41
0.9999999774845855
  0
POLYLINE
  5
9B536
330
1F
100
AcDbEntity
  8
Default
100
AcDb2dPolyline
 66
     1
 10
0.0
 20
0.0
 30
0.0
  0
VERTEX
  5
9B537
330
9B536
100
AcDbEntity
  8
Default
100
AcDbVertex
100
AcDb2dVertex
 10
-681.1104013094632
 20
-219.1696384435635
 30
0.0
  0
VERTEX
  5
9B538
330
9B536
100
AcDbEntity
  8
Default
100
AcDbVertex
100
AcDb2dVertex
 10
-683.9707452544084
 20
-217.4847670426751
 30
0.0
  0
SEQEND
  5
9B539
330
9B536
100
AcDbEntity
  8
Default
  0
POLYLINE
  5
9B53A
330
1F
100
AcDbEntity
  8
Default
100
AcDb2dPolyline
 66
     1
 10
0.0
 20
0.0
 30
0.0
  0
VERTEX
  5
9B53B
330
9B53A
100
AcDbEntity
  8
Default
100
AcDbVertex
100
AcDb2dVertex
 10
-695.3331592679246
 20
229.2162469866527
 30
0.0
  0
VERTEX
  5
9B53C
330
9B53A
100
AcDbEntity
  8
Default
100
AcDbVertex
100
AcDb2dVertex
 10
-689.1666729017638
 20
232.8485850211729
 30
0.0
  0
SEQEND
  5
9B53D
330
9B53A
100
AcDbEntity
  8
Default
  0
SPLINE
  5
9B53E
330
1F
100
AcDbEntity
  8
Default
100
AcDbSpline
210
0.0
220
0.0
230
1.0
 70
    12
 71
     2
 72
     8
 73
     5
 74
     0
 42
0.000000001
 43
0.0000000001
 40
0.0
 40
0.0
 40
0.0
 40
0.0657021758075414
 40
0.0657021758075414
 40
0.5513779496561005
 40
0.5513779496561005
 40
0.5513779496561005
 10
-689.1666729017638
 20
232.8485850211729
 30
0.0
 41
1.0
 10
-688.4443668293802
 20
233.2739073799313
 30
0.0
 41
0.9938146782922427
 10
-687.6463271233092
 20
233.5291993753782
 30
0.0
 41
1.0
 10
-680.177113991393
 20
235.7907658734622
 30
0.0
 41
0.7132736251541142
 10
-677.785044931546
 20
228.3623182935045
 30
0.0
 41
1.0
  0
SPLINE
  5
9B53F
330
1F
100
AcDbEntity
  8
Default
100
AcDbSpline
210
0.0
220
0.0
230
1.0
 70
    12
 71
     2
 72
     6
 73
     3
 74
     0
 42
0.000000001
 43
0.0000000001
 40
0.0
 40
0.0
 40
0.0
 40
0.4162774601092229
 40
0.4162774601092229
 40
0.4162774601092229
 10
-677.785044931546
 20
228.3623182935045
 30
0.0
 41
1.0
 10
-675.7254806416471
 20
222.4195147942957
 30
0.0
 41
0.7771276355120614
 10
-681.1104013094632
 20
219.1696920459582
 30
0.0
 41
0.9999999774845855
  0
POLYLINE
  5
9B540
330
1F
100
AcDbEntity
  8
Default
100
AcDb2dPolyline
 66
     1
 10
0.0
 20
0.0
 30
0.0
  0
VERTEX
  5
9B541
330
9B540
100
AcDbEntity
  8
Default
100
AcDbVertex
100
AcDb2dVertex
 10
-681.1104013094632
 20
219.1696920459582
 30
0.0
  0
VERTEX
  5
9B542
330
9B540
100
AcDbEntity
  8
Default
100
AcDbVertex
100
AcDb2dVertex
 10
-683.9707452544084
 20
217.4848206450699
 30
0.0
  0
SEQEND
  5
9B543
330
9B540
100
AcDbEntity
  8
Default
  0
SPLINE
  5
9B544
330
1F
100
AcDbEntity
  8
Default
100
AcDbSpline
210
0.0
220
0.0
230
1.0
 70
    24
 71
     2
 72
     6
 73
     3
 74
     0
 42
0.000000001
 43
0.0000000001
 40
3.997083449540205
 40
3.997083449540205
 40
3.997083449540205
 40
4.523710136401241
 40
4.523710136401241
 40
4.523710136401241
 10
-1186.394608671354
 20
-206.2480210501014
 30
0.0
 10
-1192.186724203336
 20
-209.5921005116686
 30
0.0
 10
-1197.978839735319
 20
-212.9361799732357
 30
0.0
  0
SPLINE
  5
9B545
330
1F
100
AcDbEntity
  8
Default
100
AcDbSpline
210
0.0
220
0.0
230
1.0
 70
    12
 71
     2
 72
     8
 73
     5
 74
     0
 42
0.000000001
 43
0.0000000001
 40
0.0
 40
0.0
 40
0.0
 40
0.4730574302815958
 40
0.4730574302815958
 40
0.9455180233888372
 40
0.9455180233888372
 40
0.9455180233888372
 10
-1197.978839735319
 20
-212.9361799732357
 30
0.0
 41
1.0
 10
-1204.370126664331
 20
-217.1093851644179
 30
0.0
 41
0.7091869777201399
 10
-1200.234653547447
 20
-223.525151079433
 30
0.0
 41
1.0
 10
-1196.583678763747
 20
-230.235801372786
 30
0.0
 41
0.7071352214376397
 10
-1189.872559132063
 20
-226.5856706858028
 30
0.0
 41
1.0
  0
SPLINE
  5
9B546
330
1F
100
AcDbEntity
  8
Default
100
AcDbSpline
210
0.0
220
0.0
230
1.0
 70
    24
 71
     2
 72
     6
 73
     3
 74
     0
 42
0.000000001
 43
0.0000000001
 40
-4.466989253625452
 40
-4.466989253625452
 40
-4.466989253625452
 40
-3.954134239084437
 40
-3.954134239084437
 40
-3.954134239084437
 10
-1189.872559132063
 20
-226.5856706858028
 30
0.0
 10
-1184.231901565645
 20
-223.3290588095913
 30
0.0
 10
-1178.591243999226
 20
-220.072446933387
 30
0.0
  0
SPLINE
  5
9B547
330
1F
100
AcDbEntity
  8
Default
100
AcDbSpline
210
0.0
220
0.0
230
1.0
 70
    24
 71
     2
 72
     6
 73
     3
 74
     0
 42
0.000000001
 43
0.0000000001
 40
3.997083449540205
 40
3.997083449540205
 40
3.997083449540205
 40
4.523710136401241
 40
4.523710136401241
 40
4.523710136401241
 10
-1186.394608671354
 20
206.2480746524964
 30
0.0
 10
-1192.186724203336
 20
209.5921541140636
 30
0.0
 10
-1197.978839735319
 20
212.9362335756307
 30
0.0
  0
SPLINE
  5
9B548
330
1F
100
AcDbEntity
  8
Default
100
AcDbSpline
210
0.0
220
0.0
230
1.0
 70
    12
 71
     2
 72
     8
 73
     5
 74
     0
 42
0.000000001
 43
0.0000000001
 40
0.0
 40
0.0
 40
0.0
 40
0.4730574302815958
 40
0.4730574302815958
 40
0.9455180233888372
 40
0.9455180233888372
 40
0.9455180233888372
 10
-1197.978839735319
 20
212.9362335756307
 30
0.0
 41
1.0
 10
-1204.370126664331
 20
217.1094387667984
 30
0.0
 41
0.7091869777201399
 10
-1200.234653547447
 20
223.5252046818135
 30
0.0
 41
1.0
 10
-1196.583678763747
 20
230.2358549751883
 30
0.0
 41
0.7071352214376397
 10
-1189.872559132063
 20
226.5857242881905
 30
0.0
 41
1.0
  0
SPLINE
  5
9B549
330
1F
100
AcDbEntity
  8
Default
100
AcDbSpline
210
0.0
220
0.0
230
1.0
 70
    24
 71
     2
 72
     6
 73
     3
 74
     0
 42
0.000000001
 43
0.0000000001
 40
-4.466989253625452
 40
-4.466989253625452
 40
-4.466989253625452
 40
-3.954134239084437
 40
-3.954134239084437
 40
-3.954134239084437
 10
-1189.872559132063
 20
226.5857242881905
 30
0.0
 10
-1184.231901565645
 20
223.3291124119862
 30
0.0
 10
-1178.591243999226
 20
220.0725005357747
 30
0.0
  0
ENDSEC
  0
SECTION
  2
OBJECTS
  0
DICTIONARY
  5
C
330
0
100
AcDbDictionary
281
     1
  3
ACAD_BACKGROUND
350
9ACA3
  3
ACAD_CIP_PREVIOUS_PRODUCT_INFO
350
9AC7C
  3
ACAD_COLOR
350
9AC74
  3
ACAD_DETAILVIEWSTYLE
350
9AC71
  3
ACAD_GROUP
350
D
  3
ACAD_LAYOUT
350
1A
  3
ACAD_MATERIAL
350
43
  3
ACAD_MLEADERSTYLE
350
9AC70
  3
ACAD_MLINESTYLE
350
17
  3
ACAD_PLOTSETTINGS
350
19
  3
ACAD_PLOTSTYLENAME
350
E
  3
ACAD_SCALELIST
350
47
  3
ACAD_SECTIONVIEWSTYLE
350
9AC72
  3
ACAD_TABLESTYLE
350
9AC6F
  3
ACAD_VISUALSTYLE
350
2A
  3
ACDB_RECOMPOSE_DATA
350
9B56C
  3
AcDbVariableDictionary
350
9AC36
  0
DICTIONARY
  5
9AC34
330
8
100
AcDbDictionary
280
     1
281
     1
  0
SUN
  5
69
330
29
100
AcDbSun
 90
        1
290
     0
 63
     7
421
 16777215
 40
1.0
291
     1
 91
  2455826
 92
 54000000
292
     0
 70
     0
 71
   256
280
     1
  0
DICTIONARY
  5
9AC84
330
2
100
AcDbDictionary
280
     1
281
     1
  3
ACAD_LAYERSTATES
360
9AC85
  0
DICTIONARY
  5
9AC7D
330
10
100
AcDbDictionary
280
     1
281
     1
  3
ADSK_XREC_LAYER_RECONCILED
360
9AC7E
  0
DICTIONARY
  5
9AC7F
330
6A
100
AcDbDictionary
280
     1
281
     1
  3
ADSK_XREC_LAYER_RECONCILED
360
9AC80
  0
DICTIONARY
  5
9AEFA
330
1F
100
AcDbDictionary
280
     1
281
     1
  3
ACAD_SORTENTS
360
9AEFB
  0
DICTIONARY
  5
9ACA3
102
{ACAD_REACTORS
330
C
102
}
330
C
100
AcDbDictionary
281
     1
  0
XRECORD
  5
9AC7C
102
{ACAD_REACTORS
330
C
102
}
330
C
100
AcDbXrecord
280
     1
300
ACD
300
2016
300
ACD_F_S
  0
DICTIONARY
  5
9AC74
102
{ACAD_REACTORS
330
C
102
}
330
C
100
AcDbDictionary
281
     1
  0
DICTIONARY
  5
9AC71
102
{ACAD_REACTORS
330
C
102
}
330
C
100
AcDbDictionary
281
     1
  3
Imperial24
350
9AC78
  0
DICTIONARY
  5
D
102
{ACAD_REACTORS
330
C
102
}
330
C
100
AcDbDictionary
281
     1
  0
DICTIONARY
  5
1A
102
{ACAD_REACTORS
330
C
102
}
330
C
100
AcDbDictionary
281
     1
  3
Layout1
350
1E
  3
Layout2
350
26
  3
Model
350
22
  0
DICTIONARY
  5
43
102
{ACAD_REACTORS
330
C
102
}
330
C
100
AcDbDictionary
281
     1
  3
ByBlock
350
45
  3
ByLayer
350
44
  3
Global
350
46
  0
DICTIONARY
  5
9AC70
102
{ACAD_REACTORS
330
C
102
}
330
C
100
AcDbDictionary
281
     1
  3
Standard
350
9AC76
  0
DICTIONARY
  5
17
102
{ACAD_REACTORS
330
C
102
}
330
C
100
AcDbDictionary
281
     1
  3
Standard
350
18
  0
DICTIONARY
  5
19
102
{ACAD_REACTORS
330
C
102
}
330
C
100
AcDbDictionary
281
     1
  0
ACDBDICTIONARYWDFLT
  5
E
102
{ACAD_REACTORS
330
C
102
}
330
C
100
AcDbDictionary
281
     1
  3
Normal
350
F
100
AcDbDictionaryWithDefault
340
F
  0
DICTIONARY
  5
47
102
{ACAD_REACTORS
330
C
102
}
330
C
100
AcDbDictionary
281
     1
  3
A0
350
48
  3
A1
350
49
  3
A2
350
4A
  3
A3
350
4B
  3
A4
350
4C
  3
A5
350
4D
  3
A6
350
4E
  3
A7
350
4F
  3
A8
350
50
  3
A9
350
51
  3
B0
350
52
  3
B1
350
53
  3
B2
350
54
  3
B3
350
55
  3
B4
350
56
  3
B5
350
57
  3
B6
350
58
  3
B7
350
59
  3
B8
350
5A
  3
B9
350
5B
  3
C0
350
5C
  3
C1
350
5D
  3
C2
350
5E
  3
C3
350
5F
  3
C4
350
60
  3
C5
350
61
  3
C6
350
62
  3
C7
350
63
  3
C8
350
64
  3
C9
350
65
  3
D0
350
66
  3
D1
350
67
  3
D2
350
68
  0
DICTIONARY
  5
9AC72
102
{ACAD_REACTORS
330
C
102
}
330
C
100
AcDbDictionary
281
     1
  3
Imperial24
350
9AC77
  0
DICTIONARY
  5
9AC6F
102
{ACAD_REACTORS
330
C
102
}
330
C
100
AcDbDictionary
281
     1
  3
Standard
350
9AC75
  0
DICTIONARY
  5
2A
102
{ACAD_REACTORS
330
C
102
}
330
C
100
AcDbDictionary
281
     1
  3
2dWireframe
350
2F
  3
3D Hidden
350
9ACAA
  3
3dWireframe
350
9ACAB
  3
Basic
350
32
  3
Brighten
350
36
  3
ColorChange
350
3A
  3
Conceptual
350
34
  3
Dim
350
35
  3
EdgeColorOff
350
3D
  3
Facepattern
350
39
  3
Flat
350
2B
  3
FlatWithEdges
350
2C
  3
Gouraud
350
2D
  3
GouraudWithEdges
350
2E
  3
Hidden
350
31
  3
JitterOff
350
3B
  3
Linepattern
350
38
  3
OverhangOff
350
3C
  3
Realistic
350
33
  3
Shaded
350
42
  3
Shaded with edges
350
41
  3
Shades of Gray
350
3E
  3
Sketchy
350
3F
  3
Thicken
350
37
  3
Wireframe
350
30
  3
X-Ray
350
40
  0
XRECORD
  5
9B56C
102
{ACAD_REACTORS
330
C
102
}
330
C
100
AcDbXrecord
280
     1
 90
        1
330
9AC75
330
9AC77
330
9AC78
  0
DICTIONARY
  5
9AC36
102
{ACAD_REACTORS
330
C
102
}
330
C
100
AcDbDictionary
281
     1
  3
CANNOSCALE
350
9AC37
  3
CMLEADERSTYLE
350
9B00B
  3
CTABLESTYLE
350
9B00A
  3
CVIEWDETAILSTYLE
350
9B00C
  3
CVIEWSECTIONSTYLE
350
9B00D
  3
LAYEREVAL
350
9B00F
  3
LAYERNOTIFY
350
9B010
  3
LIGHTINGUNITS
350
9B00E
  3
MSLTSCALE
350
9AC38
  0
DICTIONARY
  5
9AC85
102
{ACAD_REACTORS
330
9AC84
102
}
330
9AC84
100
AcDbDictionary
281
     1
  0
XRECORD
  5
9AC7E
102
{ACAD_REACTORS
330
9AC7D
102
}
330
9AC7D
100
AcDbXrecord
280
     1
290
     1
  0
XRECORD
  5
9AC80
102
{ACAD_REACTORS
330
9AC7F
102
}
330
9AC7F
100
AcDbXrecord
280
     1
290
     1
  0
SORTENTSTABLE
  5
9AEFB
102
{ACAD_REACTORS
330
9AEFA
102
}
330
9AEFA
100
AcDbSortentsTable
330
1F
  0
ACDBDETAILVIEWSTYLE
  5
9AC78
102
{ACAD_XDICTIONARY
360
9B007
102
}
102
{ACAD_REACTORS
330
9AC71
102
}
330
9AC71
100
AcDbModelDocViewStyle
 70
     0
  3
Imperial24
290
     0
100
AcDbDetailViewStyle
 70
     0
 71
     0
 90
        3
 71
     1
340
11
 62
   256
 40
0.24
340
0
 62
   256
 40
0.24
300

 40
0.36
280
     3
 71
     2
340
16
 90
       25
 62
   256
 71
     3
340
11
 62
   256
 40
0.24
 90
        1
 40
0.75
 90
        1
300
%<\AcVar ViewType \f "%tc1">% %<\AcVar ViewDetailId>%\PSCALE %<\AcVar ViewScale \f "%sn">%
 71
     4
340
16
 90
       25
 62
   256
340
16
 90
       25
 62
   256
280
     0
  0
LAYOUT
  5
1E
102
{ACAD_REACTORS
330
1A
102
}
330
1A
100
AcDbPlotSettings
  1

  2
none_device
  4

  6

 40
0.0
 41
0.0
 42
0.0
 43
0.0
 44
0.0
 45
0.0
 46
0.0
 47
0.0
 48
0.0
 49
0.0
140
0.0
141
0.0
142
1.0
143
1.0
 70
   688
 72
     0
 73
     0
 74
     5
  7

 75
    16
147
1.0
 76
     0
 77
     2
 78
   300
148
0.0
149
0.0
100
AcDbLayout
  1
Layout1
 70
     1
 71
     1
 10
0.0
 20
0.0
 11
12.0
 21
9.0
 12
0.0
 22
0.0
 32
0.0
 14
1.000000000000000E+20
 24
1.000000000000000E+20
 34
1.000000000000000E+20
 15
-1.000000000000000E+20
 25
-1.000000000000000E+20
 35
-1.000000000000000E+20
146
0.0
 13
0.0
 23
0.0
 33
0.0
 16
1.0
 26
0.0
 36
0.0
 17
0.0
 27
1.0
 37
0.0
 76
     0
330
1B
  0
LAYOUT
  5
26
102
{ACAD_REACTORS
330
1A
102
}
330
1A
100
AcDbPlotSettings
  1

  2
none_device
  4

  6

 40
0.0
 41
0.0
 42
0.0
 43
0.0
 44
0.0
 45
0.0
 46
0.0
 47
0.0
 48
0.0
 49
0.0
140
0.0
141
0.0
142
1.0
143
1.0
 70
   688
 72
     0
 73
     0
 74
     5
  7

 75
    16
147
1.0
 76
     0
 77
     2
 78
   300
148
0.0
149
0.0
100
AcDbLayout
  1
Layout2
 70
     1
 71
     2
 10
0.0
 20
0.0
 11
0.0
 21
0.0
 12
0.0
 22
0.0
 32
0.0
 14
0.0
 24
0.0
 34
0.0
 15
0.0
 25
0.0
 35
0.0
146
0.0
 13
0.0
 23
0.0
 33
0.0
 16
1.0
 26
0.0
 36
0.0
 17
0.0
 27
1.0
 37
0.0
 76
     0
330
23
  0
LAYOUT
  5
22
102
{ACAD_REACTORS
330
1A
102
}
330
1A
100
AcDbPlotSettings
  1

  2
none_device
  4
Letter_(8.50_x_11.00_Inches)
  6

 40
6.349999999999999
 41
6.349999999999999
 42
6.350005079999999
 43
6.350005079999999
 44
215.9
 45
279.4
 46
0.0
 47
0.0
 48
0.0
 49
0.0
140
0.0
141
0.0
142
1.0
143
1.0
 70
  1712
 72
     0
 73
     0
 74
     0
  7

 75
     0
147
1.0
 76
     0
 77
     2
 78
   300
148
0.0
149
0.0
100
AcDbLayout
  1
Model
 70
     1
 71
     0
 10
0.0
 20
0.0
 11
12.0
 21
9.0
 12
0.0
 22
0.0
 32
0.0
 14
-1095.705810546875
 24
-1095.705810546875
 34
-0.029534799978137
 15
1095.705810546875
 25
1095.705810546875
 35
925.6874389648437
146
0.0
 13
0.0
 23
0.0
 33
0.0
 16
1.0
 26
0.0
 36
0.0
 17
0.0
 27
1.0
 37
0.0
 76
     0
330
1F
331
29
  0
MATERIAL
  5
45
102
{ACAD_REACTORS
330
43
102
}
330
43
100
AcDbMaterial
  1
ByBlock
 73
     1
 78
     1
172
     1
176
     1
270
     1
274
     1
  0
MATERIAL
  5
44
102
{ACAD_REACTORS
330
43
102
}
330
43
100
AcDbMaterial
  1
ByLayer
 73
     1
 78
     1
172
     1
176
     1
270
     1
274
     1
  0
MATERIAL
  5
46
102
{ACAD_REACTORS
330
43
102
}
330
43
100
AcDbMaterial
  1
Global
 73
     1
 78
     1
172
     1
176
     1
270
     1
274
     1
  0
MLEADERSTYLE
  5
9AC76
102
{ACAD_REACTORS
330
9AC70
102
}
330
9AC70
100
AcDbMLeaderStyle
179
     2
170
     2
171
     1
172
     0
 90
        2
 40
0.0
 41
0.0
173
     1
 91
-1056964608
340
14
 92
       -2
290
     1
 42
0.09
291
     1
 43
0.36
  3
Standard
 44
0.18
300

342
11
174
     1
178
     6
175
     1
176
     0
 93
-1056964608
 45
0.18
292
     0
297
     0
 46
0.18
 94
-1056964608
 47
1.0
 49
1.0
140
1.0
293
     1
141
0.0
294
     1
177
     0
142
1.0
295
     1
296
     0
143
0.125
271
     0
272
     9
273
     9
298
     1
  0
MLINESTYLE
  5
18
102
{ACAD_REACTORS
330
17
102
}
330
17
100
AcDbMlineStyle
  2
STANDARD
 70
     0
  3

 62
   256
 51
90.0
 52
90.0
 71
     2
 49
0.5
 62
   256
  6
BYLAYER
 49
-0.5
 62
   256
  6
BYLAYER
  0
ACDBPLACEHOLDER
  5
F
102
{ACAD_REACTORS
330
E
102
}
330
E
  0
SCALE
  5
48
102
{ACAD_REACTORS
330
47
102
}
330
47
100
AcDbScale
 70
     0
300
1:1
140
1.0
141
1.0
290
     1
  0
SCALE
  5
49
102
{ACAD_REACTORS
330
47
102
}
330
47
100
AcDbScale
 70
     0
300
1:2
140
1.0
141
2.0
290
     0
  0
SCALE
  5
4A
102
{ACAD_REACTORS
330
47
102
}
330
47
100
AcDbScale
 70
     0
300
1:4
140
1.0
141
4.0
290
     0
  0
SCALE
  5
4B
102
{ACAD_REACTORS
330
47
102
}
330
47
100
AcDbScale
 70
     0
300
1:5
140
1.0
141
5.0
290
     0
  0
SCALE
  5
4C
102
{ACAD_REACTORS
330
47
102
}
330
47
100
AcDbScale
 70
     0
300
1:8
140
1.0
141
8.0
290
     0
  0
SCALE
  5
4D
102
{ACAD_REACTORS
330
47
102
}
330
47
100
AcDbScale
 70
     0
300
1:10
140
1.0
141
10.0
290
     0
  0
SCALE
  5
4E
102
{ACAD_REACTORS
330
47
102
}
330
47
100
AcDbScale
 70
     0
300
1:16
140
1.0
141
16.0
290
     0
  0
SCALE
  5
4F
102
{ACAD_REACTORS
330
47
102
}
330
47
100
AcDbScale
 70
     0
300
1:20
140
1.0
141
20.0
290
     0
  0
SCALE
  5
50
102
{ACAD_REACTORS
330
47
102
}
330
47
100
AcDbScale
 70
     0
300
1:30
140
1.0
141
30.0
290
     0
  0
SCALE
  5
51
102
{ACAD_REACTORS
330
47
102
}
330
47
100
AcDbScale
 70
     0
300
1:40
140
1.0
141
40.0
290
     0
  0
SCALE
  5
52
102
{ACAD_REACTORS
330
47
102
}
330
47
100
AcDbScale
 70
     0
300
1:50
140
1.0
141
50.0
290
     0
  0
SCALE
  5
53
102
{ACAD_REACTORS
330
47
102
}
330
47
100
AcDbScale
 70
     0
300
1:100
140
1.0
141
100.0
290
     0
  0
SCALE
  5
54
102
{ACAD_REACTORS
330
47
102
}
330
47
100
AcDbScale
 70
     0
300
2:1
140
2.0
141
1.0
290
     0
  0
SCALE
  5
55
102
{ACAD_REACTORS
330
47
102
}
330
47
100
AcDbScale
 70
     0
300
4:1
140
4.0
141
1.0
290
     0
  0
SCALE
  5
56
102
{ACAD_REACTORS
330
47
102
}
330
47
100
AcDbScale
 70
     0
300
8:1
140
8.0
141
1.0
290
     0
  0
SCALE
  5
57
102
{ACAD_REACTORS
330
47
102
}
330
47
100
AcDbScale
 70
     0
300
10:1
140
10.0
141
1.0
290
     0
  0
SCALE
  5
58
102
{ACAD_REACTORS
330
47
102
}
330
47
100
AcDbScale
 70
     0
300
100:1
140
100.0
141
1.0
290
     0
  0
SCALE
  5
59
102
{ACAD_REACTORS
330
47
102
}
330
47
100
AcDbScale
 70
     0
300
1/128" = 1'-0"
140
0.0078125
141
12.0
290
     0
  0
SCALE
  5
5A
102
{ACAD_REACTORS
330
47
102
}
330
47
100
AcDbScale
 70
     0
300
1/64" = 1'-0"
140
0.015625
141
12.0
290
     0
  0
SCALE
  5
5B
102
{ACAD_REACTORS
330
47
102
}
330
47
100
AcDbScale
 70
     0
300
1/32" = 1'-0"
140
0.03125
141
12.0
290
     0
  0
SCALE
  5
5C
102
{ACAD_REACTORS
330
47
102
}
330
47
100
AcDbScale
 70
     0
300
1/16" = 1'-0"
140
0.0625
141
12.0
290
     0
  0
SCALE
  5
5D
102
{ACAD_REACTORS
330
47
102
}
330
47
100
AcDbScale
 70
     0
300
3/32" = 1'-0"
140
0.09375
141
12.0
290
     0
  0
SCALE
  5
5E
102
{ACAD_REACTORS
330
47
102
}
330
47
100
AcDbScale
 70
     0
300
1/8" = 1'-0"
140
0.125
141
12.0
290
     0
  0
SCALE
  5
5F
102
{ACAD_REACTORS
330
47
102
}
330
47
100
AcDbScale
 70
     0
300
3/16" = 1'-0"
140
0.1875
141
12.0
290
     0
  0
SCALE
  5
60
102
{ACAD_REACTORS
330
47
102
}
330
47
100
AcDbScale
 70
     0
300
1/4" = 1'-0"
140
0.25
141
12.0
290
     0
  0
SCALE
  5
61
102
{ACAD_REACTORS
330
47
102
}
330
47
100
AcDbScale
 70
     0
300
3/8" = 1'-0"
140
0.375
141
12.0
290
     0
  0
SCALE
  5
62
102
{ACAD_REACTORS
330
47
102
}
330
47
100
AcDbScale
 70
     0
300
1/2" = 1'-0"
140
0.5
141
12.0
290
     0
  0
SCALE
  5
63
102
{ACAD_REACTORS
330
47
102
}
330
47
100
AcDbScale
 70
     0
300
3/4" = 1'-0"
140
0.75
141
12.0
290
     0
  0
SCALE
  5
64
102
{ACAD_REACTORS
330
47
102
}
330
47
100
AcDbScale
 70
     0
300
1" = 1'-0"
140
1.0
141
12.0
290
     0
  0
SCALE
  5
65
102
{ACAD_REACTORS
330
47
102
}
330
47
100
AcDbScale
 70
     0
300
1-1/2" = 1'-0"
140
1.5
141
12.0
290
     0
  0
SCALE
  5
66
102
{ACAD_REACTORS
330
47
102
}
330
47
100
AcDbScale
 70
     0
300
3" = 1'-0"
140
3.0
141
12.0
290
     0
  0
SCALE
  5
67
102
{ACAD_REACTORS
330
47
102
}
330
47
100
AcDbScale
 70
     0
300
6" = 1'-0"
140
6.0
141
12.0
290
     0
  0
SCALE
  5
68
102
{ACAD_REACTORS
330
47
102
}
330
47
100
AcDbScale
 70
     0
300
1'-0" = 1'-0"
140
12.0
141
12.0
290
     0
  0
ACDBSECTIONVIEWSTYLE
  5
9AC77
102
{ACAD_XDICTIONARY
360
9B005
102
}
102
{ACAD_REACTORS
330
9AC72
102
}
330
9AC72
100
AcDbModelDocViewStyle
 70
     0
  3
Imperial24
290
     0
100
AcDbSectionViewStyle
 70
     0
 71
     0
 90
       78
 71
     1
340
11
 62
   256
 40
0.24
340
0
340
0
 62
   256
 40
0.24
300
I, O, Q, S, X, Z
 40
0.48
 90
        3
 40
0.18
 90
        1
 71
     2
340
16
 90
       25
 62
   256
340
16
 90
       50
 62
   256
 40
0.24
 40
0.0
 40
0.24
 71
     3
340
11
 62
   256
 40
0.24
 90
        1
 40
0.75
 90
        1
300
%<\AcVar ViewType \f "%tc1">% %<\AcVar ViewSectionStartId>%-%<\AcVar ViewSectionEndId>%\PSCALE %<\AcVar ViewScale \f "%sn">%
 71
     4
 62
   256
 62
   257
300
ANSI31
 40
1.0
 90
        0
290
     0
290
     0
 90
        6
 40
0.0
 40
1.570796326794896
 40
0.2617993877991494
 40
1.308996938995747
 40
-0.2617993877991494
 40
1.832595714594046
  0
TABLESTYLE
  5
9AC75
102
{ACAD_XDICTIONARY
360
9B568
102
}
102
{ACAD_REACTORS
330
9AC6F
102
}
330
9AC6F
100
AcDbTableStyle
280
     0
  3
Standard
 70
     0
 71
     0
 40
0.06
 41
0.06
280
     0
281
     0
  7
Standard
140
0.18
170
     2
 62
     0
 63
     7
283
     0
 90
      512
 91
        0
  1

274
    -2
284
     1
 64
     0
275
    -2
285
     1
 65
     0
276
    -2
286
     1
 66
     0
277
    -2
287
     1
 67
     0
278
    -2
288
     1
 68
     0
279
    -2
289
     1
 69
     0
  7
Standard
140
0.25
170
     5
 62
     0
 63
     7
283
     0
 90
      512
 91
        0
  1

274
    -2
284
     1
 64
     0
275
    -2
285
     1
 65
     0
276
    -2
286
     1
 66
     0
277
    -2
287
     1
 67
     0
278
    -2
288
     1
 68
     0
279
    -2
289
     1
 69
     0
  7
Standard
140
0.18
170
     5
 62
     0
 63
     7
283
     0
 90
      512
 91
        0
  1

274
    -2
284
     1
 64
     0
275
    -2
285
     1
 65
     0
276
    -2
286
     1
 66
     0
277
    -2
287
     1
 67
     0
278
    -2
288
     1
 68
     0
279
    -2
289
     1
 69
     0
  0
VISUALSTYLE
  5
2F
102
{ACAD_REACTORS
330
2A
102
}
330
2A
100
AcDbVisualStyle
  2
2dWireframe
 70
     4
177
     3
291
     0
 70
    58
 90
        0
176
     1
 90
        2
176
     1
 90
        0
176
     1
 90
        0
176
     1
 40
0.6
176
     1
 40
30.0
176
     1
 62
     7
420
 16777215
176
     1
 90
        1
176
     1
 90
        4
176
     1
 62
     7
176
     1
 62
   257
176
     1
 90
        1
176
     1
 90
        1
176
     1
 40
1.0
176
     1
 90
        0
176
     1
 62
   257
176
     1
 40
1.0
176
     1
 90
        1
176
     1
 90
        6
176
     1
 90
        2
176
     1
 62
     7
176
     1
 90
        5
176
     1
 90
        0
176
     1
 90
        0
176
     1
290
     0
176
     1
 90
        1
176
     1
 40
0.0
176
     1
 90
        0
176
     1
290
     1
176
     1
290
     1
176
     1
290
     0
176
     1
290
     0
176
     1
290
     0
176
     1
290
     0
176
     1
290
     0
176
     1
290
     0
176
     1
290
     0
176
     1
 90
       50
176
     1
 40
0.0
176
     1
 40
1.0
176
     1
 90
        0
176
     1
 62
    18
420
        0
176
     1
 90
       50
176
     1
 90
        3
176
     1
 62
     5
420
      255
176
     1
290
     0
176
     1
 90
       50
176
     1
 90
       50
176
     1
 90
       50
176
     1
290
     0
176
     1
 90
       50
176
     1
 62
   256
176
     0
 40
1.0
176
     0
 90
        2
176
     1
  1
strokes_ogs.tif
176
     1
290
     0
176
     1
 40
1.0
176
     1
 40
1.0
176
     1
  0
VISUALSTYLE
  5
9ACAA
102
{ACAD_REACTORS
330
2A
102
}
330
2A
100
AcDbVisualStyle
  2

 70
     6
177
     3
291
     0
 70
    58
 90
        1
176
     1
 90
        2
176
     1
 90
        2
176
     1
 90
        0
176
     1
 40
0.6
176
     1
 40
30.0
176
     1
 62
     7
420
 16777215
176
     1
 90
        2
176
     1
 90
        2
176
     1
 62
     7
176
     1
 62
   257
176
     1
 90
        2
176
     1
 90
        1
176
     1
 40
40.0
176
     1
 90
        0
176
     1
 62
   257
176
     1
 40
1.0
176
     1
 90
        1
176
     1
 90
        6
176
     1
 90
        2
176
     1
 62
     7
176
     1
 90
        3
176
     1
 90
        0
176
     1
 90
        0
176
     1
290
     0
176
     1
 90
        1
176
     1
 40
0.0
176
     1
 90
        0
176
     1
290
     0
176
     1
290
     1
176
     1
290
     1
176
     1
290
     0
176
     1
290
     0
176
     1
290
     0
176
     1
290
     0
176
     1
290
     0
176
     1
290
     0
176
     1
 90
       50
176
     1
 40
0.0
176
     1
 40
1.0
176
     1
 90
        0
176
     1
 62
    18
420
        0
176
     1
 90
       50
176
     1
 90
        3
176
     1
 62
     5
420
      255
176
     1
290
     0
176
     1
 90
       50
176
     1
 90
       50
176
     1
 90
       50
176
     1
290
     0
176
     1
 90
       50
176
     1
 62
   256
176
     0
 40
1.0
176
     0
 90
        2
176
     1
  1
strokes_ogs.tif
176
     1
290
     0
176
     1
 40
1.0
176
     1
 40
1.0
176
     1
  0
VISUALSTYLE
  5
9ACAB
102
{ACAD_REACTORS
330
2A
102
}
330
2A
100
AcDbVisualStyle
  2

 70
     5
177
     3
291
     0
 70
    58
 90
        0
176
     1
 90
        2
176
     1
 90
        0
176
     1
 90
        0
176
     1
 40
0.6
176
     1
 40
30.0
176
     1
 62
     7
420
 16777215
176
     1
 90
        1
176
     1
 90
        4
176
     1
 62
     7
176
     1
 62
   257
176
     1
 90
        1
176
     1
 90
        1
176
     1
 40
1.0
176
     1
 90
        0
176
     1
 62
   257
176
     1
 40
1.0
176
     1
 90
        1
176
     1
 90
        6
176
     1
 90
        2
176
     1
 62
     7
176
     1
 90
        5
176
     1
 90
        0
176
     1
 90
        0
176
     1
290
     0
176
     1
 90
        1
176
     1
 40
0.0
176
     1
 90
        0
176
     1
290
     0
176
     1
290
     1
176
     1
290
     1
176
     1
290
     0
176
     1
290
     0
176
     1
290
     0
176
     1
290
     0
176
     1
290
     0
176
     1
290
     0
176
     1
 90
       50
176
     1
 40
0.0
176
     1
 40
1.0
176
     1
 90
        0
176
     1
 62
    18
420
        0
176
     1
 90
       50
176
     1
 90
        3
176
     1
 62
     5
420
      255
176
     1
290
     0
176
     1
 90
       50
176
     1
 90
       50
176
     1
 90
       50
176
     1
290
     0
176
     1
 90
       50
176
     1
 62
   256
176
     0
 40
1.0
176
     0
 90
        2
176
     1
  1
strokes_ogs.tif
176
     1
290
     0
176
     1
 40
1.0
176
     1
 40
1.0
176
     1
  0
VISUALSTYLE
  5
32
102
{ACAD_REACTORS
330
2A
102
}
330
2A
100
AcDbVisualStyle
  2
Basic
 70
     7
177
     3
291
     1
 70
    58
 90
        1
176
     1
 90
        0
176
     1
 90
        1
176
     1
 90
        0
176
     1
 40
0.6
176
     1
 40
30.0
176
     1
 62
     7
420
 16777215
176
     1
 90
        0
176
     1
 90
        4
176
     1
 62
     7
176
     1
 62
   257
176
     1
 90
        1
176
     1
 90
        1
176
     1
 40
1.0
176
     1
 90
        8
176
     1
 62
     7
176
     1
 40
1.0
176
     1
 90
        1
176
     1
 90
        6
176
     1
 90
        2
176
     1
 62
     7
176
     1
 90
        5
176
     1
 90
        0
176
     1
 90
        0
176
     1
290
     0
176
     1
 90
        1
176
     1
 40
0.0
176
     1
 90
        0
176
     1
290
     0
176
     1
290
     1
176
     1
290
     1
176
     1
290
     0
176
     1
290
     0
176
     1
290
     0
176
     1
290
     0
176
     1
290
     0
176
     1
290
     0
176
     1
 90
       50
176
     1
 40
0.0
176
     1
 40
1.0
176
     1
 90
        0
176
     1
 62
    18
420
        0
176
     1
 90
       50
176
     1
 90
        3
176
     1
 62
     5
420
      255
176
     1
290
     0
176
     1
 90
       50
176
     1
 90
       50
176
     1
 90
       50
176
     1
290
     0
176
     1
 90
       50
176
     1
 62
   256
176
     0
 40
1.0
176
     0
 90
        2
176
     1
  1
strokes_ogs.tif
176
     1
290
     0
176
     1
 40
1.0
176
     1
 40
1.0
176
     1
  0
VISUALSTYLE
  5
36
102
{ACAD_REACTORS
330
2A
102
}
330
2A
100
AcDbVisualStyle
  2
Brighten
 70
    12
177
     3
291
     1
 70
    58
 90
        2
176
     1
 90
        2
176
     1
 90
        0
176
     1
 90
        0
176
     1
 40
0.6
176
     1
 40
30.0
176
     1
 62
     7
420
 16777215
176
     1
 90
        1
176
     1
 90
        4
176
     1
 62
     7
176
     1
 62
   257
176
     1
 90
        1
176
     1
 90
        1
176
     1
 40
1.0
176
     1
 90
        8
176
     1
 62
     7
176
     1
 40
1.0
176
     1
 90
        1
176
     1
 90
        6
176
     1
 90
        2
176
     1
 62
     7
176
     1
 90
        5
176
     1
 90
        0
176
     1
 90
        0
176
     1
290
     0
176
     1
 90
        1
176
     1
 40
50.0
176
     1
 90
        0
176
     1
290
     0
176
     1
290
     1
176
     1
290
     1
176
     1
290
     0
176
     1
290
     0
176
     1
290
     0
176
     1
290
     0
176
     1
290
     0
176
     1
290
     0
176
     1
 90
       50
176
     1
 40
0.0
176
     1
 40
1.0
176
     1
 90
        0
176
     1
 62
    18
420
        0
176
     1
 90
       50
176
     1
 90
        3
176
     1
 62
     5
420
      255
176
     1
290
     0
176
     1
 90
       50
176
     1
 90
       50
176
     1
 90
       50
176
     1
290
     0
176
     1
 90
       50
176
     1
 62
   256
176
     0
 40
1.0
176
     0
 90
        2
176
     1
  1
strokes_ogs.tif
176
     1
290
     0
176
     1
 40
1.0
176
     1
 40
1.0
176
     1
  0
VISUALSTYLE
  5
3A
102
{ACAD_REACTORS
330
2A
102
}
330
2A
100
AcDbVisualStyle
  2
ColorChange
 70
    16
177
     3
291
     1
 70
    58
 90
        2
176
     1
 90
        2
176
     1
 90
        3
176
     1
 90
        0
176
     1
 40
0.6
176
     1
 40
30.0
176
     1
 62
     8
420
  8421504
176
     1
 90
        1
176
     1
 90
        4
176
     1
 62
     7
176
     1
 62
   257
176
     1
 90
        1
176
     1
 90
        1
176
     1
 40
1.0
176
     1
 90
        8
176
     1
 62
     8
420
  8421504
176
     1
 40
1.0
176
     1
 90
        1
176
     1
 90
        6
176
     1
 90
        2
176
     1
 62
     7
176
     1
 90
        5
176
     1
 90
        0
176
     1
 90
        0
176
     1
290
     0
176
     1
 90
        1
176
     1
 40
0.0
176
     1
 90
        0
176
     1
290
     0
176
     1
290
     1
176
     1
290
     1
176
     1
290
     0
176
     1
290
     0
176
     1
290
     0
176
     1
290
     0
176
     1
290
     0
176
     1
290
     0
176
     1
 90
       50
176
     1
 40
0.0
176
     1
 40
1.0
176
     1
 90
        0
176
     1
 62
    18
420
        0
176
     1
 90
       50
176
     1
 90
        3
176
     1
 62
     5
420
      255
176
     1
290
     0
176
     1
 90
       50
176
     1
 90
       50
176
     1
 90
       50
176
     1
290
     0
176
     1
 90
       50
176
     1
 62
   256
176
     0
 40
1.0
176
     0
 90
        2
176
     1
  1
strokes_ogs.tif
176
     1
290
     0
176
     1
 40
1.0
176
     1
 40
1.0
176
     1
  0
VISUALSTYLE
  5
34
102
{ACAD_REACTORS
330
2A
102
}
330
2A
100
AcDbVisualStyle
  2
Conceptual
 70
     9
177
     3
291
     0
 70
    58
 90
        3
176
     1
 90
        2
176
     1
 90
        0
176
     1
 90
        0
176
     1
 40
0.6
176
     1
 40
30.0
176
     1
 62
     7
420
 16777215
176
     1
 90
        2
176
     1
 90
        2
176
     1
 62
     7
176
     1
 62
   257
176
     1
 90
        1
176
     1
 90
        1
176
     1
 40
179.0
176
     1
 90
        8
176
     1
 62
     7
176
     1
 40
1.0
176
     1
 90
        1
176
     1
 90
        6
176
     1
 90
        2
176
     1
 62
     7
176
     1
 90
        3
176
     1
 90
        0
176
     1
 90
        0
176
     1
290
     0
176
     1
 90
        1
176
     1
 40
0.0
176
     1
 90
        0
176
     1
290
     0
176
     1
290
     1
176
     1
290
     1
176
     1
290
     0
176
     1
290
     0
176
     1
290
     0
176
     1
290
     0
176
     1
290
     0
176
     1
290
     0
176
     1
 90
       50
176
     1
 40
0.0
176
     1
 40
1.0
176
     1
 90
        0
176
     1
 62
    18
420
        0
176
     1
 90
       50
176
     1
 90
        3
176
     1
 62
     5
420
      255
176
     1
290
     0
176
     1
 90
       50
176
     1
 90
       50
176
     1
 90
       50
176
     1
290
     0
176
     1
 90
       50
176
     1
 62
   256
176
     0
 40
1.0
176
     0
 90
        2
176
     1
  1
strokes_ogs.tif
176
     1
290
     0
176
     1
 40
1.0
176
     1
 40
1.0
176
     1
  0
VISUALSTYLE
  5
35
102
{ACAD_REACTORS
330
2A
102
}
330
2A
100
AcDbVisualStyle
  2
Dim
 70
    11
177
     3
291
     1
 70
    58
 90
        2
176
     1
 90
        2
176
     1
 90
        0
176
     1
 90
        0
176
     1
 40
0.6
176
     1
 40
30.0
176
     1
 62
     7
420
 16777215
176
     1
 90
        1
176
     1
 90
        4
176
     1
 62
     7
176
     1
 62
   257
176
     1
 90
        1
176
     1
 90
        1
176
     1
 40
1.0
176
     1
 90
        8
176
     1
 62
     7
176
     1
 40
1.0
176
     1
 90
        1
176
     1
 90
        6
176
     1
 90
        2
176
     1
 62
     7
176
     1
 90
        5
176
     1
 90
        0
176
     1
 90
        0
176
     1
290
     0
176
     1
 90
        1
176
     1
 40
-50.0
176
     1
 90
        0
176
     1
290
     0
176
     1
290
     1
176
     1
290
     1
176
     1
290
     0
176
     1
290
     0
176
     1
290
     0
176
     1
290
     0
176
     1
290
     0
176
     1
290
     0
176
     1
 90
       50
176
     1
 40
0.0
176
     1
 40
1.0
176
     1
 90
        0
176
     1
 62
    18
420
        0
176
     1
 90
       50
176
     1
 90
        3
176
     1
 62
     5
420
      255
176
     1
290
     0
176
     1
 90
       50
176
     1
 90
       50
176
     1
 90
       50
176
     1
290
     0
176
     1
 90
       50
176
     1
 62
   256
176
     0
 40
1.0
176
     0
 90
        2
176
     1
  1
strokes_ogs.tif
176
     1
290
     0
176
     1
 40
1.0
176
     1
 40
1.0
176
     1
  0
VISUALSTYLE
  5
3D
102
{ACAD_REACTORS
330
2A
102
}
330
2A
100
AcDbVisualStyle
  2
EdgeColorOff
 70
    22
177
     3
291
     1
 70
    58
 90
        2
176
     0
 90
        2
176
     0
 90
        0
176
     0
 90
        0
176
     0
 40
0.6
176
     0
 40
30.0
176
     0
 62
     7
420
 16777215
176
     0
 90
        1
176
     0
 90
        4
176
     0
 62
     7
176
     0
 62
   257
176
     0
 90
        1
176
     0
 90
        1
176
     0
 40
1.0
176
     0
 90
        8
176
     2
 62
     7
176
     0
 40
1.0
176
     0
 90
        1
176
     0
 90
        6
176
     0
 90
        2
176
     0
 62
     7
176
     0
 90
        5
176
     0
 90
        0
176
     0
 90
        0
176
     0
290
     0
176
     0
 90
        1
176
     0
 40
0.0
176
     0
 90
        0
176
     0
290
     0
176
     0
290
     1
176
     0
290
     1
176
     0
290
     0
176
     0
290
     0
176
     0
290
     0
176
     0
290
     0
176
     0
290
     0
176
     0
290
     0
176
     0
 90
       50
176
     0
 40
0.0
176
     0
 40
1.0
176
     0
 90
        0
176
     0
 62
    18
420
        0
176
     0
 90
       50
176
     0
 90
        3
176
     0
 62
     5
420
      255
176
     0
290
     0
176
     0
 90
       50
176
     0
 90
       50
176
     0
 90
       50
176
     0
290
     0
176
     0
 90
       50
176
     0
 62
   256
176
     0
 40
1.0
176
     0
 90
        2
176
     0
  1
strokes_ogs.tif
176
     0
290
     0
176
     0
 40
1.0
176
     0
 40
1.0
176
     0
  0
VISUALSTYLE
  5
39
102
{ACAD_REACTORS
330
2A
102
}
330
2A
100
AcDbVisualStyle
  2
Facepattern
 70
    15
177
     3
291
     1
 70
    58
 90
        2
176
     1
 90
        2
176
     1
 90
        0
176
     1
 90
        0
176
     1
 40
0.6
176
     1
 40
30.0
176
     1
 62
     7
420
 16777215
176
     1
 90
        1
176
     1
 90
        4
176
     1
 62
     7
176
     1
 62
   257
176
     1
 90
        1
176
     1
 90
        1
176
     1
 40
1.0
176
     1
 90
        8
176
     1
 62
     7
176
     1
 40
1.0
176
     1
 90
        1
176
     1
 90
        6
176
     1
 90
        2
176
     1
 62
     7
176
     1
 90
        5
176
     1
 90
        0
176
     1
 90
        0
176
     1
290
     0
176
     1
 90
        1
176
     1
 40
0.0
176
     1
 90
        0
176
     1
290
     0
176
     1
290
     1
176
     1
290
     1
176
     1
290
     0
176
     1
290
     0
176
     1
290
     0
176
     1
290
     0
176
     1
290
     0
176
     1
290
     0
176
     1
 90
       50
176
     1
 40
0.0
176
     1
 40
1.0
176
     1
 90
        0
176
     1
 62
    18
420
        0
176
     1
 90
       50
176
     1
 90
        3
176
     1
 62
     5
420
      255
176
     1
290
     0
176
     1
 90
       50
176
     1
 90
       50
176
     1
 90
       50
176
     1
290
     0
176
     1
 90
       50
176
     1
 62
   256
176
     0
 40
1.0
176
     0
 90
        2
176
     1
  1
strokes_ogs.tif
176
     1
290
     0
176
     1
 40
1.0
176
     1
 40
1.0
176
     1
  0
VISUALSTYLE
  5
2B
102
{ACAD_REACTORS
330
2A
102
}
330
2A
100
AcDbVisualStyle
  2
Flat
 70
     0
177
     3
291
     1
 70
    58
 90
        2
176
     1
 90
        1
176
     1
 90
        1
176
     1
 90
        2
176
     1
 40
0.6
176
     1
 40
30.0
176
     1
 62
     7
420
 16777215
176
     1
 90
        0
176
     1
 90
        0
176
     1
 62
     7
176
     1
 62
   257
176
     1
 90
        1
176
     1
 90
        1
176
     1
 40
1.0
176
     1
 90
        8
176
     1
 62
     7
176
     1
 40
1.0
176
     1
 90
        1
176
     1
 90
        6
176
     1
 90
        2
176
     1
 62
     7
176
     1
 90
        5
176
     1
 90
        0
176
     1
 90
        0
176
     1
290
     0
176
     1
 90
       13
176
     1
 40
0.0
176
     1
 90
        0
176
     1
290
     0
176
     1
290
     1
176
     1
290
     1
176
     1
290
     0
176
     1
290
     0
176
     1
290
     0
176
     1
290
     0
176
     1
290
     0
176
     1
290
     0
176
     1
 90
       50
176
     1
 40
0.0
176
     1
 40
1.0
176
     1
 90
        0
176
     1
 62
    18
420
        0
176
     1
 90
       50
176
     1
 90
        3
176
     1
 62
     5
420
      255
176
     1
290
     0
176
     1
 90
       50
176
     1
 90
       50
176
     1
 90
       50
176
     1
290
     0
176
     1
 90
       50
176
     1
 62
   256
176
     0
 40
1.0
176
     0
 90
        2
176
     1
  1
strokes_ogs.tif
176
     1
290
     0
176
     1
 40
1.0
176
     1
 40
1.0
176
     1
  0
VISUALSTYLE
  5
2C
102
{ACAD_REACTORS
330
2A
102
}
330
2A
100
AcDbVisualStyle
  2
FlatWithEdges
 70
     1
177
     3
291
     1
 70
    58
 90
        2
176
     1
 90
        1
176
     1
 90
        1
176
     1
 90
        2
176
     1
 40
0.6
176
     1
 40
30.0
176
     1
 62
     7
420
 16777215
176
     1
 90
        1
176
     1
 90
        0
176
     1
 62
     7
176
     1
 62
   257
176
     1
 90
        1
176
     1
 90
        1
176
     1
 40
1.0
176
     1
 90
        0
176
     1
 62
   257
176
     1
 40
1.0
176
     1
 90
        1
176
     1
 90
        6
176
     1
 90
        2
176
     1
 62
     7
176
     1
 90
        5
176
     1
 90
        0
176
     1
 90
        0
176
     1
290
     0
176
     1
 90
       13
176
     1
 40
0.0
176
     1
 90
        0
176
     1
290
     0
176
     1
290
     1
176
     1
290
     1
176
     1
290
     0
176
     1
290
     0
176
     1
290
     0
176
     1
290
     0
176
     1
290
     0
176
     1
290
     0
176
     1
 90
       50
176
     1
 40
0.0
176
     1
 40
1.0
176
     1
 90
        0
176
     1
 62
    18
420
        0
176
     1
 90
       50
176
     1
 90
        3
176
     1
 62
     5
420
      255
176
     1
290
     0
176
     1
 90
       50
176
     1
 90
       50
176
     1
 90
       50
176
     1
290
     0
176
     1
 90
       50
176
     1
 62
   256
176
     0
 40
1.0
176
     0
 90
        2
176
     1
  1
strokes_ogs.tif
176
     1
290
     0
176
     1
 40
1.0
176
     1
 40
1.0
176
     1
  0
VISUALSTYLE
  5
2D
102
{ACAD_REACTORS
330
2A
102
}
330
2A
100
AcDbVisualStyle
  2
Gouraud
 70
     2
177
     3
291
     1
 70
    58
 90
        2
176
     1
 90
        2
176
     1
 90
        1
176
     1
 90
        2
176
     1
 40
0.6
176
     1
 40
30.0
176
     1
 62
     7
420
 16777215
176
     1
 90
        0
176
     1
 90
        0
176
     1
 62
     7
176
     1
 62
   257
176
     1
 90
        1
176
     1
 90
        1
176
     1
 40
1.0
176
     1
 90
        0
176
     1
 62
     7
176
     1
 40
1.0
176
     1
 90
        1
176
     1
 90
        6
176
     1
 90
        2
176
     1
 62
     7
176
     1
 90
        5
176
     1
 90
        0
176
     1
 90
        0
176
     1
290
     0
176
     1
 90
       13
176
     1
 40
0.0
176
     1
 90
        0
176
     1
290
     0
176
     1
290
     1
176
     1
290
     1
176
     1
290
     0
176
     1
290
     0
176
     1
290
     0
176
     1
290
     0
176
     1
290
     0
176
     1
290
     0
176
     1
 90
       50
176
     1
 40
0.0
176
     1
 40
1.0
176
     1
 90
        0
176
     1
 62
    18
420
        0
176
     1
 90
       50
176
     1
 90
        3
176
     1
 62
     5
420
      255
176
     1
290
     0
176
     1
 90
       50
176
     1
 90
       50
176
     1
 90
       50
176
     1
290
     0
176
     1
 90
       50
176
     1
 62
   256
176
     0
 40
1.0
176
     0
 90
        2
176
     1
  1
strokes_ogs.tif
176
     1
290
     0
176
     1
 40
1.0
176
     1
 40
1.0
176
     1
  0
VISUALSTYLE
  5
2E
102
{ACAD_REACTORS
330
2A
102
}
330
2A
100
AcDbVisualStyle
  2
GouraudWithEdges
 70
     3
177
     3
291
     1
 70
    58
 90
        2
176
     1
 90
        2
176
     1
 90
        1
176
     1
 90
        2
176
     1
 40
0.6
176
     1
 40
30.0
176
     1
 62
     7
420
 16777215
176
     1
 90
        1
176
     1
 90
        0
176
     1
 62
     7
176
     1
 62
   257
176
     1
 90
        1
176
     1
 90
        1
176
     1
 40
1.0
176
     1
 90
        0
176
     1
 62
   257
176
     1
 40
1.0
176
     1
 90
        1
176
     1
 90
        6
176
     1
 90
        2
176
     1
 62
     7
176
     1
 90
        5
176
     1
 90
        0
176
     1
 90
        0
176
     1
290
     0
176
     1
 90
       13
176
     1
 40
0.0
176
     1
 90
        0
176
     1
290
     0
176
     1
290
     1
176
     1
290
     1
176
     1
290
     0
176
     1
290
     0
176
     1
290
     0
176
     1
290
     0
176
     1
290
     0
176
     1
290
     0
176
     1
 90
       50
176
     1
 40
0.0
176
     1
 40
1.0
176
     1
 90
        0
176
     1
 62
    18
420
        0
176
     1
 90
       50
176
     1
 90
        3
176
     1
 62
     5
420
      255
176
     1
290
     0
176
     1
 90
       50
176
     1
 90
       50
176
     1
 90
       50
176
     1
290
     0
176
     1
 90
       50
176
     1
 62
   256
176
     0
 40
1.0
176
     0
 90
        2
176
     1
  1
strokes_ogs.tif
176
     1
290
     0
176
     1
 40
1.0
176
     1
 40
1.0
176
     1
  0
VISUALSTYLE
  5
31
102
{ACAD_REACTORS
330
2A
102
}
330
2A
100
AcDbVisualStyle
  2
Hidden
 70
     6
177
     3
291
     0
 70
    58
 90
        1
176
     1
 90
        2
176
     1
 90
        2
176
     1
 90
        0
176
     1
 40
0.6
176
     1
 40
30.0
176
     1
 62
     7
420
 16777215
176
     1
 90
        2
176
     1
 90
        2
176
     1
 62
     7
176
     1
 62
   257
176
     1
 90
        2
176
     1
 90
        1
176
     1
 40
40.0
176
     1
 90
        0
176
     1
 62
   257
176
     1
 40
1.0
176
     1
 90
        1
176
     1
 90
        6
176
     1
 90
        2
176
     1
 62
     7
176
     1
 90
        3
176
     1
 90
        0
176
     1
 90
        0
176
     1
290
     0
176
     1
 90
        1
176
     1
 40
0.0
176
     1
 90
        0
176
     1
290
     0
176
     1
290
     1
176
     1
290
     1
176
     1
290
     0
176
     1
290
     0
176
     1
290
     0
176
     1
290
     0
176
     1
290
     0
176
     1
290
     0
176
     1
 90
       50
176
     1
 40
0.0
176
     1
 40
1.0
176
     1
 90
        0
176
     1
 62
    18
420
        0
176
     1
 90
       50
176
     1
 90
        3
176
     1
 62
     5
420
      255
176
     1
290
     0
176
     1
 90
       50
176
     1
 90
       50
176
     1
 90
       50
176
     1
290
     0
176
     1
 90
       50
176
     1
 62
   256
176
     0
 40
1.0
176
     0
 90
        2
176
     1
  1
strokes_ogs.tif
176
     1
290
     0
176
     1
 40
1.0
176
     1
 40
1.0
176
     1
  0
VISUALSTYLE
  5
3B
102
{ACAD_REACTORS
330
2A
102
}
330
2A
100
AcDbVisualStyle
  2
JitterOff
 70
    20
177
     3
291
     1
 70
    58
 90
        2
176
     0
 90
        2
176
     0
 90
        0
176
     0
 90
        0
176
     0
 40
0.6
176
     0
 40
30.0
176
     0
 62
     7
420
 16777215
176
     0
 90
        1
176
     0
 90
        4
176
     0
 62
     7
176
     0
 62
   257
176
     0
 90
        1
176
     0
 90
        1
176
     0
 40
1.0
176
     0
 90
       10
176
     2
 62
     7
176
     0
 40
1.0
176
     0
 90
        1
176
     0
 90
        6
176
     0
 90
        2
176
     0
 62
     7
176
     0
 90
        5
176
     0
 90
        0
176
     0
 90
        0
176
     0
290
     0
176
     0
 90
        1
176
     0
 40
0.0
176
     0
 90
        0
176
     0
290
     0
176
     0
290
     1
176
     0
290
     1
176
     0
290
     0
176
     0
290
     0
176
     0
290
     0
176
     0
290
     0
176
     0
290
     0
176
     0
290
     0
176
     0
 90
       50
176
     0
 40
0.0
176
     0
 40
1.0
176
     0
 90
        0
176
     0
 62
    18
420
        0
176
     0
 90
       50
176
     0
 90
        3
176
     0
 62
     5
420
      255
176
     0
290
     0
176
     0
 90
       50
176
     0
 90
       50
176
     0
 90
       50
176
     0
290
     0
176
     0
 90
       50
176
     0
 62
   256
176
     0
 40
1.0
176
     0
 90
        2
176
     0
  1
strokes_ogs.tif
176
     0
290
     0
176
     0
 40
1.0
176
     0
 40
1.0
176
     0
  0
VISUALSTYLE
  5
38
102
{ACAD_REACTORS
330
2A
102
}
330
2A
100
AcDbVisualStyle
  2
Linepattern
 70
    14
177
     3
291
     1
 70
    58
 90
        2
176
     1
 90
        2
176
     1
 90
        0
176
     1
 90
        0
176
     1
 40
0.6
176
     1
 40
30.0
176
     1
 62
     7
420
 16777215
176
     1
 90
        1
176
     1
 90
        4
176
     1
 62
     7
176
     1
 62
   257
176
     1
 90
        7
176
     1
 90
        7
176
     1
 40
1.0
176
     1
 90
        8
176
     1
 62
     7
176
     1
 40
1.0
176
     1
 90
        1
176
     1
 90
        6
176
     1
 90
        2
176
     1
 62
     7
176
     1
 90
        5
176
     1
 90
        0
176
     1
 90
        0
176
     1
290
     0
176
     1
 90
        1
176
     1
 40
0.0
176
     1
 90
        0
176
     1
290
     0
176
     1
290
     1
176
     1
290
     1
176
     1
290
     0
176
     1
290
     0
176
     1
290
     0
176
     1
290
     0
176
     1
290
     0
176
     1
290
     0
176
     1
 90
       50
176
     1
 40
0.0
176
     1
 40
1.0
176
     1
 90
        0
176
     1
 62
    18
420
        0
176
     1
 90
       50
176
     1
 90
        3
176
     1
 62
     5
420
      255
176
     1
290
     0
176
     1
 90
       50
176
     1
 90
       50
176
     1
 90
       50
176
     1
290
     0
176
     1
 90
       50
176
     1
 62
   256
176
     0
 40
1.0
176
     0
 90
        2
176
     1
  1
strokes_ogs.tif
176
     1
290
     0
176
     1
 40
1.0
176
     1
 40
1.0
176
     1
  0
VISUALSTYLE
  5
3C
102
{ACAD_REACTORS
330
2A
102
}
330
2A
100
AcDbVisualStyle
  2
OverhangOff
 70
    21
177
     3
291
     1
 70
    58
 90
        2
176
     0
 90
        2
176
     0
 90
        0
176
     0
 90
        0
176
     0
 40
0.6
176
     0
 40
30.0
176
     0
 62
     7
420
 16777215
176
     0
 90
        1
176
     0
 90
        4
176
     0
 62
     7
176
     0
 62
   257
176
     0
 90
        1
176
     0
 90
        1
176
     0
 40
1.0
176
     0
 90
        9
176
     2
 62
     7
176
     0
 40
1.0
176
     0
 90
        1
176
     0
 90
        6
176
     0
 90
        2
176
     0
 62
     7
176
     0
 90
        5
176
     0
 90
        0
176
     0
 90
        0
176
     0
290
     0
176
     0
 90
        1
176
     0
 40
0.0
176
     0
 90
        0
176
     0
290
     0
176
     0
290
     1
176
     0
290
     1
176
     0
290
     0
176
     0
290
     0
176
     0
290
     0
176
     0
290
     0
176
     0
290
     0
176
     0
290
     0
176
     0
 90
       50
176
     0
 40
0.0
176
     0
 40
1.0
176
     0
 90
        0
176
     0
 62
    18
420
        0
176
     0
 90
       50
176
     0
 90
        3
176
     0
 62
     5
420
      255
176
     0
290
     0
176
     0
 90
       50
176
     0
 90
       50
176
     0
 90
       50
176
     0
290
     0
176
     0
 90
       50
176
     0
 62
   256
176
     0
 40
1.0
176
     0
 90
        2
176
     0
  1
strokes_ogs.tif
176
     0
290
     0
176
     0
 40
1.0
176
     0
 40
1.0
176
     0
  0
VISUALSTYLE
  5
33
102
{ACAD_REACTORS
330
2A
102
}
330
2A
100
AcDbVisualStyle
  2
Realistic
 70
     8
177
     3
291
     0
 70
    58
 90
        2
176
     1
 90
        3
176
     1
 90
        0
176
     1
 90
        2
176
     1
 40
0.6
176
     1
 40
30.0
176
     1
 62
     7
420
 16777215
176
     1
 90
        0
176
     1
 90
        0
176
     1
 62
     7
176
     1
 62
   257
176
     1
 90
        1
176
     1
 90
        1
176
     1
 40
1.0
176
     1
 90
        8
176
     1
 62
   257
176
     1
 40
1.0
176
     1
 90
        1
176
     1
 90
        6
176
     1
 90
        2
176
     1
 62
     7
176
     1
 90
        3
176
     1
 90
        0
176
     1
 90
        0
176
     1
290
     0
176
     1
 90
       13
176
     1
 40
0.0
176
     1
 90
        0
176
     1
290
     0
176
     1
290
     1
176
     1
290
     1
176
     1
290
     0
176
     1
290
     0
176
     1
290
     0
176
     1
290
     0
176
     1
290
     0
176
     1
290
     0
176
     1
 90
       50
176
     1
 40
0.0
176
     1
 40
1.0
176
     1
 90
        0
176
     1
 62
    18
420
        0
176
     1
 90
       50
176
     1
 90
        3
176
     1
 62
     5
420
      255
176
     1
290
     0
176
     1
 90
       50
176
     1
 90
       50
176
     1
 90
       50
176
     1
290
     0
176
     1
 90
       50
176
     1
 62
   256
176
     0
 40
1.0
176
     0
 90
        2
176
     1
  1
strokes_ogs.tif
176
     1
290
     0
176
     1
 40
1.0
176
     1
 40
1.0
176
     1
  0
VISUALSTYLE
  5
42
102
{ACAD_REACTORS
330
2A
102
}
330
2A
100
AcDbVisualStyle
  2
Shaded
 70
    27
177
     3
291
     0
 70
    58
 90
        2
176
     1
 90
        2
176
     1
 90
        1
176
     1
 90
        2
176
     1
 40
0.6
176
     1
 40
30.0
176
     1
 62
     7
420
 16777215
176
     1
 90
        0
176
     1
 90
        4
176
     1
 62
     7
176
     1
 62
   257
176
     1
 90
        1
176
     1
 90
        1
176
     1
 40
1.0
176
     1
 90
        8
176
     1
 62
   257
176
     1
 40
1.0
176
     1
 90
        1
176
     1
 90
        6
176
     1
 90
        2
176
     1
 62
     8
420
  7895160
176
     1
 90
        3
176
     1
 90
        0
176
     1
 90
        0
176
     1
290
     0
176
     1
 90
        5
176
     1
 40
0.0
176
     1
 90
        0
176
     1
290
     0
176
     1
290
     1
176
     1
290
     1
176
     1
290
     0
176
     1
290
     0
176
     1
290
     0
176
     1
290
     0
176
     1
290
     0
176
     1
290
     0
176
     1
 90
       50
176
     1
 40
0.0
176
     1
 40
1.0
176
     1
 90
        0
176
     1
 62
    18
420
        0
176
     1
 90
       50
176
     1
 90
        3
176
     1
 62
     5
420
      255
176
     1
290
     0
176
     1
 90
       50
176
     1
 90
       50
176
     1
 90
       50
176
     1
290
     0
176
     1
 90
       50
176
     1
 62
   256
176
     0
 40
1.0
176
     0
 90
        2
176
     1
  1
strokes_ogs.tif
176
     1
290
     0
176
     1
 40
1.0
176
     1
 40
1.0
176
     1
  0
VISUALSTYLE
  5
41
102
{ACAD_REACTORS
330
2A
102
}
330
2A
100
AcDbVisualStyle
  2
Shaded with edges
 70
    26
177
     3
291
     0
 70
    58
 90
        2
176
     1
 90
        2
176
     1
 90
        1
176
     1
 90
        2
176
     1
 40
0.6
176
     1
 40
30.0
176
     1
 62
     7
420
 16777215
176
     1
 90
        1
176
     1
 90
       10
176
     1
 62
     7
176
     1
 62
   257
176
     1
 90
        2
176
     1
 90
        1
176
     1
 40
1.0
176
     1
 90
        8
176
     1
 62
   257
176
     1
 40
1.0
176
     1
 90
        1
176
     1
 90
        6
176
     1
 90
        2
176
     1
 62
     7
176
     1
 90
        3
176
     1
 90
        0
176
     1
 90
        0
176
     1
290
     0
176
     1
 90
        5
176
     1
 40
0.0
176
     1
 90
        0
176
     1
290
     0
176
     1
290
     1
176
     1
290
     1
176
     1
290
     0
176
     1
290
     0
176
     1
290
     0
176
     1
290
     0
176
     1
290
     0
176
     1
290
     0
176
     1
 90
       50
176
     1
 40
0.0
176
     1
 40
1.0
176
     1
 90
        0
176
     1
 62
    18
420
        0
176
     1
 90
       50
176
     1
 90
        3
176
     1
 62
     5
420
      255
176
     1
290
     0
176
     1
 90
       50
176
     1
 90
       50
176
     1
 90
       50
176
     1
290
     0
176
     1
 90
       50
176
     1
 62
   256
176
     0
 40
1.0
176
     0
 90
        2
176
     1
  1
strokes_ogs.tif
176
     1
290
     0
176
     1
 40
1.0
176
     1
 40
1.0
176
     1
  0
VISUALSTYLE
  5
3E
102
{ACAD_REACTORS
330
2A
102
}
330
2A
100
AcDbVisualStyle
  2
Shades of Gray
 70
    23
177
     3
291
     0
 70
    58
 90
        2
176
     1
 90
        2
176
     1
 90
        3
176
     1
 90
        0
176
     1
 40
0.6
176
     1
 40
30.0
176
     1
 62
     7
420
 16777215
176
     1
 90
        2
176
     1
 90
        2
176
     1
 62
     7
176
     1
 62
     7
176
     1
 90
        1
176
     1
 90
        1
176
     1
 40
40.0
176
     1
 90
        8
176
     1
 62
     7
176
     1
 40
1.0
176
     1
 90
        1
176
     1
 90
        6
176
     1
 90
        2
176
     1
 62
     7
176
     1
 90
        3
176
     1
 90
        0
176
     1
 90
        0
176
     1
290
     0
176
     1
 90
        1
176
     1
 40
0.0
176
     1
 90
        0
176
     1
290
     0
176
     1
290
     1
176
     1
290
     1
176
     1
290
     0
176
     1
290
     0
176
     1
290
     0
176
     1
290
     0
176
     1
290
     0
176
     1
290
     0
176
     1
 90
       50
176
     1
 40
0.0
176
     1
 40
1.0
176
     1
 90
        0
176
     1
 62
    18
420
        0
176
     1
 90
       50
176
     1
 90
        3
176
     1
 62
     5
420
      255
176
     1
290
     0
176
     1
 90
       50
176
     1
 90
       50
176
     1
 90
       50
176
     1
290
     0
176
     1
 90
       50
176
     1
 62
   256
176
     0
 40
1.0
176
     0
 90
        2
176
     1
  1
strokes_ogs.tif
176
     1
290
     0
176
     1
 40
1.0
176
     1
 40
1.0
176
     1
  0
VISUALSTYLE
  5
3F
102
{ACAD_REACTORS
330
2A
102
}
330
2A
100
AcDbVisualStyle
  2
Sketchy
 70
    24
177
     3
291
     0
 70
    58
 90
        1
176
     1
 90
        2
176
     1
 90
        2
176
     1
 90
        0
176
     1
 40
0.6
176
     1
 40
30.0
176
     1
 62
     7
420
 16777215
176
     1
 90
        2
176
     1
 90
        2
176
     1
 62
     7
176
     1
 62
     7
176
     1
 90
        1
176
     1
 90
        1
176
     1
 40
40.0
176
     1
 90
       11
176
     1
 62
     7
176
     1
 40
1.0
176
     1
 90
        1
176
     1
 90
        6
176
     1
 90
        2
176
     1
 62
     7
176
     1
 90
        6
176
     1
 90
        0
176
     1
 90
        0
176
     1
290
     0
176
     1
 90
        1
176
     1
 40
0.0
176
     1
 90
        0
176
     1
290
     0
176
     1
290
     1
176
     1
290
     1
176
     1
290
     0
176
     1
290
     0
176
     1
290
     0
176
     1
290
     0
176
     1
290
     0
176
     1
290
     0
176
     1
 90
       50
176
     1
 40
0.0
176
     1
 40
1.0
176
     1
 90
        0
176
     1
 62
    18
420
        0
176
     1
 90
       50
176
     1
 90
        3
176
     1
 62
     5
420
      255
176
     1
290
     0
176
     1
 90
       50
176
     1
 90
       50
176
     1
 90
       50
176
     1
290
     0
176
     1
 90
       50
176
     1
 62
   256
176
     0
 40
1.0
176
     0
 90
        2
176
     1
  1
strokes_ogs.tif
176
     1
290
     0
176
     1
 40
1.0
176
     1
 40
1.0
176
     1
  0
VISUALSTYLE
  5
37
102
{ACAD_REACTORS
330
2A
102
}
330
2A
100
AcDbVisualStyle
  2
Thicken
 70
    13
177
     3
291
     1
 70
    58
 90
        2
176
     1
 90
        2
176
     1
 90
        0
176
     1
 90
        0
176
     1
 40
0.6
176
     1
 40
30.0
176
     1
 62
     7
420
 16777215
176
     1
 90
        1
176
     1
 90
        4
176
     1
 62
     7
176
     1
 62
   257
176
     1
 90
        1
176
     1
 90
        1
176
     1
 40
1.0
176
     1
 90
       12
176
     1
 62
     7
176
     1
 40
1.0
176
     1
 90
        1
176
     1
 90
        6
176
     1
 90
        2
176
     1
 62
     7
176
     1
 90
        5
176
     1
 90
        0
176
     1
 90
        0
176
     1
290
     0
176
     1
 90
        1
176
     1
 40
0.0
176
     1
 90
        0
176
     1
290
     0
176
     1
290
     1
176
     1
290
     1
176
     1
290
     0
176
     1
290
     0
176
     1
290
     0
176
     1
290
     0
176
     1
290
     0
176
     1
290
     0
176
     1
 90
       50
176
     1
 40
0.0
176
     1
 40
1.0
176
     1
 90
        0
176
     1
 62
    18
420
        0
176
     1
 90
       50
176
     1
 90
        3
176
     1
 62
     5
420
      255
176
     1
290
     0
176
     1
 90
       50
176
     1
 90
       50
176
     1
 90
       50
176
     1
290
     0
176
     1
 90
       50
176
     1
 62
   256
176
     0
 40
1.0
176
     0
 90
        2
176
     1
  1
strokes_ogs.tif
176
     1
290
     0
176
     1
 40
1.0
176
     1
 40
1.0
176
     1
  0
VISUALSTYLE
  5
30
102
{ACAD_REACTORS
330
2A
102
}
330
2A
100
AcDbVisualStyle
  2
Wireframe
 70
     5
177
     3
291
     0
 70
    58
 90
        0
176
     1
 90
        2
176
     1
 90
        0
176
     1
 90
        0
176
     1
 40
0.6
176
     1
 40
30.0
176
     1
 62
     7
420
 16777215
176
     1
 90
        1
176
     1
 90
        4
176
     1
 62
     7
176
     1
 62
   257
176
     1
 90
        1
176
     1
 90
        1
176
     1
 40
1.0
176
     1
 90
        0
176
     1
 62
   257
176
     1
 40
1.0
176
     1
 90
        1
176
     1
 90
        6
176
     1
 90
        2
176
     1
 62
     7
176
     1
 90
        3
176
     1
 90
        0
176
     1
 90
        0
176
     1
290
     0
176
     1
 90
        1
176
     1
 40
0.0
176
     1
 90
        0
176
     1
290
     0
176
     1
290
     1
176
     1
290
     1
176
     1
290
     0
176
     1
290
     0
176
     1
290
     0
176
     1
290
     0
176
     1
290
     0
176
     1
290
     0
176
     1
 90
       50
176
     1
 40
0.0
176
     1
 40
1.0
176
     1
 90
        0
176
     1
 62
    18
420
        0
176
     1
 90
       50
176
     1
 90
        3
176
     1
 62
     5
420
      255
176
     1
290
     0
176
     1
 90
       50
176
     1
 90
       50
176
     1
 90
       50
176
     1
290
     0
176
     1
 90
       50
176
     1
 62
   256
176
     0
 40
1.0
176
     0
 90
        2
176
     1
  1
strokes_ogs.tif
176
     1
290
     0
176
     1
 40
1.0
176
     1
 40
1.0
176
     1
  0
VISUALSTYLE
  5
40
102
{ACAD_REACTORS
330
2A
102
}
330
2A
100
AcDbVisualStyle
  2
X-Ray
 70
    25
177
     3
291
     0
 70
    58
 90
        2
176
     1
 90
        2
176
     1
 90
        1
176
     1
 90
        1
176
     1
 40
0.5
176
     1
 40
30.0
176
     1
 62
     7
420
 16777215
176
     1
 90
        1
176
     1
 90
        0
176
     1
 62
     7
176
     1
 62
   257
176
     1
 90
        1
176
     1
 90
        1
176
     1
 40
1.0
176
     1
 90
        8
176
     1
 62
     7
176
     1
 40
1.0
176
     1
 90
        1
176
     1
 90
        6
176
     1
 90
        2
176
     1
 62
     7
176
     1
 90
        3
176
     1
 90
        0
176
     1
 90
        0
176
     1
290
     0
176
     1
 90
       13
176
     1
 40
0.0
176
     1
 90
        0
176
     1
290
     0
176
     1
290
     1
176
     1
290
     1
176
     1
290
     0
176
     1
290
     0
176
     1
290
     0
176
     1
290
     0
176
     1
290
     0
176
     1
290
     0
176
     1
 90
       50
176
     1
 40
0.0
176
     1
 40
1.0
176
     1
 90
        0
176
     1
 62
    18
420
        0
176
     1
 90
       50
176
     1
 90
        3
176
     1
 62
     5
420
      255
176
     1
290
     0
176
     1
 90
       50
176
     1
 90
       50
176
     1
 90
       50
176
     1
290
     0
176
     1
 90
       50
176
     1
 62
   256
176
     0
 40
1.0
176
     0
 90
        2
176
     1
  1
strokes_ogs.tif
176
     1
290
     0
176
     1
 40
1.0
176
     1
 40
1.0
176
     1
  0
DICTIONARYVAR
  5
9AC37
102
{ACAD_REACTORS
330
9AC36
102
}
330
9AC36
100
DictionaryVariables
280
     0
  1
1:1
  0
DICTIONARYVAR
  5
9B00B
102
{ACAD_REACTORS
330
9AC36
102
}
330
9AC36
100
DictionaryVariables
280
     0
  1
STANDARD
  0
DICTIONARYVAR
  5
9B00A
102
{ACAD_REACTORS
330
9AC36
102
}
330
9AC36
100
DictionaryVariables
280
     0
  1
STANDARD
  0
DICTIONARYVAR
  5
9B00C
102
{ACAD_REACTORS
330
9AC36
102
}
330
9AC36
100
DictionaryVariables
280
     0
  1
Imperial24
  0
DICTIONARYVAR
  5
9B00D
102
{ACAD_REACTORS
330
9AC36
102
}
330
9AC36
100
DictionaryVariables
280
     0
  1
Imperial24
  0
DICTIONARYVAR
  5
9B00F
102
{ACAD_REACTORS
330
9AC36
102
}
330
9AC36
100
DictionaryVariables
280
     0
  1
1
  0
DICTIONARYVAR
  5
9B010
102
{ACAD_REACTORS
330
9AC36
102
}
330
9AC36
100
DictionaryVariables
280
     0
  1
15
  0
DICTIONARYVAR
  5
9B00E
102
{ACAD_REACTORS
330
9AC36
102
}
330
9AC36
100
DictionaryVariables
280
     0
  1
0
  0
DICTIONARYVAR
  5
9AC38
102
{ACAD_REACTORS
330
9AC36
102
}
330
9AC36
100
DictionaryVariables
280
     0
  1
1
  0
DICTIONARY
  5
9B007
330
9AC78
100
AcDbDictionary
280
     1
281
     1
  3
ACAD_XREC_ROUNDTRIP
360
9B56B
  0
DICTIONARY
  5
9B005
330
9AC77
100
AcDbDictionary
280
     1
281
     1
  3
ACAD_XREC_ROUNDTRIP
360
9B56A
  0
DICTIONARY
  5
9B568
330
9AC75
100
AcDbDictionary
280
     1
281
     1
  3
ACAD_ROUNDTRIP_2008_TABLESTYLE_CELLSTYLEMAP
360
9B569
  0
XRECORD
  5
9B56B
102
{ACAD_REACTORS
330
9B007
102
}
330
9B007
100
AcDbXrecord
280
     1
102
DISPLAYNAME
  1
Imperial24
102
FLAGS
 90
        0
  0
XRECORD
  5
9B56A
102
{ACAD_REACTORS
330
9B005
102
}
330
9B005
100
AcDbXrecord
280
     1
102
DISPLAYNAME
  1
Imperial24
102
FLAGS
 90
        0
  0
CELLSTYLEMAP
  5
9B569
102
{ACAD_REACTORS
330
9B568
102
}
330
9B568
100
AcDbCellStyleMap
 90
        3
300
CELLSTYLE
  1
TABLEFORMAT_BEGIN
 90
        5
170
     1
 91
        0
 92
    32768
 62
   257
 93
        1
300
CONTENTFORMAT
  1
CONTENTFORMAT_BEGIN
 90
        0
 91
        0
 92
      512
 93
        0
300

 40
0.0
140
1.0
 94
        5
 62
     0
340
11
144
0.25
309
CONTENTFORMAT_END
171
     0
 94
        0
309
TABLEFORMAT_END
  1
CELLSTYLE_BEGIN
 90
        1
 91
        1
300
_TITLE
309
CELLSTYLE_END
300
CELLSTYLE
  1
TABLEFORMAT_BEGIN
 90
        5
170
     1
 91
        0
 92
        0
 62
   257
 93
        1
300
CONTENTFORMAT
  1
CONTENTFORMAT_BEGIN
 90
        0
 91
        0
 92
      512
 93
        0
300

 40
0.0
140
1.0
 94
        5
 62
     0
340
11
144
0.18
309
CONTENTFORMAT_END
171
     0
 94
        0
309
TABLEFORMAT_END
  1
CELLSTYLE_BEGIN
 90
        2
 91
        1
300
_HEADER
309
CELLSTYLE_END
300
CELLSTYLE
  1
TABLEFORMAT_BEGIN
 90
        5
170
     1
 91
        0
 92
        0
 62
   257
 93
        1
300
CONTENTFORMAT
  1
CONTENTFORMAT_BEGIN
 90
        0
 91
        0
 92
      512
 93
        0
300

 40
0.0
140
1.0
 94
        2
 62
     0
340
11
144
0.18
309
CONTENTFORMAT_END
171
     0
 94
        0
309
TABLEFORMAT_END
  1
CELLSTYLE_BEGIN
 90
        3
 91
        2
300
_DATA
309
CELLSTYLE_END
  0
ENDSEC
  0
SECTION
  2
ACDSDATA
 70
     2
 71
     8
  0
ACDSSCHEMA
 90
        0
  1
AcDb_Thumbnail_Schema
  2
AcDbDs::ID
280
    10
 91
        8
  2
Thumbnail_Data
280
    15
 91
        0
101
ACDSRECORD
 95
        0
 90
        1
  2
AcDbDs::TreatedAsObjectData
280
     1
291
     1
101
ACDSRECORD
 95
        0
 90
        2
  2
AcDbDs::Legacy
280
     1
291
     1
101
ACDSRECORD
  1
AcDbDs::ID
 90
        3
  2
AcDs:Indexable
280
     1
291
     1
101
ACDSRECORD
  1
AcDbDs::ID
 90
        4
  2
AcDbDs::HandleAttribute
280
     7
282
     1
  0
ACDSSCHEMA
 90
        1
  1
AcDbDs::TreatedAsObjectDataSchema
  2
AcDbDs::TreatedAsObjectData
280
     1
 91
        0
  0
ACDSSCHEMA
 90
        2
  1
AcDbDs::LegacySchema
  2
AcDbDs::Legacy
280
     1
 91
        0
  0
ACDSSCHEMA
 90
        3
  1
AcDbDs::IndexedPropertySchema
  2
AcDs:Indexable
280
     1
 91
        0
  0
ACDSSCHEMA
 90
        4
  1
AcDbDs::HandleAttributeSchema
  2
AcDbDs::HandleAttribute
280
     7
 91
        1
284
     1
  0
ACDSRECORD
 90
        0
  2
AcDbDs::ID
280
    10
320
22
  2
Thumbnail_Data
280
    15
 94
     1459
310
89504E470D0A1A0A0000000D4948445200000100000000670803000000D82A6C0200000300504C5445000000000000C8C8C80000000000000000000000000000000000000000000000000000330000660000990000CC0000FF0033000033330033660033990033CC0033FF0066000066330066660066990066CC0066FF0099
310
000099330099660099990099CC0099FF00CC0000CC3300CC6600CC9900CCCC00CCFF00FF0000FF3300FF6600FF9900FFCC00FFFF3300003300333300663300993300CC3300FF3333003333333333663333993333CC3333FF3366003366333366663366993366CC3366FF3399003399333399663399993399CC3399FF33CC00
310
33CC3333CC6633CC9933CCCC33CCFF33FF0033FF3333FF6633FF9933FFCC33FFFF6600006600336600666600996600CC6600FF6633006633336633666633996633CC6633FF6666006666336666666666996666CC6666FF6699006699336699666699996699CC6699FF66CC0066CC3366CC6666CC9966CCCC66CCFF66FF0066
310
FF3366FF6666FF9966FFCC66FFFF9900009900339900669900999900CC9900FF9933009933339933669933999933CC9933FF9966009966339966669966999966CC9966FF9999009999339999669999999999CC9999FF99CC0099CC3399CC6699CC9999CCCC99CCFF99FF0099FF3399FF6699FF9999FFCC99FFFFCC0000CC00
310
33CC0066CC0099CC00CCCC00FFCC3300CC3333CC3366CC3399CC33CCCC33FFCC6600CC6633CC6666CC6699CC66CCCC66FFCC9900CC9933CC9966CC9999CC99CCCC99FFCCCC00CCCC33CCCC66CCCC99CCCCCCCCCCFFCCFF00CCFF33CCFF66CCFF99CCFFCCCCFFFFFF0000FF0033FF0066FF0099FF00CCFF00FFFF3300FF3333
310
FF3366FF3399FF33CCFF33FFFF6600FF6633FF6666FF6699FF66CCFF66FFFF9900FF9933FF9966FF9999FF99CCFF99FFFFCC00FFCC33FFCC66FFCC99FFCCCCFFCCFFFFFF00FFFF33FFFF66FFFF99FFFFCCFFFFFF0000000D0D0D1A1A1A2828283535354343435050505D5D5D6B6B6B787878868686939393A1A1A1AEAEAEBB
310
BBBBC9C9C9D6D6D6E4E4E4F1F1F1FFFFFF00000000000000000000000000000000000000000000000000000000000008F1915C0000014C4944415478DAED9BC11282300C05FBFFFF9BBB830A36A5D6190ECC98DD3D217AC923A4E9336D4D444444444444E40EE20538FA7C418B7F7E4D8C7FFBC88CBF2B01018C7F4F82B718
310
2C0172C481AB038300DB354A80A00BF00CB8A105885180E02D0331EB0A518D303AFEA4007E3340DD10E64E503F404484B0E65DE893AA54FB73F94F145E1D76FF2BFB01338F203DFE320A4C1A9EA500C7EF8A281093B7602540EF944695E77F98C0BF0548F95F4081E47E1D0AC42A53BACFD50438225A08906F44890A10AB30
310
F337811760B8F3FFEFC0C4FFC50980CF0005601741FC32486F84F65638A8ADF027EBA99BA12BDBE16A7F185C33446A5942572CB15609B8292A22F27571E0963BFA80047D44863E24756AFD78F98F1E943C8FCAF2CE0BA087A51D975780463F32433F34853F3637663CFDE828733B14D1BD076843A089888888888888888888
310
8888C8AD3C00D064D6EC0BA7C6760000000049454E44AE42608230D703F02B42F435C17E03B80A605CDAFE0478FB02750368EF0130AF213C8600746FD0F0BBC37FDFBA0FE7CEE70352A9542A954ACD8E97E0E14311D4565AB8F8E16F8DD1DF1B14FDCD51B90B1F243335FFED718C991ADC3F20B0CAA05888743D448431538B
310
8E7F506C74C03E4269A595565A161080F9E961FD04C3830E384FCDC0531462A65605CB7295B56AF75C345FE1E61C507041A80493F72108D24BCC6000D8BF30F10A9B7EFAE3EBC1FF008EF52BBEC9F082050000000049454E44AE4260829BA8D00340DF47280160EF25667693E3060054FB6076946C52A5640094A6295D4018
310
F601519418081B0BD3068362D4C0B1E96F769222FAF7752915D52AE811A0E04B8C9002909DA452A2C80FDEF5B1BA5BEECF2E0000000049454E44AE426082
  0
ENDSEC
  0
EOF
