  0
SECTION
  2
HEADER
  9
$ACADVER
  1
AC1027
  9
$ACADMAINTVER
 70
   105
  9
$DWGCODEPAGE
  3
ANSI_1252
  9
$LASTSAVEDBY
  1
Sandra
  9
$REQUIREDVERSIONS
160
                 0
  9
$INSBASE
 10
0.0
 20
0.0
 30
0.0
  9
$EXTMIN
 10
-1358.789620906279
 20
-1358.789620906279
 30
0.0
  9
$EXTMAX
 10
1358.789620906279
 20
1358.789620906279
 30
377.9346008300782
  9
$LIMMIN
 10
0.0
 20
0.0
  9
$LIMMAX
 10
12.0
 20
9.0
  9
$ORTHOMODE
 70
     1
  9
$REGENMODE
 70
     1
  9
$FILLMODE
 70
     1
  9
$QTEXTMODE
 70
     0
  9
$MIRRTEXT
 70
     1
  9
$LTSCALE
 40
1.0
  9
$ATTMODE
 70
     1
  9
$TEXTSIZE
 40
0.2
  9
$TRACEWID
 40
0.05
  9
$TEXTSTYLE
  7
Standard
  9
$CLAYER
  8
Default
  9
$CELTYPE
  6
ByLayer
  9
$CECOLOR
 62
   256
  9
$CELTSCALE
 40
1.0
  9
$DISPSILH
 70
     0
  9
$DIMSCALE
 40
1.0
  9
$DIMASZ
 40
0.18
  9
$DIMEXO
 40
0.0625
  9
$DIMDLI
 40
0.38
  9
$DIMRND
 40
0.0
  9
$DIMDLE
 40
0.0
  9
$DIMEXE
 40
0.18
  9
$DIMTP
 40
0.0
  9
$DIMTM
 40
0.0
  9
$DIMTXT
 40
0.18
  9
$DIMCEN
 40
0.09
  9
$DIMTSZ
 40
0.0
  9
$DIMTOL
 70
     0
  9
$DIMLIM
 70
     0
  9
$DIMTIH
 70
     1
  9
$DIMTOH
 70
     1
  9
$DIMSE1
 70
     0
  9
$DIMSE2
 70
     0
  9
$DIMTAD
 70
     0
  9
$DIMZIN
 70
     0
  9
$DIMBLK
  1

  9
$DIMASO
 70
     1
  9
$DIMSHO
 70
     1
  9
$DIMPOST
  1

  9
$DIMAPOST
  1

  9
$DIMALT
 70
     0
  9
$DIMALTD
 70
     2
  9
$DIMALTF
 40
25.4
  9
$DIMLFAC
 40
1.0
  9
$DIMTOFL
 70
     0
  9
$DIMTVP
 40
0.0
  9
$DIMTIX
 70
     0
  9
$DIMSOXD
 70
     0
  9
$DIMSAH
 70
     0
  9
$DIMBLK1
  1

  9
$DIMBLK2
  1

  9
$DIMSTYLE
  2
Standard
  9
$DIMCLRD
 70
     0
  9
$DIMCLRE
 70
     0
  9
$DIMCLRT
 70
     0
  9
$DIMTFAC
 40
1.0
  9
$DIMGAP
 40
0.09
  9
$DIMJUST
 70
     0
  9
$DIMSD1
 70
     0
  9
$DIMSD2
 70
     0
  9
$DIMTOLJ
 70
     1
  9
$DIMTZIN
 70
     0
  9
$DIMALTZ
 70
     0
  9
$DIMALTTZ
 70
     0
  9
$DIMUPT
 70
     0
  9
$DIMDEC
 70
     4
  9
$DIMTDEC
 70
     4
  9
$DIMALTU
 70
     2
  9
$DIMALTTD
 70
     2
  9
$DIMTXSTY
  7
Standard
  9
$DIMAUNIT
 70
     0
  9
$DIMADEC
 70
     0
  9
$DIMALTRND
 40
0.0
  9
$DIMAZIN
 70
     0
  9
$DIMDSEP
 70
    46
  9
$DIMATFIT
 70
     3
  9
$DIMFRAC
 70
     0
  9
$DIMLDRBLK
  1

  9
$DIMLUNIT
 70
     2
  9
$DIMLWD
 70
    -2
  9
$DIMLWE
 70
    -2
  9
$DIMTMOVE
 70
     2
  9
$DIMFXL
 40
1.0
  9
$DIMFXLON
 70
     0
  9
$DIMJOGANG
 40
0.7853981633974483
  9
$DIMTFILL
 70
     0
  9
$DIMTFILLCLR
 70
     0
  9
$DIMARCSYM
 70
     0
  9
$DIMLTYPE
  6

  9
$DIMLTEX1
  6

  9
$DIMLTEX2
  6

  9
$DIMTXTDIRECTION
 70
     0
  9
$LUNITS
 70
     2
  9
$LUPREC
 70
     3
  9
$SKETCHINC
 40
0.1
  9
$FILLETRAD
 40
0.5
  9
$AUNITS
 70
     0
  9
$AUPREC
 70
     0
  9
$MENU
  1
.
  9
$ELEVATION
 40
0.0
  9
$PELEVATION
 40
0.0
  9
$THICKNESS
 40
0.0
  9
$LIMCHECK
 70
     0
  9
$CHAMFERA
 40
0.0
  9
$CHAMFERB
 40
0.0
  9
$CHAMFERC
 40
0.0
  9
$CHAMFERD
 40
0.0
  9
$SKPOLY
 70
     0
  9
$TDCREATE
 40
2456645.635907431
  9
$TDUCREATE
 40
2456645.802574097
  9
$TDUPDATE
 40
2457842.442499826
  9
$TDUUPDATE
 40
2457842.609166493
  9
$TDINDWG
 40
0.0053305208
  9
$TDUSRTIMER
 40
0.0053305208
  9
$USRTIMER
 70
     1
  9
$ANGBASE
 50
0.0
  9
$ANGDIR
 70
     0
  9
$PDMODE
 70
     0
  9
$PDSIZE
 40
0.0
  9
$PLINEWID
 40
0.0
  9
$SPLFRAME
 70
     0
  9
$SPLINETYPE
 70
     6
  9
$SPLINESEGS
 70
     8
  9
$HANDSEED
  5
5CD9B
  9
$SURFTAB1
 70
     6
  9
$SURFTAB2
 70
     6
  9
$SURFTYPE
 70
     6
  9
$SURFU
 70
     6
  9
$SURFV
 70
     6
  9
$UCSBASE
  2

  9
$UCSNAME
  2

  9
$UCSORG
 10
0.0
 20
0.0
 30
0.0
  9
$UCSXDIR
 10
1.0
 20
0.0
 30
0.0
  9
$UCSYDIR
 10
0.0
 20
1.0
 30
0.0
  9
$UCSORTHOREF
  2

  9
$UCSORTHOVIEW
 70
     0
  9
$UCSORGTOP
 10
0.0
 20
0.0
 30
0.0
  9
$UCSORGBOTTOM
 10
0.0
 20
0.0
 30
0.0
  9
$UCSORGLEFT
 10
0.0
 20
0.0
 30
0.0
  9
$UCSORGRIGHT
 10
0.0
 20
0.0
 30
0.0
  9
$UCSORGFRONT
 10
0.0
 20
0.0
 30
0.0
  9
$UCSORGBACK
 10
0.0
 20
0.0
 30
0.0
  9
$PUCSBASE
  2

  9
$PUCSNAME
  2

  9
$PUCSORG
 10
0.0
 20
0.0
 30
0.0
  9
$PUCSXDIR
 10
1.0
 20
0.0
 30
0.0
  9
$PUCSYDIR
 10
0.0
 20
1.0
 30
0.0
  9
$PUCSORTHOREF
  2

  9
$PUCSORTHOVIEW
 70
     0
  9
$PUCSORGTOP
 10
0.0
 20
0.0
 30
0.0
  9
$PUCSORGBOTTOM
 10
0.0
 20
0.0
 30
0.0
  9
$PUCSORGLEFT
 10
0.0
 20
0.0
 30
0.0
  9
$PUCSORGRIGHT
 10
0.0
 20
0.0
 30
0.0
  9
$PUCSORGFRONT
 10
0.0
 20
0.0
 30
0.0
  9
$PUCSORGBACK
 10
0.0
 20
0.0
 30
0.0
  9
$USERI1
 70
     0
  9
$USERI2
 70
     0
  9
$USERI3
 70
     0
  9
$USERI4
 70
     0
  9
$USERI5
 70
     0
  9
$USERR1
 40
0.0
  9
$USERR2
 40
0.0
  9
$USERR3
 40
0.0
  9
$USERR4
 40
0.0
  9
$USERR5
 40
0.0
  9
$WORLDVIEW
 70
     1
  9
$SHADEDGE
 70
     3
  9
$SHADEDIF
 70
    70
  9
$TILEMODE
 70
     1
  9
$MAXACTVP
 70
    64
  9
$PINSBASE
 10
0.0
 20
0.0
 30
0.0
  9
$PLIMCHECK
 70
     0
  9
$PEXTMIN
 10
1.000000000000000E+20
 20
1.000000000000000E+20
 30
1.000000000000000E+20
  9
$PEXTMAX
 10
-1.000000000000000E+20
 20
-1.000000000000000E+20
 30
-1.000000000000000E+20
  9
$PLIMMIN
 10
0.0
 20
0.0
  9
$PLIMMAX
 10
12.0
 20
9.0
  9
$UNITMODE
 70
     0
  9
$VISRETAIN
 70
     1
  9
$PLINEGEN
 70
     0
  9
$PSLTSCALE
 70
     1
  9
$TREEDEPTH
 70
  3020
  9
$CMLSTYLE
  2
Standard
  9
$CMLJUST
 70
     0
  9
$CMLSCALE
 40
1.0
  9
$PROXYGRAPHICS
 70
     1
  9
$MEASUREMENT
 70
     0
  9
$CELWEIGHT
370
    -1
  9
$ENDCAPS
280
     0
  9
$JOINSTYLE
280
     0
  9
$LWDISPLAY
290
     0
  9
$INSUNITS
 70
     4
  9
$HYPERLINKBASE
  1

  9
$STYLESHEET
  1

  9
$XEDIT
290
     1
  9
$CEPSNTYPE
380
     0
  9
$PSTYLEMODE
290
     1
  9
$FINGERPRINTGUID
  2
{412965D3-79FA-4A43-93E9-EFC21FF2704C}
  9
$VERSIONGUID
  2
{6F980F6E-80F4-44B4-AB16-4D7F00A6A1AA}
  9
$EXTNAMES
290
     1
  9
$PSVPSCALE
 40
0.0
  9
$OLESTARTUP
290
     0
  9
$SORTENTS
280
   127
  9
$INDEXCTL
280
     0
  9
$HIDETEXT
280
     1
  9
$XCLIPFRAME
280
     0
  9
$HALOGAP
280
     0
  9
$OBSCOLOR
 70
   257
  9
$OBSLTYPE
280
     0
  9
$INTERSECTIONDISPLAY
280
     0
  9
$INTERSECTIONCOLOR
 70
   257
  9
$DIMASSOC
280
     2
  9
$PROJECTNAME
  1

  9
$CAMERADISPLAY
290
     0
  9
$LENSLENGTH
 40
50.0
  9
$CAMERAHEIGHT
 40
0.0
  9
$STEPSPERSEC
 40
2.0
  9
$STEPSIZE
 40
6.0
  9
$3DDWFPREC
 40
2.0
  9
$PSOLWIDTH
 40
0.25
  9
$PSOLHEIGHT
 40
4.0
  9
$LOFTANG1
 40
1.570796326794896
  9
$LOFTANG2
 40
1.570796326794896
  9
$LOFTMAG1
 40
0.0
  9
$LOFTMAG2
 40
0.0
  9
$LOFTPARAM
 70
     7
  9
$LOFTNORMALS
280
     1
  9
$LATITUDE
 40
37.795
  9
$LONGITUDE
 40
-122.394
  9
$NORTHDIRECTION
 40
0.0
  9
$TIMEZONE
 70
 -8000
  9
$LIGHTGLYPHDISPLAY
280
     1
  9
$TILEMODELIGHTSYNCH
280
     1
  9
$CMATERIAL
347
44
  9
$SOLIDHIST
280
     0
  9
$SHOWHIST
280
     1
  9
$DWFFRAME
280
     2
  9
$DGNFRAME
280
     0
  9
$REALWORLDSCALE
290
     1
  9
$INTERFERECOLOR
 62
     1
  9
$INTERFEREOBJVS
345
33
  9
$INTERFEREVPVS
346
30
  9
$CSHADOW
280
     0
  9
$SHADOWPLANELOCATION
 40
0.0
  0
ENDSEC
  0
SECTION
  2
CLASSES
  0
CLASS
  1
ACDBDICTIONARYWDFLT
  2
AcDbDictionaryWithDefault
  3
ObjectDBX Classes
 90
        0
 91
        1
280
     0
281
     0
  0
CLASS
  1
VISUALSTYLE
  2
AcDbVisualStyle
  3
ObjectDBX Classes
 90
     4095
 91
       26
280
     0
281
     0
  0
CLASS
  1
MATERIAL
  2
AcDbMaterial
  3
ObjectDBX Classes
 90
     1153
 91
        3
280
     0
281
     0
  0
CLASS
  1
SCALE
  2
AcDbScale
  3
ObjectDBX Classes
 90
     1153
 91
       33
280
     0
281
     0
  0
CLASS
  1
SUN
  2
AcDbSun
  3
SCENEOE
 90
     1153
 91
        1
280
     0
281
     0
  0
CLASS
  1
DICTIONARYVAR
  2
AcDbDictionaryVar
  3
ObjectDBX Classes
 90
        0
 91
        9
280
     0
281
     0
  0
CLASS
  1
TABLESTYLE
  2
AcDbTableStyle
  3
ObjectDBX Classes
 90
     4095
 91
        1
280
     0
281
     0
  0
CLASS
  1
MLEADERSTYLE
  2
AcDbMLeaderStyle
  3
ACDB_MLEADERSTYLE_CLASS
 90
     4095
 91
        1
280
     0
281
     0
  0
CLASS
  1
ACDBSECTIONVIEWSTYLE
  2
AcDbSectionViewStyle
  3
ObjectDBX Classes
 90
     1025
 91
        1
280
     0
281
     0
  0
CLASS
  1
ACDBDETAILVIEWSTYLE
  2
AcDbDetailViewStyle
  3
ObjectDBX Classes
 90
     1025
 91
        1
280
     0
281
     0
  0
CLASS
  1
SOLID_BACKGROUND
  2
AcDbSolidBackground
  3
SCENEOE
 90
     4095
 91
        0
280
     0
281
     0
  0
CLASS
  1
NPOCOLLECTION
  2
AcDbImpNonPersistentObjectsCollection
  3
ObjectDBX Classes
 90
     1153
 91
        0
280
     0
281
     0
  0
CLASS
  1
SORTENTSTABLE
  2
AcDbSortentsTable
  3
ObjectDBX Classes
 90
        0
 91
        1
280
     0
281
     0
  0
CLASS
  1
CELLSTYLEMAP
  2
AcDbCellStyleMap
  3
ObjectDBX Classes
 90
     1152
 91
        1
280
     0
281
     0
  0
ENDSEC
  0
SECTION
  2
TABLES
  0
TABLE
  2
VPORT
  5
8
102
{ACAD_XDICTIONARY
360
5CB0A
102
}
330
0
100
AcDbSymbolTable
 70
     1
  0
VPORT
  5
29
330
8
100
AcDbSymbolTableRecord
100
AcDbViewportTableRecord
  2
*Active
 70
     0
 10
0.0
 20
0.0
 11
1.0
 21
1.0
 12
-1016.252368966373
 22
694.8615816132358
 13
0.0
 23
0.0
 14
0.5
 24
0.5
 15
0.5
 25
0.5
 16
-0.0000000000043201
 26
0.0
 36
19929.59960475513
 17
1262.807628225233
 27
-495.6308497619941
 37
354.6715087890622
 40
2711.475711026929
 41
2.334549878345498
 42
50.0
 43
0.0
 44
0.0
 50
0.0
 51
0.0
 71
     0
 72
   100
 73
     1
 74
     3
 75
     0
 76
     0
 77
     0
 78
     0
281
     0
 65
     1
110
0.0
120
0.0
130
0.0
111
1.0
121
0.0
131
0.0
112
0.0
122
1.0
132
0.0
 79
     0
146
0.0
348
2F
 60
     3
 61
     5
292
     1
282
     1
141
0.0
142
0.0
 63
   250
421
  3355443
361
69
1001
ACAD_NAV_VCDISPLAY
1070
     3
  0
ENDTAB
  0
TABLE
  2
LTYPE
  5
5
330
0
100
AcDbSymbolTable
 70
     1
  0
LTYPE
  5
14
330
5
100
AcDbSymbolTableRecord
100
AcDbLinetypeTableRecord
  2
ByBlock
 70
     0
  3

 72
    65
 73
     0
 40
0.0
  0
LTYPE
  5
15
330
5
100
AcDbSymbolTableRecord
100
AcDbLinetypeTableRecord
  2
ByLayer
 70
     0
  3

 72
    65
 73
     0
 40
0.0
  0
LTYPE
  5
16
330
5
100
AcDbSymbolTableRecord
100
AcDbLinetypeTableRecord
  2
Continuous
 70
     0
  3
Solid line
 72
    65
 73
     0
 40
0.0
  0
ENDTAB
  0
TABLE
  2
LAYER
  5
2
102
{ACAD_XDICTIONARY
360
5CB5A
102
}
330
0
100
AcDbSymbolTable
 70
     4
  0
LAYER
  5
10
102
{ACAD_XDICTIONARY
360
5CB53
102
}
330
2
100
AcDbSymbolTableRecord
100
AcDbLayerTableRecord
  2
0
 70
     0
 62
     7
  6
Continuous
370
    -3
390
F
347
46
348
0
  0
LAYER
  5
6A
102
{ACAD_XDICTIONARY
360
5CB55
102
}
330
2
100
AcDbSymbolTableRecord
100
AcDbLayerTableRecord
  2
Default
 70
     0
 62
     7
  6
Continuous
370
    -3
390
F
347
46
348
0
  0
LAYER
  5
5CB7C
102
{ACAD_XDICTIONARY
360
5CB7D
102
}
330
2
100
AcDbSymbolTableRecord
100
AcDbLayerTableRecord
  2
Make2D visible lines
 70
     0
 62
     7
  6
Continuous
370
    -3
390
F
347
46
348
0
  0
LAYER
  5
5CB7E
102
{ACAD_XDICTIONARY
360
5CB7F
102
}
330
2
100
AcDbSymbolTableRecord
100
AcDbLayerTableRecord
  2
Make2D visible lines - Tangent
 70
     0
 62
     7
  6
Continuous
370
    -3
390
F
347
46
348
0
  0
ENDTAB
  0
TABLE
  2
STYLE
  5
3
330
0
100
AcDbSymbolTable
 70
     1
  0
STYLE
  5
11
330
3
100
AcDbSymbolTableRecord
100
AcDbTextStyleTableRecord
  2
Standard
 70
     0
 40
0.0
 41
1.0
 50
0.0
 71
     0
 42
0.2
  3
txt
  4

  0
ENDTAB
  0
TABLE
  2
VIEW
  5
6
330
0
100
AcDbSymbolTable
 70
     0
  0
ENDTAB
  0
TABLE
  2
UCS
  5
7
330
0
100
AcDbSymbolTable
 70
     0
  0
ENDTAB
  0
TABLE
  2
APPID
  5
9
330
0
100
AcDbSymbolTable
 70
     3
  0
APPID
  5
12
330
9
100
AcDbSymbolTableRecord
100
AcDbRegAppTableRecord
  2
ACAD
 70
     0
  0
APPID
  5
5CB60
330
9
100
AcDbSymbolTableRecord
100
AcDbRegAppTableRecord
  2
ACAD_NAV_VCDISPLAY
 70
     0
  0
APPID
  5
5CD81
330
9
100
AcDbSymbolTableRecord
100
AcDbRegAppTableRecord
  2
ACAD_EXEMPT_FROM_CAD_STANDARDS
 70
     0
  0
ENDTAB
  0
TABLE
  2
DIMSTYLE
  5
A
330
0
100
AcDbSymbolTable
 70
     1
100
AcDbDimStyleTable
 71
     1
340
27
  0
DIMSTYLE
105
27
330
A
100
AcDbSymbolTableRecord
100
AcDbDimStyleTableRecord
  2
Standard
 70
     0
340
11
  0
ENDTAB
  0
TABLE
  2
BLOCK_RECORD
  5
1
330
0
100
AcDbSymbolTable
 70
     1
  0
BLOCK_RECORD
  5
1F
102
{ACAD_XDICTIONARY
360
5CCE0
102
}
330
1
100
AcDbSymbolTableRecord
100
AcDbBlockTableRecord
  2
*Model_Space
340
22
 70
     0
280
     1
281
     0
  0
BLOCK_RECORD
  5
1B
330
1
100
AcDbSymbolTableRecord
100
AcDbBlockTableRecord
  2
*Paper_Space
340
1E
 70
     0
280
     1
281
     0
  0
BLOCK_RECORD
  5
23
330
1
100
AcDbSymbolTableRecord
100
AcDbBlockTableRecord
  2
*Paper_Space0
340
26
 70
     0
280
     1
281
     0
  0
ENDTAB
  0
ENDSEC
  0
SECTION
  2
BLOCKS
  0
BLOCK
  5
20
330
1F
100
AcDbEntity
  8
0
100
AcDbBlockBegin
  2
*Model_Space
 70
     0
 10
0.0
 20
0.0
 30
0.0
  3
*Model_Space
  1

  0
ENDBLK
  5
21
330
1F
100
AcDbEntity
  8
0
100
AcDbBlockEnd
  0
BLOCK
  5
1C
330
1B
100
AcDbEntity
 67
     1
  8
0
100
AcDbBlockBegin
  2
*Paper_Space
 70
     0
 10
0.0
 20
0.0
 30
0.0
  3
*Paper_Space
  1

  0
ENDBLK
  5
1D
330
1B
100
AcDbEntity
 67
     1
  8
0
100
AcDbBlockEnd
  0
BLOCK
  5
24
330
23
100
AcDbEntity
 67
     1
  8
0
100
AcDbBlockBegin
  2
*Paper_Space0
 70
     0
 10
0.0
 20
0.0
 30
0.0
  3
*Paper_Space0
  1

  0
ENDBLK
  5
25
330
23
100
AcDbEntity
 67
     1
  8
0
100
AcDbBlockEnd
  0
ENDSEC
  0
SECTION
  2
ENTITIES
  0
SPLINE
  5
5CC45
330
1F
100
AcDbEntity
  8
Make2D visible lines
100
AcDbSpline
210
0.0
220
0.0
230
1.0
 70
    12
 71
     2
 72
     6
 73
     3
 74
     0
 42
0.000000001
 43
0.0000000001
 40
0.0
 40
0.0
 40
0.0
 40
0.0853474550214741
 40
0.0853474550214741
 40
0.0853474550214741
 10
10.33476444911639
 20
634.8033709297483
 30
377.9346008300781
 41
1.0
 10
10.41064384936953
 20
633.7216804723635
 30
377.9346008300781
 41
0.9993970637774639
 10
10.41127205573139
 20
632.6373320346656
 30
377.9346008300781
 41
1.0
  0
SPLINE
  5
5CC46
330
1F
100
AcDbEntity
  8
Make2D visible lines - Tangent
100
AcDbSpline
210
0.0
220
0.0
230
1.0
 70
     8
 71
     3
 72
    12
 73
     8
 74
     0
 42
0.000000001
 43
0.0000000001
 40
0.0
 40
0.0
 40
0.0
 40
0.0
 40
0.1510110321465192
 40
0.3037660471064116
 40
0.5900965017365678
 40
0.8249401141264362
 40
1.014583801502342
 40
1.014583801502342
 40
1.014583801502342
 40
1.014583801502342
 10
-10.15360447548892
 20
635.6935500357422
 30
377.9346008300781
 10
-10.27847652343052
 20
634.4204960305119
 30
377.9346008300781
 10
-10.3757528971405
 20
631.8474797325582
 30
377.9346008300781
 10
-9.938571038371719
 20
626.8577051299423
 30
377.9346008300781
 10
-8.403081690968974
 20
621.3168659522867
 30
377.9346008300781
 10
-4.980486861681583
 20
616.2151549351137
 30
377.9346008300781
 10
-1.581529058792057
 20
614.5706439689752
 30
377.9346008300781
 10
0.0529798204274812
 20
614.6024823530733
 30
377.9346008300781
  0
SPLINE
  5
5CC47
330
1F
100
AcDbEntity
  8
Make2D visible lines - Tangent
100
AcDbSpline
210
0.0
220
0.0
230
1.0
 70
     8
 71
     3
 72
    12
 73
     8
 74
     0
 42
0.000000001
 43
0.0000000001
 40
-1.014583801502342
 40
-1.014583801502342
 40
-1.014583801502342
 40
-1.014583801502342
 40
-0.8249401141264362
 40
-0.5900965017365678
 40
-0.3037660471064116
 40
-0.1510110321465192
 40
0.0
 40
0.0
 40
0.0
 40
0.0
 10
0.0529798204274812
 20
614.6024823530733
 30
377.9346008300781
 10
1.687488699647019
 20
614.5706439689752
 30
377.9346008300781
 10
5.086446502536091
 20
616.2151549351137
 30
377.9346008300781
 10
8.509041331823937
 20
621.3168659522867
 30
377.9346008300781
 10
10.04453067922668
 20
626.8577051299423
 30
377.9346008300781
 10
10.48171253799546
 20
631.8474797325582
 30
377.9346008300781
 10
10.38443616428503
 20
634.4204960305119
 30
377.9346008300781
 10
10.25956411634342
 20
635.6935500357422
 30
377.9346008300781
  0
SPLINE
  5
5CC48
330
1F
100
AcDbEntity
  8
Make2D visible lines - Tangent
100
AcDbSpline
210
0.0
220
0.0
230
1.0
 70
    12
 71
     2
 72
     6
 73
     3
 74
     0
 42
0.000000001
 43
0.0000000001
 40
0.0
 40
0.0
 40
0.0
 40
0.1369528492222414
 40
0.1369528492222414
 40
0.1369528492222414
 10
-9.284334076376126
 20
645.3292105722612
 30
377.9346008300781
 41
1.0
 10
-9.248023871672558
 20
643.5903183103855
 30
377.9346008300781
 41
0.9999966913238282
 10
-9.267116211372467
 20
641.8504377316328
 30
377.9346008300781
 41
0.9999959461296658
  0
ARC
  5
5CC49
330
1F
100
AcDbEntity
  8
Make2D visible lines - Tangent
100
AcDbCircle
 10
-21.96539887336621
 20
641.6415898537302
 30
377.9346008300781
 40
12.7
100
AcDbArc
 50
348.4871521735322
 51
0.9422552251275556
  0
SPLINE
  5
5CC4A
330
1F
100
AcDbEntity
  8
Make2D visible lines - Tangent
100
AcDbSpline
210
0.0
220
0.0
230
1.0
 70
     8
 71
     3
 72
    14
 73
    10
 74
     0
 42
0.000000001
 43
0.0000000001
 40
0.2772630823298201
 40
0.2772630823298201
 40
0.2772630823298201
 40
0.2772630823298201
 40
1.0
 40
2.0
 40
3.0
 40
4.0
 40
5.0
 40
6.0
 40
7.0
 40
7.0
 40
7.0
 40
7.0
 10
-9.520923199216213
 20
639.1068265126104
 30
377.9346008300781
 10
-9.726593662584946
 20
638.0970829058728
 30
377.9346008300781
 10
-10.10927612958221
 20
635.668188144446
 30
377.9346008300781
 10
-10.22970690536385
 20
631.7780624031599
 30
377.9346008300781
 10
-9.772141306450976
 20
627.5165440354181
 30
377.9346008300781
 10
-8.71729545993503
 20
623.3574008326281
 30
377.9346008300781
 10
-6.926890755837575
 20
619.4491654454948
 30
377.9346008300781
 10
-4.130221016163886
 20
616.1227944232237
 30
377.9346008300781
 10
-1.386781106853959
 20
614.9742012544557
 30
377.9346008300781
 10
0.0529924330530776
 20
614.9870918994122
 30
377.9346008300781
  0
SPLINE
  5
5CC4B
330
1F
100
AcDbEntity
  8
Make2D visible lines - Tangent
100
AcDbSpline
210
0.0
220
0.0
230
1.0
 70
     8
 71
     3
 72
    14
 73
    10
 74
     0
 42
0.000000001
 43
0.0000000001
 40
-7.0
 40
-7.0
 40
-7.0
 40
-7.0
 40
-6.0
 40
-5.0
 40
-4.0
 40
-3.0
 40
-2.0
 40
-1.0
 40
-0.2482205602640466
 40
-0.2482205602640466
 40
-0.2482205602640466
 40
-0.2482205602640466
 10
0.0529924330530776
 20
614.9870918994122
 30
377.9346008300781
 10
1.492765972960114
 20
614.9742012544557
 30
377.9346008300781
 10
4.236205882270041
 20
616.1227944232237
 30
377.9346008300781
 10
7.03287562194373
 20
619.4491654454948
 30
377.9346008300781
 10
8.82328032604164
 20
623.3574008326281
 30
377.9346008300781
 10
9.878126172557131
 20
627.5165440354181
 30
377.9346008300781
 10
10.33569177147001
 20
631.7780624031599
 30
377.9346008300781
 10
10.21397640097029
 20
635.709682811796
 30
377.9346008300781
 10
9.819588625941378
 20
638.1789680490624
 30
377.9346008300781
 10
9.601896004065565
 20
639.2285083609213
 30
377.9346008300781
  0
ARC
  5
5CC4C
330
1F
100
AcDbEntity
  8
Make2D visible lines - Tangent
100
AcDbCircle
 10
22.03721744596714
 20
641.8078068385271
 30
377.9346008300781
 40
12.7
100
AcDbArc
 50
178.9775798079509
 51
191.7179678781624
  0
SPLINE
  5
5CC4D
330
1F
100
AcDbEntity
  8
Make2D visible lines - Tangent
100
AcDbSpline
210
0.0
220
0.0
230
1.0
 70
    12
 71
     2
 72
     6
 73
     3
 74
     0
 42
0.000000001
 43
0.0000000001
 40
-0.1297405451143296
 40
-0.1297405451143296
 40
-0.1297405451143296
 40
0.0
 40
0.0
 40
0.0
 10
9.33923942092224
 20
642.0344212146524
 30
377.9346008300781
 41
0.9999960316975588
 10
9.368640502063954
 20
643.6818642790947
 30
377.9346008300781
 41
0.999996865512317
 10
9.403039114579314
 20
645.3292105722612
 30
377.9346008300781
 41
1.0
  0
SPLINE
  5
5CC4E
330
1F
100
AcDbEntity
  8
Make2D visible lines - Tangent
100
AcDbSpline
210
0.0
220
0.0
230
1.0
 70
     8
 71
     3
 72
    12
 73
     8
 74
     0
 42
0.000000001
 43
0.0000000001
 40
0.0
 40
0.0
 40
0.0
 40
0.0
 40
0.1510110321465192
 40
0.3037660471064116
 40
0.5900965017365678
 40
0.8249401141264362
 40
1.014583801502342
 40
1.014583801502342
 40
1.014583801502342
 40
1.014583801502342
 10
10.25956382457298
 20
1337.69855322361
 30
377.9346008300781
 10
10.38443587251413
 20
1338.97160722884
 30
377.9346008300781
 10
10.48171224622456
 20
1341.544623526794
 30
377.9346008300781
 10
10.04453038745578
 20
1346.53439812941
 30
377.9346008300781
 10
8.509041040053034
 20
1352.075237307065
 30
377.9346008300781
 10
5.086446210765643
 20
1357.176948324238
 30
377.9346008300781
 10
1.687488407876116
 20
1358.821459290377
 30
377.9346008300781
 10
0.0529795286565786
 20
1358.789620906279
 30
377.9346008300781
  0
SPLINE
  5
5CC4F
330
1F
100
AcDbEntity
  8
Make2D visible lines - Tangent
100
AcDbSpline
210
0.0
220
0.0
230
1.0
 70
     8
 71
     3
 72
    12
 73
     8
 74
     0
 42
0.000000001
 43
0.0000000001
 40
-1.014583801502342
 40
-1.014583801502342
 40
-1.014583801502342
 40
-1.014583801502342
 40
-0.8249401141264362
 40
-0.5900965017365678
 40
-0.3037660471064116
 40
-0.1510110321465192
 40
0.0
 40
0.0
 40
0.0
 40
0.0
 10
0.0529795286565786
 20
1358.789620906279
 30
377.9346008300781
 10
-1.581529350562959
 20
1358.821459290377
 30
377.9346008300781
 10
-4.980487153452486
 20
1357.176948324238
 30
377.9346008300781
 10
-8.403081982739877
 20
1352.075237307065
 30
377.9346008300781
 10
-9.938571330142622
 20
1346.53439812941
 30
377.9346008300781
 10
-10.3757531889114
 20
1341.544623526794
 30
377.9346008300781
 10
-10.27847681520097
 20
1338.97160722884
 30
377.9346008300781
 10
-10.15360476725936
 20
1337.69855322361
 30
377.9346008300781
  0
SPLINE
  5
5CC50
330
1F
100
AcDbEntity
  8
Make2D visible lines
100
AcDbSpline
210
0.0
220
0.0
230
1.0
 70
    12
 71
     2
 72
     6
 73
     3
 74
     0
 42
0.000000001
 43
0.0000000001
 40
0.0
 40
0.0
 40
0.0
 40
0.0853474550214741
 40
0.0853474550214741
 40
0.0853474550214741
 10
-10.22880510003233
 20
1338.588732329604
 30
377.9346008300781
 41
1.0
 10
-10.30468450028547
 20
1339.670422786989
 30
377.9346008300781
 41
0.9993970637774639
 10
-10.30531270664733
 20
1340.754771224687
 30
377.9346008300781
 41
1.0
  0
SPLINE
  5
5CCC2
330
1F
100
AcDbEntity
  8
Default
100
AcDbSpline
210
0.0
220
0.0
230
1.0
 70
     8
 71
     3
 72
    10
 73
     6
 74
     0
 42
0.000000001
 43
0.0000000001
 40
0.0
 40
0.0
 40
0.0
 40
0.0
 40
1.0
 40
2.0
 40
3.0
 40
3.0
 40
3.0
 40
3.0
 10
378.8031488420247
 20
971.550597564534
 30
377.9346008300781
 10
384.5209343618262
 20
983.1826582003779
 30
377.9346008300781
 10
389.9138112295404
 20
1008.961726047683
 30
377.9346008300781
 10
384.7957176907598
 20
1047.71575940784
 30
377.9346008300781
 10
376.7737291200133
 20
1072.333390598161
 30
377.9346008300781
 10
371.8493850769992
 20
1084.281451334379
 30
377.9346008300781
  0
SPLINE
  5
5CCC3
330
1F
100
AcDbEntity
  8
Default
100
AcDbSpline
210
0.0
220
0.0
230
1.0
 70
     8
 71
     3
 72
    10
 73
     6
 74
     0
 42
0.000000001
 43
0.0000000001
 40
-3.0
 40
-3.0
 40
-3.0
 40
-3.0
 40
-2.0
 40
-1.0
 40
0.0
 40
0.0
 40
0.0
 40
0.0
 10
371.8493850769992
 20
1084.281451334379
 30
377.9346008300781
 10
352.0782502978905
 20
1132.042142816815
 30
377.9346008300781
 10
289.5246268909095
 20
1216.924314164887
 30
377.9346008300781
 10
154.9001909455919
 20
1298.618787131312
 30
377.9346008300781
 10
51.65973888111875
 20
1317.324244018896
 30
377.9346008300781
 10
0.0529796745422573
 20
1316.904793592642
 30
377.9346008300781
  0
SPLINE
  5
5CCC4
330
1F
100
AcDbEntity
  8
Default
100
AcDbSpline
210
0.0
220
0.0
230
1.0
 70
     8
 71
     3
 72
    10
 73
     6
 74
     0
 42
0.000000001
 43
0.0000000001
 40
0.0
 40
0.0
 40
0.0
 40
0.0
 40
1.0
 40
2.0
 40
3.0
 40
3.0
 40
3.0
 40
3.0
 10
0.0529796745422573
 20
1316.904793592642
 30
377.9346008300781
 10
-51.55377953203424
 20
1317.324244018896
 30
377.9346008300781
 10
-154.7942315965074
 20
1298.618787131312
 30
377.9346008300781
 10
-289.4186675418252
 20
1216.924314164887
 30
377.9346008300781
 10
-351.972290948806
 20
1132.042142816815
 30
377.9346008300781
 10
-371.7434257279147
 20
1084.281451334379
 30
377.9346008300781
  0
SPLINE
  5
5CCC5
330
1F
100
AcDbEntity
  8
Default
100
AcDbSpline
210
0.0
220
0.0
230
1.0
 70
     8
 71
     3
 72
    10
 73
     6
 74
     0
 42
0.000000001
 43
0.0000000001
 40
-3.0
 40
-3.0
 40
-3.0
 40
-3.0
 40
-2.0
 40
-1.0
 40
0.0
 40
0.0
 40
0.0
 40
0.0
 10
-371.7434257279147
 20
1084.281451334379
 30
377.9346008300781
 10
-376.6677697709292
 20
1072.333390598161
 30
377.9346008300781
 10
-384.6897583416753
 20
1047.71575940784
 30
377.9346008300781
 10
-389.8078518804564
 20
1008.961726047683
 30
377.9346008300781
 10
-384.4149750127419
 20
983.1826582003779
 30
377.9346008300781
 10
-378.6971894929404
 20
971.550597564534
 30
377.9346008300781
  0
ARC
  5
5CCC6
330
1F
100
AcDbEntity
  8
Default
100
AcDbCircle
 10
68.40536419261798
 20
1158.929469708673
 30
377.9346008300781
 40
455.7859007505599
100
AcDbArc
 50
226.6258777617963
 51
235.465201366902
  0
SPLINE
  5
5CCC7
330
1F
100
AcDbEntity
  8
Default
100
AcDbSpline
210
0.0
220
0.0
230
1.0
 70
     8
 71
     3
 72
    14
 73
    10
 74
     0
 42
0.000000001
 43
0.0000000001
 40
0.0000000000000002
 40
0.0000000000000002
 40
0.0000000000000002
 40
0.0000000000000002
 40
1.0
 40
2.0
 40
3.0
 40
4.0
 40
5.0
 40
6.0
 40
7.0
 40
7.0
 40
7.0
 40
7.0
 10
-244.6098336278869
 20
827.6255710651625
 30
377.9346008300781
 10
-254.9418434618219
 20
837.3872313272189
 30
377.9346008300781
 10
-275.3552978712237
 20
857.2148277475845
 30
377.9346008300781
 10
-303.6767788057377
 20
889.1121884991617
 30
377.9346008300781
 10
-331.2218536853911
 20
921.7197096190693
 30
377.9346008300781
 10
-356.4333805800065
 20
956.0674963538117
 30
377.9346008300781
 10
-375.603335843507
 20
994.9685720937518
 30
377.9346008300781
 10
-374.4257098219926
 20
1038.663334954086
 30
377.9346008300781
 10
-366.5034935093704
 20
1065.983637841168
 30
377.9346008300781
 10
-361.2116660976776
 20
1079.204704143887
 30
377.9346008300781
  0
ARC
  5
5CCC8
330
1F
100
AcDbEntity
  8
Default
100
AcDbCircle
 10
-68.29940484353347
 20
1158.929469708673
 30
377.9346008300781
 40
455.7859007505599
100
AcDbArc
 50
304.534798633098
 51
313.3741222382036
  0
SPLINE
  5
5CCC9
330
1F
100
AcDbEntity
  8
Default
100
AcDbSpline
210
0.0
220
0.0
230
1.0
 70
     8
 71
     3
 72
    14
 73
    10
 74
     0
 42
0.000000001
 43
0.0000000001
 40
0.0000000000000002
 40
0.0000000000000002
 40
0.0000000000000002
 40
0.0000000000000002
 40
1.0
 40
2.0
 40
3.0
 40
4.0
 40
5.0
 40
6.0
 40
7.0
 40
7.0
 40
7.0
 40
7.0
 10
244.715792976971
 20
827.6255710651625
 30
377.9346008300781
 10
255.047802810906
 20
837.3872313272189
 30
377.9346008300781
 10
275.4612572203078
 20
857.2148277475845
 30
377.9346008300781
 10
303.7827381548222
 20
889.1121884991617
 30
377.9346008300781
 10
331.3278130344752
 20
921.7197096190693
 30
377.9346008300781
 10
356.5393399290906
 20
956.0674963538117
 30
377.9346008300781
 10
375.7092951925911
 20
994.9685720937518
 30
377.9346008300781
 10
374.5316691710768
 20
1038.663334954086
 30
377.9346008300781
 10
366.6094528584549
 20
1065.983637841168
 30
377.9346008300781
 10
361.3176254467617
 20
1079.204704143887
 30
377.9346008300781
  0
SPLINE
  5
5CCCA
330
1F
100
AcDbEntity
  8
Default
100
AcDbSpline
210
0.0
220
0.0
230
1.0
 70
     8
 71
     3
 72
    24
 73
    20
 74
     0
 42
0.000000001
 43
0.0000000001
 40
0.0
 40
0.0
 40
0.0
 40
0.0
 40
1.0
 40
2.0
 40
3.0
 40
4.0
 40
5.0
 40
6.0
 40
7.0
 40
8.0
 40
9.0
 40
10.0
 40
11.0
 40
12.0
 40
13.0
 40
14.0
 40
15.0
 40
16.0
 40
17.0
 40
17.0
 40
17.0
 40
17.0
 10
-378.697243095324
 20
971.550597564534
 30
377.9346008300781
 10
-374.444572303759
 20
962.7268915447443
 30
377.9346008300781
 10
-364.4501175642072
 20
945.8623379639595
 30
377.9346008300781
 10
-347.6817345109023
 20
921.7322876640235
 30
377.9346008300781
 10
-329.3674050808747
 20
898.765114499942
 30
377.9346008300781
 10
-310.8813181380433
 20
875.9469431432803
 30
377.9346008300781
 10
-292.2300245233109
 20
853.2587734014787
 30
377.9346008300781
 10
-272.9153281847275
 20
831.1303427968406
 30
377.9346008300781
 10
-252.8529704699854
 20
809.6749899897186
 30
377.9346008300781
 10
-232.1355584386497
 20
788.8610170193062
 30
377.9346008300781
 10
-211.6606583673115
 20
767.7914688812511
 30
377.9346008300781
 10
-189.5668104139722
 20
748.4010157190548
 30
377.9346008300781
 10
-165.9187435423127
 20
730.9437635896397
 30
377.9346008300781
 10
-140.8157500021943
 20
715.6411532774027
 30
377.9346008300781
 10
-114.4095262517066
 20
702.7136221181783
 30
377.9346008300781
 10
-86.85776191886906
 20
692.4339567231793
 30
377.9346008300781
 10
-58.39086392418448
 20
685.0560276336969
 30
377.9346008300781
 10
-29.31666250043873
 20
680.643865362173
 30
377.9346008300781
 10
-9.736637184648316
 20
679.6767102502301
 30
377.9346008300781
 10
0.0529528733504776
 20
679.6930069226505
 30
377.9346008300781
  0
SPLINE
  5
5CCCB
330
1F
100
AcDbEntity
  8
Default
100
AcDbSpline
210
0.0
220
0.0
230
1.0
 70
     8
 71
     3
 72
    24
 73
    20
 74
     0
 42
0.000000001
 43
0.0000000001
 40
-17.0
 40
-17.0
 40
-17.0
 40
-17.0
 40
-16.0
 40
-15.0
 40
-14.0
 40
-13.0
 40
-12.0
 40
-11.0
 40
-10.0
 40
-9.0
 40
-8.0
 40
-7.0
 40
-6.0
 40
-5.0
 40
-4.0
 40
-3.0
 40
-2.0
 40
-1.0
 40
0.0
 40
0.0
 40
0.0
 40
0.0
 10
0.0529528733504776
 20
679.6930069226505
 30
377.9346008300781
 10
9.842542931348816
 20
679.6767102502301
 30
377.9346008300781
 10
29.42256824713922
 20
680.643865362173
 30
377.9346008300781
 10
58.49676967088498
 20
685.0560276336969
 30
377.9346008300781
 10
86.96366766556957
 20
692.4339567231793
 30
377.9346008300781
 10
114.5154319984071
 20
702.7136221181783
 30
377.9346008300781
 10
140.9216557488948
 20
715.6411532774027
 30
377.9346008300781
 10
166.0246492890133
 20
730.9437635896397
 30
377.9346008300781
 10
189.6727161606732
 20
748.4010157190548
 30
377.9346008300781
 10
211.7665641140125
 20
767.7914688812511
 30
377.9346008300781
 10
232.2414641853506
 20
788.8610170193062
 30
377.9346008300781
 10
252.9588762166859
 20
809.6749899897186
 30
377.9346008300781
 10
273.0212339314284
 20
831.1303427968406
 30
377.9346008300781
 10
292.3359302700119
 20
853.2587734014787
 30
377.9346008300781
 10
310.9872238847438
 20
875.9469431432803
 30
377.9346008300781
 10
329.4733108275754
 20
898.765114499942
 30
377.9346008300781
 10
347.787640257603
 20
921.7322876640235
 30
377.9346008300781
 10
364.5560233109081
 20
945.8623379639595
 30
377.9346008300781
 10
374.5504780504598
 20
962.7268915447443
 30
377.9346008300781
 10
378.8031488420247
 20
971.550597564534
 30
377.9346008300781
  0
SPLINE
  5
5CCCC
330
1F
100
AcDbEntity
  8
Default
100
AcDbSpline
210
0.0
220
0.0
230
1.0
 70
     8
 71
     3
 72
    12
 73
     8
 74
     0
 42
0.000000001
 43
0.0000000001
 40
-15.35241690788854
 40
-15.35241690788854
 40
-15.35241690788854
 40
-15.35241690788854
 40
-11.42846741267097
 40
-7.624448814229928
 40
-3.868777023834103
 40
-1.918304340297428
 40
0.0
 40
0.0
 40
0.0
 40
0.0
 10
244.527624312404
 20
932.5948740898139
 30
377.9346008300781
 10
244.5281600884423
 20
965.8024029006041
 30
377.9346008300781
 10
232.7053089012147
 20
1031.380276165935
 30
377.9346008300781
 10
179.2515234230454
 20
1114.938532138666
 30
377.9346008300781
 10
111.1818645456328
 20
1161.032073722446
 30
377.9346008300781
 10
49.05528682870045
 20
1179.67783082626
 30
377.9346008300781
 10
16.2930473131596
 20
1182.848012415893
 30
377.9346008300781
 10
0.0529796745422573
 20
1182.834534645152
 30
377.9346008300781
  0
SPLINE
  5
5CCCD
330
1F
100
AcDbEntity
  8
Default
100
AcDbSpline
210
0.0
220
0.0
230
1.0
 70
     8
 71
     3
 72
    12
 73
     8
 74
     0
 42
0.000000001
 43
0.0000000001
 40
0.0
 40
0.0
 40
0.0
 40
0.0
 40
1.918304340297428
 40
3.868777023834103
 40
7.624448814229928
 40
11.42846741267097
 40
15.35241690788854
 40
15.35241690788854
 40
15.35241690788854
 40
15.35241690788854
 10
0.0529796745422573
 20
1182.834534645152
 30
377.9346008300781
 10
-16.18708796407554
 20
1182.848012415893
 30
377.9346008300781
 10
-48.94932747961593
 20
1179.67783082626
 30
377.9346008300781
 10
-111.0759051965483
 20
1161.032073722446
 30
377.9346008300781
 10
-179.1455640739614
 20
1114.938532138666
 30
377.9346008300781
 10
-232.5993495521302
 20
1031.380276165935
 30
377.9346008300781
 10
-244.4222007393578
 20
965.8024029006041
 30
377.9346008300781
 10
-244.4216649633199
 20
932.5948740898139
 30
377.9346008300781
  0
SPLINE
  5
5CCCE
330
1F
100
AcDbEntity
  8
Default
100
AcDbSpline
210
0.0
220
0.0
230
1.0
 70
     8
 71
     3
 72
    12
 73
     8
 74
     0
 42
0.000000001
 43
0.0000000001
 40
-14.89017237659325
 40
-14.89017237659325
 40
-14.89017237659325
 40
-14.89017237659325
 40
-11.21816892444778
 40
-7.516681648226318
 40
-3.774518777477096
 40
-1.889354184169619
 40
0.0
 40
0.0
 40
0.0
 40
0.0
 10
-244.4216649633199
 20
932.5948740898139
 30
377.9346008300781
 10
-244.4299977125051
 20
901.5010502252819
 30
377.9346008300781
 10
-231.5483116363684
 20
839.0882859639132
 30
377.9346008300781
 10
-176.8873626365584
 20
760.1749911669062
 30
377.9346008300781
 10
-109.2444083241002
 20
716.5663923912127
 30
377.9346008300781
 10
-47.90171853864376
 20
698.5908063274657
 30
377.9346008300781
 10
-15.94222298771137
 20
695.5170645385765
 30
377.9346008300781
 10
0.0529796745422573
 20
695.5153415258389
 30
377.9346008300781
  0
SPLINE
  5
5CCCF
330
1F
100
AcDbEntity
  8
Default
100
AcDbSpline
210
0.0
220
0.0
230
1.0
 70
     8
 71
     3
 72
    12
 73
     8
 74
     0
 42
0.000000001
 43
0.0000000001
 40
0.0
 40
0.0
 40
0.0
 40
0.0
 40
1.889354184169619
 40
3.774518777477096
 40
7.516681648226318
 40
11.21816892444778
 40
14.89017237659325
 40
14.89017237659325
 40
14.89017237659325
 40
14.89017237659325
 10
0.0529796745422573
 20
695.5153415258389
 30
377.9346008300781
 10
16.04818233679589
 20
695.5170645385765
 30
377.9346008300781
 10
48.00767788772782
 20
698.5908063274657
 30
377.9346008300781
 10
109.3503676731843
 20
716.5663923912127
 30
377.9346008300781
 10
176.9933219856425
 20
760.1749911669062
 30
377.9346008300781
 10
231.654270985453
 20
839.0882859639132
 30
377.9346008300781
 10
244.5359570615897
 20
901.5010502252819
 30
377.9346008300781
 10
244.527624312404
 20
932.5948740898139
 30
377.9346008300781
  0
SPLINE
  5
5CCD0
330
1F
100
AcDbEntity
  8
Default
100
AcDbSpline
210
0.0
220
0.0
230
1.0
 70
     8
 71
     3
 72
    19
 73
    15
 74
     0
 42
0.000000001
 43
0.0000000001
 40
-12.0
 40
-12.0
 40
-12.0
 40
-12.0
 40
-11.0
 40
-10.0
 40
-9.0
 40
-8.0
 40
-7.0
 40
-6.0
 40
-5.0
 40
-4.0
 40
-3.0
 40
-2.0
 40
-1.0
 40
0.0
 40
0.0
 40
0.0
 40
0.0
 10
209.9496135275817
 20
766.3434458263857
 30
377.9346008300781
 10
227.3494212871437
 20
783.1006120410002
 30
377.9346008300781
 10
261.8537061346933
 20
816.733444846908
 30
377.9346008300781
 10
313.751370592795
 20
867.7576139947305
 30
377.9346008300781
 10
357.0267981193001
 20
924.9752588933695
 30
377.9346008300781
 10
400.8368810797792
 20
986.1368754327662
 30
377.9346008300781
 10
395.4359163151849
 20
1061.470431588233
 30
377.9346008300781
 10
365.0983289406154
 20
1127.62718878197
 30
377.9346008300781
 10
322.7615522919909
 20
1186.783058235579
 30
377.9346008300781
 10
269.8610325309642
 20
1236.71417458747
 30
377.9346008300781
 10
209.2327621185163
 20
1276.789497093864
 30
377.9346008300781
 10
142.7971575107181
 20
1306.245110913262
 30
377.9346008300781
 10
72.46796786608456
 20
1324.535276060729
 30
377.9346008300781
 10
24.19851892512361
 20
1328.79711638133
 30
377.9346008300781
 10
0.0529796745422573
 20
1328.80845942703
 30
377.9346008300781
  0
SPLINE
  5
5CCD1
330
1F
100
AcDbEntity
  8
Default
100
AcDbSpline
210
0.0
220
0.0
230
1.0
 70
     8
 71
     3
 72
    19
 73
    15
 74
     0
 42
0.000000001
 43
0.0000000001
 40
0.0
 40
0.0
 40
0.0
 40
0.0
 40
1.0
 40
2.0
 40
3.0
 40
4.0
 40
5.0
 40
6.0
 40
7.0
 40
8.0
 40
9.0
 40
10.0
 40
11.0
 40
12.0
 40
12.0
 40
12.0
 40
12.0
 10
0.0529796745422573
 20
1328.80845942703
 30
377.9346008300781
 10
-24.09255957603955
 20
1328.79711638133
 30
377.9346008300781
 10
-72.36200851700051
 20
1324.535276060729
 30
377.9346008300781
 10
-142.6911981616335
 20
1306.245110913262
 30
377.9346008300781
 10
-209.1268027694323
 20
1276.789497093864
 30
377.9346008300781
 10
-269.7550731818801
 20
1236.71417458747
 30
377.9346008300781
 10
-322.6555929429066
 20
1186.783058235579
 30
377.9346008300781
 10
-364.9923695915313
 20
1127.62718878197
 30
377.9346008300781
 10
-395.3299569661008
 20
1061.470431588233
 30
377.9346008300781
 10
-400.7309217306949
 20
986.1368754327662
 30
377.9346008300781
 10
-356.9208387702158
 20
924.9752588933695
 30
377.9346008300781
 10
-313.6454112437107
 20
867.7576139947305
 30
377.9346008300781
 10
-261.7477467856088
 20
816.733444846908
 30
377.9346008300781
 10
-227.2434619380597
 20
783.1006120410002
 30
377.9346008300781
 10
-209.8436541784977
 20
766.3434458263857
 30
377.9346008300781
  0
SPLINE
  5
5CCD6
330
1F
100
AcDbEntity
  8
Make2D visible lines - Tangent
100
AcDbSpline
210
0.0
220
0.0
230
1.0
 70
    12
 71
     2
 72
     6
 73
     3
 74
     0
 42
0.000000001
 43
0.0000000001
 40
-1.290200918579373
 40
-1.290200918579373
 40
-1.290200918579373
 40
0.0
 40
0.0
 40
0.0
 10
9.794592738397568
 20
679.8416103914838
 30
377.9346008300781
 41
0.9999999993028318
 10
9.612885980352075
 20
663.4466771983839
 30
377.9346008300781
 41
0.9999999996040196
 10
9.431399036945094
 20
647.0503290041188
 30
377.9346008300781
 41
1.0
  0
SPLINE
  5
5CCD7
330
1F
100
AcDbEntity
  8
Make2D visible lines - Tangent
100
AcDbSpline
210
0.0
220
0.0
230
1.0
 70
     8
 71
     3
 72
    14
 73
    10
 74
     0
 42
0.000000001
 43
0.0000000001
 40
0.0
 40
0.0
 40
0.0
 40
0.0
 40
1.0
 40
2.0
 40
3.0
 40
4.0
 40
5.0
 40
6.0
 40
7.0
 40
7.0
 40
7.0
 40
7.0
 10
9.431399036945094
 20
647.0503290041188
 30
377.9346008300781
 10
9.404731863387951
 20
645.2645664327751
 30
377.9346008300781
 10
8.889186372379299
 20
641.8956134956827
 30
377.9346008300781
 10
6.710251012907974
 20
637.2632333322067
 30
377.9346008300781
 10
2.661618855638153
 20
633.8390328459568
 30
377.9346008300781
 10
-2.753342753924698
 20
633.9248166289273
 30
377.9346008300781
 10
-6.719714547841249
 20
637.4292879892359
 30
377.9346008300781
 10
-8.838598665233348
 20
642.0873755857059
 30
377.9346008300781
 10
-9.318862310028634
 20
645.4614430573642
 30
377.9346008300781
 10
-9.319620325486539
 20
647.1488516296765
 30
377.9346008300781
  0
SPLINE
  5
5CCD8
330
1F
100
AcDbEntity
  8
Make2D visible lines - Tangent
100
AcDbSpline
210
0.0
220
0.0
230
1.0
 70
    12
 71
     2
 72
     6
 73
     3
 74
     0
 42
0.000000001
 43
0.0000000001
 40
0.0
 40
0.0
 40
0.0
 40
1.287184386108664
 40
1.287184386108664
 40
1.287184386108664
 10
-9.319620325486539
 20
647.1488516296765
 30
377.9346008300781
 41
1.0
 10
-9.499855850629046
 20
663.495099703547
 30
377.9346008300781
 41
0.9999999996049455
 10
-9.680408930009889
 20
679.8413442729445
 30
377.9346008300781
 41
0.9999999993042408
  0
SPLINE
  5
5CCD9
330
1F
100
AcDbEntity
  8
Make2D visible lines - Tangent
100
AcDbSpline
210
0.0
220
0.0
230
1.0
 70
     8
 71
     3
 72
    14
 73
    10
 74
     0
 42
0.000000001
 43
0.0000000001
 40
0.4515573393836121
 40
0.4515573393836121
 40
0.4515573393836121
 40
0.4515573393836121
 40
1.0
 40
2.0
 40
3.0
 40
4.0
 40
5.0
 40
6.0
 40
6.512759776800351
 40
6.512759776800351
 40
6.512759776800351
 40
6.512759776800351
 10
-9.147653022550457
 20
1328.701803454394
 30
377.9346008300781
 10
-9.018205664542165
 20
1329.634503311756
 30
377.9346008300781
 10
-8.455255605425008
 20
1332.193751517547
 30
377.9346008300781
 10
-6.604291663823914
 20
1336.128869927146
 30
377.9346008300781
 10
-2.555659506554093
 20
1339.553070413395
 30
377.9346008300781
 10
2.859302103008758
 20
1339.467286630425
 30
377.9346008300781
 10
6.825673896925309
 20
1335.962815270116
 30
377.9346008300781
 10
8.600422824220004
 20
1332.061263553709
 30
377.9346008300781
 10
9.135483651942195
 20
1329.558695480895
 30
377.9346008300781
 10
9.254715315241355
 20
1328.701778428383
 30
377.9346008300781
  0
SPLINE
  5
5CCDA
330
1F
100
AcDbEntity
  8
Make2D visible lines - Tangent
100
AcDbSpline
210
0.0
220
0.0
230
1.0
 70
    12
 71
     2
 72
     6
 73
     3
 74
     0
 42
0.000000001
 43
0.0000000001
 40
0.0250459851910298
 40
0.0250459851910298
 40
0.0250459851910298
 40
0.1369528492222414
 40
0.1369528492222414
 40
0.1369528492222414
 10
9.378865555307584
 20
1328.698942721382
 30
377.9346008300781
 41
0.9999988755525052
 10
9.357474832424031
 20
1330.119974726853
 30
377.9346008300781
 41
0.999996555042458
 10
9.373075560456527
 20
1331.541665527719
 30
377.9346008300781
 41
0.9999959461296658
  0
ARC
  5
5CCDB
330
1F
100
AcDbEntity
  8
Make2D visible lines - Tangent
100
AcDbCircle
 10
22.07135822245027
 20
1331.750513405622
 30
377.9346008300781
 40
12.7
100
AcDbArc
 50
168.4871521735321
 51
180.9422552251275
  0
SPLINE
  5
5CCDC
330
1F
100
AcDbEntity
  8
Make2D visible lines - Tangent
100
AcDbSpline
210
0.0
220
0.0
230
1.0
 70
     8
 71
     3
 72
    14
 73
    10
 74
     0
 42
0.000000001
 43
0.0000000001
 40
0.2772630823298201
 40
0.2772630823298201
 40
0.2772630823298201
 40
0.2772630823298201
 40
1.0
 40
2.0
 40
3.0
 40
4.0
 40
5.0
 40
6.0
 40
7.0
 40
7.0
 40
7.0
 40
7.0
 10
9.626882548300272
 20
1334.285276746741
 30
377.9346008300781
 10
9.832553011669006
 20
1335.295020353479
 30
377.9346008300781
 10
10.21523547866627
 20
1337.723915114906
 30
377.9346008300781
 10
10.33566625444791
 20
1341.614040856192
 30
377.9346008300781
 10
9.878100655535035
 20
1345.875559223934
 30
377.9346008300781
 10
8.82325480901909
 20
1350.034702426724
 30
377.9346008300781
 10
7.032850104921635
 20
1353.942937813857
 30
377.9346008300781
 10
4.236180365247946
 20
1357.269308836128
 30
377.9346008300781
 10
1.492740455938019
 20
1358.417902004896
 30
377.9346008300781
 10
0.0529669160309823
 20
1358.40501135994
 30
377.9346008300781
  0
SPLINE
  5
5CCDD
330
1F
100
AcDbEntity
  8
Make2D visible lines - Tangent
100
AcDbSpline
210
0.0
220
0.0
230
1.0
 70
     8
 71
     3
 72
    14
 73
    10
 74
     0
 42
0.000000001
 43
0.0000000001
 40
-7.0
 40
-7.0
 40
-7.0
 40
-7.0
 40
-6.0
 40
-5.0
 40
-4.0
 40
-3.0
 40
-2.0
 40
-1.0
 40
-0.2482205602640466
 40
-0.2482205602640466
 40
-0.2482205602640466
 40
-0.2482205602640466
 10
0.0529669160309823
 20
1358.40501135994
 30
377.9346008300781
 10
-1.386806623876054
 20
1358.417902004896
 30
377.9346008300781
 10
-4.130246533186436
 20
1357.269308836128
 30
377.9346008300781
 10
-6.926916272859671
 20
1353.942937813857
 30
377.9346008300781
 10
-8.71732097695758
 20
1350.034702426724
 30
377.9346008300781
 10
-9.772166823473071
 20
1345.875559223934
 30
377.9346008300781
 10
-10.22973242238595
 20
1341.614040856192
 30
377.9346008300781
 10
-10.10801705188623
 20
1337.682420447557
 30
377.9346008300781
 10
-9.713629276857318
 20
1335.21313521029
 30
377.9346008300781
 10
-9.495936654981505
 20
1334.163594898431
 30
377.9346008300781
  0
ARC
  5
5CCDE
330
1F
100
AcDbEntity
  8
Make2D visible lines - Tangent
100
AcDbCircle
 10
-21.93125809688354
 20
1331.584296420825
 30
377.9346008300781
 40
12.7
100
AcDbArc
 50
358.9775798079509
 51
11.71796787816246
  0
SPLINE
  5
5CCDF
330
1F
100
AcDbEntity
  8
Make2D visible lines - Tangent
100
AcDbSpline
210
0.0
220
0.0
230
1.0
 70
    12
 71
     2
 72
     6
 73
     3
 74
     0
 42
0.000000001
 43
0.0000000001
 40
-0.1297405451143296
 40
-0.1297405451143296
 40
-0.1297405451143296
 40
-0.025036663849024
 40
-0.025036663849024
 40
-0.025036663849024
 10
-9.23328007183818
 20
1331.3576820447
 30
377.9346008300781
 41
0.9999960316975588
 10
-9.257007487208284
 20
1330.028153865101
 30
377.9346008300781
 41
0.9999967046070288
 10
-9.283989763312547
 20
1328.698687758965
 30
377.9346008300781
 41
0.9999988759207846
  0
SPLINE
  5
5CCE3
330
1F
100
AcDbEntity
  8
Make2D visible lines
100
AcDbSpline
210
0.0
220
0.0
230
1.0
 70
    12
 71
     2
 72
     6
 73
     3
 74
     0
 42
0.000000001
 43
0.0000000001
 40
0.0
 40
0.0
 40
0.0
 40
0.0853474550214741
 40
0.0853474550214741
 40
0.0853474550214741
 10
10.33476444911639
 20
-634.8033709297483
 30
377.9346008300781
 41
1.0
 10
10.41064384936953
 20
-633.7216804723635
 30
377.9346008300781
 41
0.9993970637774639
 10
10.41127205573139
 20
-632.6373320346656
 30
377.9346008300781
 41
1.0
  0
SPLINE
  5
5CCE4
330
1F
100
AcDbEntity
  8
Make2D visible lines - Tangent
100
AcDbSpline
210
0.0
220
0.0
230
1.0
 70
     8
 71
     3
 72
    12
 73
     8
 74
     0
 42
0.000000001
 43
0.0000000001
 40
0.0
 40
0.0
 40
0.0
 40
0.0
 40
0.1510110321465192
 40
0.3037660471064116
 40
0.5900965017365678
 40
0.8249401141264362
 40
1.014583801502342
 40
1.014583801502342
 40
1.014583801502342
 40
1.014583801502342
 10
-10.15360447548892
 20
-635.6935500357422
 30
377.9346008300781
 10
-10.27847652343052
 20
-634.4204960305119
 30
377.9346008300781
 10
-10.3757528971405
 20
-631.8474797325582
 30
377.9346008300781
 10
-9.938571038371719
 20
-626.8577051299423
 30
377.9346008300781
 10
-8.403081690968974
 20
-621.3168659522867
 30
377.9346008300781
 10
-4.980486861681583
 20
-616.2151549351137
 30
377.9346008300781
 10
-1.581529058792057
 20
-614.5706439689752
 30
377.9346008300781
 10
0.0529798204274812
 20
-614.6024823530733
 30
377.9346008300781
  0
SPLINE
  5
5CCE5
330
1F
100
AcDbEntity
  8
Make2D visible lines - Tangent
100
AcDbSpline
210
0.0
220
0.0
230
1.0
 70
     8
 71
     3
 72
    12
 73
     8
 74
     0
 42
0.000000001
 43
0.0000000001
 40
-1.014583801502342
 40
-1.014583801502342
 40
-1.014583801502342
 40
-1.014583801502342
 40
-0.8249401141264362
 40
-0.5900965017365678
 40
-0.3037660471064116
 40
-0.1510110321465192
 40
0.0
 40
0.0
 40
0.0
 40
0.0
 10
0.0529798204274812
 20
-614.6024823530733
 30
377.9346008300781
 10
1.687488699647019
 20
-614.5706439689752
 30
377.9346008300781
 10
5.086446502536091
 20
-616.2151549351137
 30
377.9346008300781
 10
8.509041331823937
 20
-621.3168659522867
 30
377.9346008300781
 10
10.04453067922668
 20
-626.8577051299423
 30
377.9346008300781
 10
10.48171253799546
 20
-631.8474797325582
 30
377.9346008300781
 10
10.38443616428503
 20
-634.4204960305119
 30
377.9346008300781
 10
10.25956411634342
 20
-635.6935500357422
 30
377.9346008300781
  0
SPLINE
  5
5CCE6
330
1F
100
AcDbEntity
  8
Make2D visible lines - Tangent
100
AcDbSpline
210
0.0
220
0.0
230
1.0
 70
    12
 71
     2
 72
     6
 73
     3
 74
     0
 42
0.000000001
 43
0.0000000001
 40
0.0
 40
0.0
 40
0.0
 40
0.1369528492222414
 40
0.1369528492222414
 40
0.1369528492222414
 10
-9.284334076376126
 20
-645.3292105722612
 30
377.9346008300781
 41
1.0
 10
-9.248023871672558
 20
-643.5903183103855
 30
377.9346008300781
 41
0.9999966913238282
 10
-9.267116211372467
 20
-641.8504377316328
 30
377.9346008300781
 41
0.9999959461296658
  0
ARC
  5
5CCE7
330
1F
100
AcDbEntity
  8
Make2D visible lines - Tangent
100
AcDbCircle
 10
-21.96539887336621
 20
-641.6415898537302
 30
377.9346008300781
 40
12.7
100
AcDbArc
 50
359.0577447748724
 51
11.51284782646789
  0
SPLINE
  5
5CCE8
330
1F
100
AcDbEntity
  8
Make2D visible lines - Tangent
100
AcDbSpline
210
0.0
220
0.0
230
1.0
 70
     8
 71
     3
 72
    14
 73
    10
 74
     0
 42
0.000000001
 43
0.0000000001
 40
0.2772630823298201
 40
0.2772630823298201
 40
0.2772630823298201
 40
0.2772630823298201
 40
1.0
 40
2.0
 40
3.0
 40
4.0
 40
5.0
 40
6.0
 40
7.0
 40
7.0
 40
7.0
 40
7.0
 10
-9.520923199216213
 20
-639.1068265126104
 30
377.9346008300781
 10
-9.726593662584946
 20
-638.0970829058728
 30
377.9346008300781
 10
-10.10927612958221
 20
-635.668188144446
 30
377.9346008300781
 10
-10.22970690536385
 20
-631.7780624031599
 30
377.9346008300781
 10
-9.772141306450976
 20
-627.5165440354181
 30
377.9346008300781
 10
-8.71729545993503
 20
-623.3574008326281
 30
377.9346008300781
 10
-6.926890755837575
 20
-619.4491654454948
 30
377.9346008300781
 10
-4.130221016163886
 20
-616.1227944232237
 30
377.9346008300781
 10
-1.386781106853959
 20
-614.9742012544557
 30
377.9346008300781
 10
0.0529924330530776
 20
-614.9870918994122
 30
377.9346008300781
  0
SPLINE
  5
5CCE9
330
1F
100
AcDbEntity
  8
Make2D visible lines - Tangent
100
AcDbSpline
210
0.0
220
0.0
230
1.0
 70
     8
 71
     3
 72
    14
 73
    10
 74
     0
 42
0.000000001
 43
0.0000000001
 40
-7.0
 40
-7.0
 40
-7.0
 40
-7.0
 40
-6.0
 40
-5.0
 40
-4.0
 40
-3.0
 40
-2.0
 40
-1.0
 40
-0.2482205602640466
 40
-0.2482205602640466
 40
-0.2482205602640466
 40
-0.2482205602640466
 10
0.0529924330530776
 20
-614.9870918994122
 30
377.9346008300781
 10
1.492765972960114
 20
-614.9742012544557
 30
377.9346008300781
 10
4.236205882270041
 20
-616.1227944232237
 30
377.9346008300781
 10
7.03287562194373
 20
-619.4491654454948
 30
377.9346008300781
 10
8.82328032604164
 20
-623.3574008326281
 30
377.9346008300781
 10
9.878126172557131
 20
-627.5165440354181
 30
377.9346008300781
 10
10.33569177147001
 20
-631.7780624031599
 30
377.9346008300781
 10
10.21397640097029
 20
-635.709682811796
 30
377.9346008300781
 10
9.819588625941378
 20
-638.1789680490624
 30
377.9346008300781
 10
9.601896004065565
 20
-639.2285083609213
 30
377.9346008300781
  0
ARC
  5
5CCEA
330
1F
100
AcDbEntity
  8
Make2D visible lines - Tangent
100
AcDbCircle
 10
22.03721744596714
 20
-641.8078068385271
 30
377.9346008300781
 40
12.7
100
AcDbArc
 50
168.2820321218376
 51
181.022420192049
  0
SPLINE
  5
5CCEB
330
1F
100
AcDbEntity
  8
Make2D visible lines - Tangent
100
AcDbSpline
210
0.0
220
0.0
230
1.0
 70
    12
 71
     2
 72
     6
 73
     3
 74
     0
 42
0.000000001
 43
0.0000000001
 40
-0.1297405451143296
 40
-0.1297405451143296
 40
-0.1297405451143296
 40
0.0
 40
0.0
 40
0.0
 10
9.33923942092224
 20
-642.0344212146524
 30
377.9346008300781
 41
0.9999960316975588
 10
9.368640502063954
 20
-643.6818642790947
 30
377.9346008300781
 41
0.999996865512317
 10
9.403039114579314
 20
-645.3292105722612
 30
377.9346008300781
 41
1.0
  0
SPLINE
  5
5CCEC
330
1F
100
AcDbEntity
  8
Make2D visible lines - Tangent
100
AcDbSpline
210
0.0
220
0.0
230
1.0
 70
     8
 71
     3
 72
    12
 73
     8
 74
     0
 42
0.000000001
 43
0.0000000001
 40
0.0
 40
0.0
 40
0.0
 40
0.0
 40
0.1510110321465192
 40
0.3037660471064116
 40
0.5900965017365678
 40
0.8249401141264362
 40
1.014583801502342
 40
1.014583801502342
 40
1.014583801502342
 40
1.014583801502342
 10
10.25956382457298
 20
-1337.69855322361
 30
377.9346008300781
 10
10.38443587251413
 20
-1338.97160722884
 30
377.9346008300781
 10
10.48171224622456
 20
-1341.544623526794
 30
377.9346008300781
 10
10.04453038745578
 20
-1346.53439812941
 30
377.9346008300781
 10
8.509041040053034
 20
-1352.075237307065
 30
377.9346008300781
 10
5.086446210765643
 20
-1357.176948324238
 30
377.9346008300781
 10
1.687488407876116
 20
-1358.821459290377
 30
377.9346008300781
 10
0.0529795286565786
 20
-1358.789620906279
 30
377.9346008300781
  0
SPLINE
  5
5CCED
330
1F
100
AcDbEntity
  8
Make2D visible lines - Tangent
100
AcDbSpline
210
0.0
220
0.0
230
1.0
 70
     8
 71
     3
 72
    12
 73
     8
 74
     0
 42
0.000000001
 43
0.0000000001
 40
-1.014583801502342
 40
-1.014583801502342
 40
-1.014583801502342
 40
-1.014583801502342
 40
-0.8249401141264362
 40
-0.5900965017365678
 40
-0.3037660471064116
 40
-0.1510110321465192
 40
0.0
 40
0.0
 40
0.0
 40
0.0
 10
0.0529795286565786
 20
-1358.789620906279
 30
377.9346008300781
 10
-1.581529350562959
 20
-1358.821459290377
 30
377.9346008300781
 10
-4.980487153452486
 20
-1357.176948324238
 30
377.9346008300781
 10
-8.403081982739877
 20
-1352.075237307065
 30
377.9346008300781
 10
-9.938571330142622
 20
-1346.53439812941
 30
377.9346008300781
 10
-10.3757531889114
 20
-1341.544623526794
 30
377.9346008300781
 10
-10.27847681520097
 20
-1338.97160722884
 30
377.9346008300781
 10
-10.15360476725936
 20
-1337.69855322361
 30
377.9346008300781
  0
SPLINE
  5
5CCEE
330
1F
100
AcDbEntity
  8
Make2D visible lines
100
AcDbSpline
210
0.0
220
0.0
230
1.0
 70
    12
 71
     2
 72
     6
 73
     3
 74
     0
 42
0.000000001
 43
0.0000000001
 40
0.0
 40
0.0
 40
0.0
 40
0.0853474550214741
 40
0.0853474550214741
 40
0.0853474550214741
 10
-10.22880510003233
 20
-1338.588732329604
 30
377.9346008300781
 41
1.0
 10
-10.30468450028547
 20
-1339.670422786989
 30
377.9346008300781
 41
0.9993970637774639
 10
-10.30531270664733
 20
-1340.754771224687
 30
377.9346008300781
 41
1.0
  0
SPLINE
  5
5CCEF
330
1F
100
AcDbEntity
  8
Default
100
AcDbSpline
210
0.0
220
0.0
230
1.0
 70
     8
 71
     3
 72
    10
 73
     6
 74
     0
 42
0.000000001
 43
0.0000000001
 40
0.0
 40
0.0
 40
0.0
 40
0.0
 40
1.0
 40
2.0
 40
3.0
 40
3.0
 40
3.0
 40
3.0
 10
378.8031488420247
 20
-971.550597564534
 30
377.9346008300781
 10
384.5209343618262
 20
-983.1826582003779
 30
377.9346008300781
 10
389.9138112295404
 20
-1008.961726047683
 30
377.9346008300781
 10
384.7957176907598
 20
-1047.71575940784
 30
377.9346008300781
 10
376.7737291200133
 20
-1072.333390598161
 30
377.9346008300781
 10
371.8493850769992
 20
-1084.281451334379
 30
377.9346008300781
  0
SPLINE
  5
5CCF0
330
1F
100
AcDbEntity
  8
Default
100
AcDbSpline
210
0.0
220
0.0
230
1.0
 70
     8
 71
     3
 72
    10
 73
     6
 74
     0
 42
0.000000001
 43
0.0000000001
 40
-3.0
 40
-3.0
 40
-3.0
 40
-3.0
 40
-2.0
 40
-1.0
 40
0.0
 40
0.0
 40
0.0
 40
0.0
 10
371.8493850769992
 20
-1084.281451334379
 30
377.9346008300781
 10
352.0782502978905
 20
-1132.042142816815
 30
377.9346008300781
 10
289.5246268909095
 20
-1216.924314164887
 30
377.9346008300781
 10
154.9001909455919
 20
-1298.618787131312
 30
377.9346008300781
 10
51.65973888111875
 20
-1317.324244018896
 30
377.9346008300781
 10
0.0529796745422573
 20
-1316.904793592642
 30
377.9346008300781
  0
SPLINE
  5
5CCF1
330
1F
100
AcDbEntity
  8
Default
100
AcDbSpline
210
0.0
220
0.0
230
1.0
 70
     8
 71
     3
 72
    10
 73
     6
 74
     0
 42
0.000000001
 43
0.0000000001
 40
0.0
 40
0.0
 40
0.0
 40
0.0
 40
1.0
 40
2.0
 40
3.0
 40
3.0
 40
3.0
 40
3.0
 10
0.0529796745422573
 20
-1316.904793592642
 30
377.9346008300781
 10
-51.55377953203424
 20
-1317.324244018896
 30
377.9346008300781
 10
-154.7942315965074
 20
-1298.618787131312
 30
377.9346008300781
 10
-289.4186675418252
 20
-1216.924314164887
 30
377.9346008300781
 10
-351.972290948806
 20
-1132.042142816815
 30
377.9346008300781
 10
-371.7434257279147
 20
-1084.281451334379
 30
377.9346008300781
  0
SPLINE
  5
5CCF2
330
1F
100
AcDbEntity
  8
Default
100
AcDbSpline
210
0.0
220
0.0
230
1.0
 70
     8
 71
     3
 72
    10
 73
     6
 74
     0
 42
0.000000001
 43
0.0000000001
 40
-3.0
 40
-3.0
 40
-3.0
 40
-3.0
 40
-2.0
 40
-1.0
 40
0.0
 40
0.0
 40
0.0
 40
0.0
 10
-371.7434257279147
 20
-1084.281451334379
 30
377.9346008300781
 10
-376.6677697709292
 20
-1072.333390598161
 30
377.9346008300781
 10
-384.6897583416753
 20
-1047.71575940784
 30
377.9346008300781
 10
-389.8078518804564
 20
-1008.961726047683
 30
377.9346008300781
 10
-384.4149750127419
 20
-983.1826582003779
 30
377.9346008300781
 10
-378.6971894929404
 20
-971.550597564534
 30
377.9346008300781
  0
ARC
  5
5CCF3
330
1F
100
AcDbEntity
  8
Default
100
AcDbCircle
 10
68.40536419261798
 20
-1158.929469708673
 30
377.9346008300781
 40
455.7859007505599
100
AcDbArc
 50
124.534798633098
 51
133.3741222382037
  0
SPLINE
  5
5CCF4
330
1F
100
AcDbEntity
  8
Default
100
AcDbSpline
210
0.0
220
0.0
230
1.0
 70
     8
 71
     3
 72
    14
 73
    10
 74
     0
 42
0.000000001
 43
0.0000000001
 40
0.0000000000000002
 40
0.0000000000000002
 40
0.0000000000000002
 40
0.0000000000000002
 40
1.0
 40
2.0
 40
3.0
 40
4.0
 40
5.0
 40
6.0
 40
7.0
 40
7.0
 40
7.0
 40
7.0
 10
-244.6098336278869
 20
-827.6255710651625
 30
377.9346008300781
 10
-254.9418434618219
 20
-837.3872313272189
 30
377.9346008300781
 10
-275.3552978712237
 20
-857.2148277475845
 30
377.9346008300781
 10
-303.6767788057377
 20
-889.1121884991617
 30
377.9346008300781
 10
-331.2218536853911
 20
-921.7197096190693
 30
377.9346008300781
 10
-356.4333805800065
 20
-956.0674963538117
 30
377.9346008300781
 10
-375.603335843507
 20
-994.9685720937518
 30
377.9346008300781
 10
-374.4257098219926
 20
-1038.663334954086
 30
377.9346008300781
 10
-366.5034935093704
 20
-1065.983637841168
 30
377.9346008300781
 10
-361.2116660976776
 20
-1079.204704143887
 30
377.9346008300781
  0
ARC
  5
5CCF5
330
1F
100
AcDbEntity
  8
Default
100
AcDbCircle
 10
-68.29940484353347
 20
-1158.929469708673
 30
377.9346008300781
 40
455.7859007505599
100
AcDbArc
 50
46.62587776179636
 51
55.46520136690202
  0
SPLINE
  5
5CCF6
330
1F
100
AcDbEntity
  8
Default
100
AcDbSpline
210
0.0
220
0.0
230
1.0
 70
     8
 71
     3
 72
    14
 73
    10
 74
     0
 42
0.000000001
 43
0.0000000001
 40
0.0000000000000002
 40
0.0000000000000002
 40
0.0000000000000002
 40
0.0000000000000002
 40
1.0
 40
2.0
 40
3.0
 40
4.0
 40
5.0
 40
6.0
 40
7.0
 40
7.0
 40
7.0
 40
7.0
 10
244.715792976971
 20
-827.6255710651625
 30
377.9346008300781
 10
255.047802810906
 20
-837.3872313272189
 30
377.9346008300781
 10
275.4612572203078
 20
-857.2148277475845
 30
377.9346008300781
 10
303.7827381548222
 20
-889.1121884991617
 30
377.9346008300781
 10
331.3278130344752
 20
-921.7197096190693
 30
377.9346008300781
 10
356.5393399290906
 20
-956.0674963538117
 30
377.9346008300781
 10
375.7092951925911
 20
-994.9685720937518
 30
377.9346008300781
 10
374.5316691710768
 20
-1038.663334954086
 30
377.9346008300781
 10
366.6094528584549
 20
-1065.983637841168
 30
377.9346008300781
 10
361.3176254467617
 20
-1079.204704143887
 30
377.9346008300781
  0
SPLINE
  5
5CCF7
330
1F
100
AcDbEntity
  8
Default
100
AcDbSpline
210
0.0
220
0.0
230
1.0
 70
     8
 71
     3
 72
    24
 73
    20
 74
     0
 42
0.000000001
 43
0.0000000001
 40
0.0
 40
0.0
 40
0.0
 40
0.0
 40
1.0
 40
2.0
 40
3.0
 40
4.0
 40
5.0
 40
6.0
 40
7.0
 40
8.0
 40
9.0
 40
10.0
 40
11.0
 40
12.0
 40
13.0
 40
14.0
 40
15.0
 40
16.0
 40
17.0
 40
17.0
 40
17.0
 40
17.0
 10
-378.697243095324
 20
-971.550597564534
 30
377.9346008300781
 10
-374.444572303759
 20
-962.7268915447443
 30
377.9346008300781
 10
-364.4501175642072
 20
-945.8623379639595
 30
377.9346008300781
 10
-347.6817345109023
 20
-921.7322876640235
 30
377.9346008300781
 10
-329.3674050808747
 20
-898.765114499942
 30
377.9346008300781
 10
-310.8813181380433
 20
-875.9469431432803
 30
377.9346008300781
 10
-292.2300245233109
 20
-853.2587734014787
 30
377.9346008300781
 10
-272.9153281847275
 20
-831.1303427968406
 30
377.9346008300781
 10
-252.8529704699854
 20
-809.6749899897186
 30
377.9346008300781
 10
-232.1355584386497
 20
-788.8610170193062
 30
377.9346008300781
 10
-211.6606583673115
 20
-767.7914688812511
 30
377.9346008300781
 10
-189.5668104139722
 20
-748.4010157190548
 30
377.9346008300781
 10
-165.9187435423127
 20
-730.9437635896397
 30
377.9346008300781
 10
-140.8157500021943
 20
-715.6411532774027
 30
377.9346008300781
 10
-114.4095262517066
 20
-702.7136221181783
 30
377.9346008300781
 10
-86.85776191886906
 20
-692.4339567231793
 30
377.9346008300781
 10
-58.39086392418448
 20
-685.0560276336969
 30
377.9346008300781
 10
-29.31666250043873
 20
-680.643865362173
 30
377.9346008300781
 10
-9.736637184648316
 20
-679.6767102502301
 30
377.9346008300781
 10
0.0529528733504776
 20
-679.6930069226505
 30
377.9346008300781
  0
SPLINE
  5
5CCF8
330
1F
100
AcDbEntity
  8
Default
100
AcDbSpline
210
0.0
220
0.0
230
1.0
 70
     8
 71
     3
 72
    24
 73
    20
 74
     0
 42
0.000000001
 43
0.0000000001
 40
-17.0
 40
-17.0
 40
-17.0
 40
-17.0
 40
-16.0
 40
-15.0
 40
-14.0
 40
-13.0
 40
-12.0
 40
-11.0
 40
-10.0
 40
-9.0
 40
-8.0
 40
-7.0
 40
-6.0
 40
-5.0
 40
-4.0
 40
-3.0
 40
-2.0
 40
-1.0
 40
0.0
 40
0.0
 40
0.0
 40
0.0
 10
0.0529528733504776
 20
-679.6930069226505
 30
377.9346008300781
 10
9.842542931348816
 20
-679.6767102502301
 30
377.9346008300781
 10
29.42256824713922
 20
-680.643865362173
 30
377.9346008300781
 10
58.49676967088498
 20
-685.0560276336969
 30
377.9346008300781
 10
86.96366766556957
 20
-692.4339567231793
 30
377.9346008300781
 10
114.5154319984071
 20
-702.7136221181783
 30
377.9346008300781
 10
140.9216557488948
 20
-715.6411532774027
 30
377.9346008300781
 10
166.0246492890133
 20
-730.9437635896397
 30
377.9346008300781
 10
189.6727161606732
 20
-748.4010157190548
 30
377.9346008300781
 10
211.7665641140125
 20
-767.7914688812511
 30
377.9346008300781
 10
232.2414641853506
 20
-788.8610170193062
 30
377.9346008300781
 10
252.9588762166859
 20
-809.6749899897186
 30
377.9346008300781
 10
273.0212339314284
 20
-831.1303427968406
 30
377.9346008300781
 10
292.3359302700119
 20
-853.2587734014787
 30
377.9346008300781
 10
310.9872238847438
 20
-875.9469431432803
 30
377.9346008300781
 10
329.4733108275754
 20
-898.765114499942
 30
377.9346008300781
 10
347.787640257603
 20
-921.7322876640235
 30
377.9346008300781
 10
364.5560233109081
 20
-945.8623379639595
 30
377.9346008300781
 10
374.5504780504598
 20
-962.7268915447443
 30
377.9346008300781
 10
378.8031488420247
 20
-971.550597564534
 30
377.9346008300781
  0
SPLINE
  5
5CCF9
330
1F
100
AcDbEntity
  8
Default
100
AcDbSpline
210
0.0
220
0.0
230
1.0
 70
     8
 71
     3
 72
    12
 73
     8
 74
     0
 42
0.000000001
 43
0.0000000001
 40
-15.35241690788854
 40
-15.35241690788854
 40
-15.35241690788854
 40
-15.35241690788854
 40
-11.42846741267097
 40
-7.624448814229928
 40
-3.868777023834103
 40
-1.918304340297428
 40
0.0
 40
0.0
 40
0.0
 40
0.0
 10
244.527624312404
 20
-932.5948740898139
 30
377.9346008300781
 10
244.5281600884423
 20
-965.8024029006041
 30
377.9346008300781
 10
232.7053089012147
 20
-1031.380276165935
 30
377.9346008300781
 10
179.2515234230454
 20
-1114.938532138666
 30
377.9346008300781
 10
111.1818645456328
 20
-1161.032073722446
 30
377.9346008300781
 10
49.05528682870045
 20
-1179.67783082626
 30
377.9346008300781
 10
16.2930473131596
 20
-1182.848012415893
 30
377.9346008300781
 10
0.0529796745422573
 20
-1182.834534645152
 30
377.9346008300781
  0
SPLINE
  5
5CCFA
330
1F
100
AcDbEntity
  8
Default
100
AcDbSpline
210
0.0
220
0.0
230
1.0
 70
     8
 71
     3
 72
    12
 73
     8
 74
     0
 42
0.000000001
 43
0.0000000001
 40
0.0
 40
0.0
 40
0.0
 40
0.0
 40
1.918304340297428
 40
3.868777023834103
 40
7.624448814229928
 40
11.42846741267097
 40
15.35241690788854
 40
15.35241690788854
 40
15.35241690788854
 40
15.35241690788854
 10
0.0529796745422573
 20
-1182.834534645152
 30
377.9346008300781
 10
-16.18708796407554
 20
-1182.848012415893
 30
377.9346008300781
 10
-48.94932747961593
 20
-1179.67783082626
 30
377.9346008300781
 10
-111.0759051965483
 20
-1161.032073722446
 30
377.9346008300781
 10
-179.1455640739614
 20
-1114.938532138666
 30
377.9346008300781
 10
-232.5993495521302
 20
-1031.380276165935
 30
377.9346008300781
 10
-244.4222007393578
 20
-965.8024029006041
 30
377.9346008300781
 10
-244.4216649633199
 20
-932.5948740898139
 30
377.9346008300781
  0
SPLINE
  5
5CCFB
330
1F
100
AcDbEntity
  8
Default
100
AcDbSpline
210
0.0
220
0.0
230
1.0
 70
     8
 71
     3
 72
    12
 73
     8
 74
     0
 42
0.000000001
 43
0.0000000001
 40
-14.89017237659325
 40
-14.89017237659325
 40
-14.89017237659325
 40
-14.89017237659325
 40
-11.21816892444778
 40
-7.516681648226318
 40
-3.774518777477096
 40
-1.889354184169619
 40
0.0
 40
0.0
 40
0.0
 40
0.0
 10
-244.4216649633199
 20
-932.5948740898139
 30
377.9346008300781
 10
-244.4299977125051
 20
-901.5010502252819
 30
377.9346008300781
 10
-231.5483116363684
 20
-839.0882859639132
 30
377.9346008300781
 10
-176.8873626365584
 20
-760.1749911669062
 30
377.9346008300781
 10
-109.2444083241002
 20
-716.5663923912127
 30
377.9346008300781
 10
-47.90171853864376
 20
-698.5908063274657
 30
377.9346008300781
 10
-15.94222298771137
 20
-695.5170645385765
 30
377.9346008300781
 10
0.0529796745422573
 20
-695.5153415258389
 30
377.9346008300781
  0
SPLINE
  5
5CCFC
330
1F
100
AcDbEntity
  8
Default
100
AcDbSpline
210
0.0
220
0.0
230
1.0
 70
     8
 71
     3
 72
    12
 73
     8
 74
     0
 42
0.000000001
 43
0.0000000001
 40
0.0
 40
0.0
 40
0.0
 40
0.0
 40
1.889354184169619
 40
3.774518777477096
 40
7.516681648226318
 40
11.21816892444778
 40
14.89017237659325
 40
14.89017237659325
 40
14.89017237659325
 40
14.89017237659325
 10
0.0529796745422573
 20
-695.5153415258389
 30
377.9346008300781
 10
16.04818233679589
 20
-695.5170645385765
 30
377.9346008300781
 10
48.00767788772782
 20
-698.5908063274657
 30
377.9346008300781
 10
109.3503676731843
 20
-716.5663923912127
 30
377.9346008300781
 10
176.9933219856425
 20
-760.1749911669062
 30
377.9346008300781
 10
231.654270985453
 20
-839.0882859639132
 30
377.9346008300781
 10
244.5359570615897
 20
-901.5010502252819
 30
377.9346008300781
 10
244.527624312404
 20
-932.5948740898139
 30
377.9346008300781
  0
SPLINE
  5
5CCFD
330
1F
100
AcDbEntity
  8
Default
100
AcDbSpline
210
0.0
220
0.0
230
1.0
 70
     8
 71
     3
 72
    19
 73
    15
 74
     0
 42
0.000000001
 43
0.0000000001
 40
-12.0
 40
-12.0
 40
-12.0
 40
-12.0
 40
-11.0
 40
-10.0
 40
-9.0
 40
-8.0
 40
-7.0
 40
-6.0
 40
-5.0
 40
-4.0
 40
-3.0
 40
-2.0
 40
-1.0
 40
0.0
 40
0.0
 40
0.0
 40
0.0
 10
209.9496135275817
 20
-766.3434458263857
 30
377.9346008300781
 10
227.3494212871437
 20
-783.1006120410002
 30
377.9346008300781
 10
261.8537061346933
 20
-816.733444846908
 30
377.9346008300781
 10
313.751370592795
 20
-867.7576139947305
 30
377.9346008300781
 10
357.0267981193001
 20
-924.9752588933695
 30
377.9346008300781
 10
400.8368810797792
 20
-986.1368754327662
 30
377.9346008300781
 10
395.4359163151849
 20
-1061.470431588233
 30
377.9346008300781
 10
365.0983289406154
 20
-1127.62718878197
 30
377.9346008300781
 10
322.7615522919909
 20
-1186.783058235579
 30
377.9346008300781
 10
269.8610325309642
 20
-1236.71417458747
 30
377.9346008300781
 10
209.2327621185163
 20
-1276.789497093864
 30
377.9346008300781
 10
142.7971575107181
 20
-1306.245110913262
 30
377.9346008300781
 10
72.46796786608456
 20
-1324.535276060729
 30
377.9346008300781
 10
24.19851892512361
 20
-1328.79711638133
 30
377.9346008300781
 10
0.0529796745422573
 20
-1328.80845942703
 30
377.9346008300781
  0
SPLINE
  5
5CCFE
330
1F
100
AcDbEntity
  8
Default
100
AcDbSpline
210
0.0
220
0.0
230
1.0
 70
     8
 71
     3
 72
    19
 73
    15
 74
     0
 42
0.000000001
 43
0.0000000001
 40
0.0
 40
0.0
 40
0.0
 40
0.0
 40
1.0
 40
2.0
 40
3.0
 40
4.0
 40
5.0
 40
6.0
 40
7.0
 40
8.0
 40
9.0
 40
10.0
 40
11.0
 40
12.0
 40
12.0
 40
12.0
 40
12.0
 10
0.0529796745422573
 20
-1328.80845942703
 30
377.9346008300781
 10
-24.09255957603955
 20
-1328.79711638133
 30
377.9346008300781
 10
-72.36200851700051
 20
-1324.535276060729
 30
377.9346008300781
 10
-142.6911981616335
 20
-1306.245110913262
 30
377.9346008300781
 10
-209.1268027694323
 20
-1276.789497093864
 30
377.9346008300781
 10
-269.7550731818801
 20
-1236.71417458747
 30
377.9346008300781
 10
-322.6555929429066
 20
-1186.783058235579
 30
377.9346008300781
 10
-364.9923695915313
 20
-1127.62718878197
 30
377.9346008300781
 10
-395.3299569661008
 20
-1061.470431588233
 30
377.9346008300781
 10
-400.7309217306949
 20
-986.1368754327662
 30
377.9346008300781
 10
-356.9208387702158
 20
-924.9752588933695
 30
377.9346008300781
 10
-313.6454112437107
 20
-867.7576139947305
 30
377.9346008300781
 10
-261.7477467856088
 20
-816.733444846908
 30
377.9346008300781
 10
-227.2434619380597
 20
-783.1006120410002
 30
377.9346008300781
 10
-209.8436541784977
 20
-766.3434458263857
 30
377.9346008300781
  0
SPLINE
  5
5CCFF
330
1F
100
AcDbEntity
  8
Make2D visible lines - Tangent
100
AcDbSpline
210
0.0
220
0.0
230
1.0
 70
    12
 71
     2
 72
     6
 73
     3
 74
     0
 42
0.000000001
 43
0.0000000001
 40
-1.290200918579373
 40
-1.290200918579373
 40
-1.290200918579373
 40
0.0
 40
0.0
 40
0.0
 10
9.794592738397568
 20
-679.8416103914838
 30
377.9346008300781
 41
0.9999999993028318
 10
9.612885980352075
 20
-663.4466771983839
 30
377.9346008300781
 41
0.9999999996040196
 10
9.431399036945094
 20
-647.0503290041188
 30
377.9346008300781
 41
1.0
  0
SPLINE
  5
5CD00
330
1F
100
AcDbEntity
  8
Make2D visible lines - Tangent
100
AcDbSpline
210
0.0
220
0.0
230
1.0
 70
     8
 71
     3
 72
    14
 73
    10
 74
     0
 42
0.000000001
 43
0.0000000001
 40
0.0
 40
0.0
 40
0.0
 40
0.0
 40
1.0
 40
2.0
 40
3.0
 40
4.0
 40
5.0
 40
6.0
 40
7.0
 40
7.0
 40
7.0
 40
7.0
 10
9.431399036945094
 20
-647.0503290041188
 30
377.9346008300781
 10
9.404731863387951
 20
-645.2645664327751
 30
377.9346008300781
 10
8.889186372379299
 20
-641.8956134956827
 30
377.9346008300781
 10
6.710251012907974
 20
-637.2632333322067
 30
377.9346008300781
 10
2.661618855638153
 20
-633.8390328459568
 30
377.9346008300781
 10
-2.753342753924698
 20
-633.9248166289273
 30
377.9346008300781
 10
-6.719714547841249
 20
-637.4292879892359
 30
377.9346008300781
 10
-8.838598665233348
 20
-642.0873755857059
 30
377.9346008300781
 10
-9.318862310028634
 20
-645.4614430573642
 30
377.9346008300781
 10
-9.319620325486539
 20
-647.1488516296765
 30
377.9346008300781
  0
SPLINE
  5
5CD01
330
1F
100
AcDbEntity
  8
Make2D visible lines - Tangent
100
AcDbSpline
210
0.0
220
0.0
230
1.0
 70
    12
 71
     2
 72
     6
 73
     3
 74
     0
 42
0.000000001
 43
0.0000000001
 40
0.0
 40
0.0
 40
0.0
 40
1.287184386108664
 40
1.287184386108664
 40
1.287184386108664
 10
-9.319620325486539
 20
-647.1488516296765
 30
377.9346008300781
 41
1.0
 10
-9.499855850629046
 20
-663.495099703547
 30
377.9346008300781
 41
0.9999999996049455
 10
-9.680408930009889
 20
-679.8413442729445
 30
377.9346008300781
 41
0.9999999993042408
  0
SPLINE
  5
5CD02
330
1F
100
AcDbEntity
  8
Make2D visible lines - Tangent
100
AcDbSpline
210
0.0
220
0.0
230
1.0
 70
     8
 71
     3
 72
    14
 73
    10
 74
     0
 42
0.000000001
 43
0.0000000001
 40
0.4515573393836121
 40
0.4515573393836121
 40
0.4515573393836121
 40
0.4515573393836121
 40
1.0
 40
2.0
 40
3.0
 40
4.0
 40
5.0
 40
6.0
 40
6.512759776800351
 40
6.512759776800351
 40
6.512759776800351
 40
6.512759776800351
 10
-9.147653022550457
 20
-1328.701803454394
 30
377.9346008300781
 10
-9.018205664542165
 20
-1329.634503311756
 30
377.9346008300781
 10
-8.455255605425008
 20
-1332.193751517547
 30
377.9346008300781
 10
-6.604291663823914
 20
-1336.128869927146
 30
377.9346008300781
 10
-2.555659506554093
 20
-1339.553070413395
 30
377.9346008300781
 10
2.859302103008758
 20
-1339.467286630425
 30
377.9346008300781
 10
6.825673896925309
 20
-1335.962815270116
 30
377.9346008300781
 10
8.600422824220004
 20
-1332.061263553709
 30
377.9346008300781
 10
9.135483651942195
 20
-1329.558695480895
 30
377.9346008300781
 10
9.254715315241355
 20
-1328.701778428383
 30
377.9346008300781
  0
SPLINE
  5
5CD03
330
1F
100
AcDbEntity
  8
Make2D visible lines - Tangent
100
AcDbSpline
210
0.0
220
0.0
230
1.0
 70
    12
 71
     2
 72
     6
 73
     3
 74
     0
 42
0.000000001
 43
0.0000000001
 40
0.0250459851910298
 40
0.0250459851910298
 40
0.0250459851910298
 40
0.1369528492222414
 40
0.1369528492222414
 40
0.1369528492222414
 10
9.378865555307584
 20
-1328.698942721382
 30
377.9346008300781
 41
0.9999988755525052
 10
9.357474832424031
 20
-1330.119974726853
 30
377.9346008300781
 41
0.999996555042458
 10
9.373075560456527
 20
-1331.541665527719
 30
377.9346008300781
 41
0.9999959461296658
  0
ARC
  5
5CD04
330
1F
100
AcDbEntity
  8
Make2D visible lines - Tangent
100
AcDbCircle
 10
22.07135822245027
 20
-1331.750513405622
 30
377.9346008300781
 40
12.7
100
AcDbArc
 50
179.0577447748725
 51
191.5128478264679
  0
SPLINE
  5
5CD05
330
1F
100
AcDbEntity
  8
Make2D visible lines - Tangent
100
AcDbSpline
210
0.0
220
0.0
230
1.0
 70
     8
 71
     3
 72
    14
 73
    10
 74
     0
 42
0.000000001
 43
0.0000000001
 40
0.2772630823298201
 40
0.2772630823298201
 40
0.2772630823298201
 40
0.2772630823298201
 40
1.0
 40
2.0
 40
3.0
 40
4.0
 40
5.0
 40
6.0
 40
7.0
 40
7.0
 40
7.0
 40
7.0
 10
9.626882548300272
 20
-1334.285276746741
 30
377.9346008300781
 10
9.832553011669006
 20
-1335.295020353479
 30
377.9346008300781
 10
10.21523547866627
 20
-1337.723915114906
 30
377.9346008300781
 10
10.33566625444791
 20
-1341.614040856192
 30
377.9346008300781
 10
9.878100655535035
 20
-1345.875559223934
 30
377.9346008300781
 10
8.82325480901909
 20
-1350.034702426724
 30
377.9346008300781
 10
7.032850104921635
 20
-1353.942937813857
 30
377.9346008300781
 10
4.236180365247946
 20
-1357.269308836128
 30
377.9346008300781
 10
1.492740455938019
 20
-1358.417902004896
 30
377.9346008300781
 10
0.0529669160309823
 20
-1358.40501135994
 30
377.9346008300781
  0
SPLINE
  5
5CD06
330
1F
100
AcDbEntity
  8
Make2D visible lines - Tangent
100
AcDbSpline
210
0.0
220
0.0
230
1.0
 70
     8
 71
     3
 72
    14
 73
    10
 74
     0
 42
0.000000001
 43
0.0000000001
 40
-7.0
 40
-7.0
 40
-7.0
 40
-7.0
 40
-6.0
 40
-5.0
 40
-4.0
 40
-3.0
 40
-2.0
 40
-1.0
 40
-0.2482205602640466
 40
-0.2482205602640466
 40
-0.2482205602640466
 40
-0.2482205602640466
 10
0.0529669160309823
 20
-1358.40501135994
 30
377.9346008300781
 10
-1.386806623876054
 20
-1358.417902004896
 30
377.9346008300781
 10
-4.130246533186436
 20
-1357.269308836128
 30
377.9346008300781
 10
-6.926916272859671
 20
-1353.942937813857
 30
377.9346008300781
 10
-8.71732097695758
 20
-1350.034702426724
 30
377.9346008300781
 10
-9.772166823473071
 20
-1345.875559223934
 30
377.9346008300781
 10
-10.22973242238595
 20
-1341.614040856192
 30
377.9346008300781
 10
-10.10801705188623
 20
-1337.682420447557
 30
377.9346008300781
 10
-9.713629276857318
 20
-1335.21313521029
 30
377.9346008300781
 10
-9.495936654981505
 20
-1334.163594898431
 30
377.9346008300781
  0
ARC
  5
5CD07
330
1F
100
AcDbEntity
  8
Make2D visible lines - Tangent
100
AcDbCircle
 10
-21.93125809688354
 20
-1331.584296420825
 30
377.9346008300781
 40
12.7
100
AcDbArc
 50
348.2820321218375
 51
1.02242019204907
  0
SPLINE
  5
5CD08
330
1F
100
AcDbEntity
  8
Make2D visible lines - Tangent
100
AcDbSpline
210
0.0
220
0.0
230
1.0
 70
    12
 71
     2
 72
     6
 73
     3
 74
     0
 42
0.000000001
 43
0.0000000001
 40
-0.1297405451143296
 40
-0.1297405451143296
 40
-0.1297405451143296
 40
-0.025036663849024
 40
-0.025036663849024
 40
-0.025036663849024
 10
-9.23328007183818
 20
-1331.3576820447
 30
377.9346008300781
 41
0.9999960316975588
 10
-9.257007487208284
 20
-1330.028153865101
 30
377.9346008300781
 41
0.9999967046070288
 10
-9.283989763312547
 20
-1328.698687758965
 30
377.9346008300781
 41
0.9999988759207846
  0
SPLINE
  5
5CD09
330
1F
100
AcDbEntity
  8
Make2D visible lines
100
AcDbSpline
210
0.0
220
0.0
230
1.0
 70
    12
 71
     2
 72
     6
 73
     3
 74
     0
 42
0.000000001
 43
0.0000000001
 40
0.0
 40
0.0
 40
0.0
 40
0.0853474550214741
 40
0.0853474550214741
 40
0.0853474550214741
 10
634.8033709297483
 20
10.33476444911625
 30
377.9346008300781
 41
1.0
 10
633.7216804723635
 20
10.41064384936939
 30
377.9346008300781
 41
0.9993970637774639
 10
632.6373320346656
 20
10.41127205573125
 30
377.9346008300781
 41
1.0
  0
SPLINE
  5
5CD0A
330
1F
100
AcDbEntity
  8
Make2D visible lines - Tangent
100
AcDbSpline
210
0.0
220
0.0
230
1.0
 70
     8
 71
     3
 72
    12
 73
     8
 74
     0
 42
0.000000001
 43
0.0000000001
 40
0.0
 40
0.0
 40
0.0
 40
0.0
 40
0.1510110321465192
 40
0.3037660471064116
 40
0.5900965017365678
 40
0.8249401141264362
 40
1.014583801502342
 40
1.014583801502342
 40
1.014583801502342
 40
1.014583801502342
 10
635.6935500357422
 20
-10.15360447548906
 30
377.9346008300781
 10
634.4204960305119
 20
-10.27847652343067
 30
377.9346008300781
 10
631.8474797325582
 20
-10.37575289714064
 30
377.9346008300781
 10
626.8577051299423
 20
-9.938571038371858
 30
377.9346008300781
 10
621.3168659522867
 20
-8.403081690969113
 30
377.9346008300781
 10
616.2151549351137
 20
-4.98048686168172
 30
377.9346008300781
 10
614.5706439689752
 20
-1.581529058792193
 30
377.9346008300781
 10
614.6024823530733
 20
0.0529798204273447
 30
377.9346008300781
  0
SPLINE
  5
5CD0B
330
1F
100
AcDbEntity
  8
Make2D visible lines - Tangent
100
AcDbSpline
210
0.0
220
0.0
230
1.0
 70
     8
 71
     3
 72
    12
 73
     8
 74
     0
 42
0.000000001
 43
0.0000000001
 40
-1.014583801502342
 40
-1.014583801502342
 40
-1.014583801502342
 40
-1.014583801502342
 40
-0.8249401141264362
 40
-0.5900965017365678
 40
-0.3037660471064116
 40
-0.1510110321465192
 40
0.0
 40
0.0
 40
0.0
 40
0.0
 10
614.6024823530733
 20
0.0529798204273447
 30
377.9346008300781
 10
614.5706439689752
 20
1.687488699646882
 30
377.9346008300781
 10
616.2151549351137
 20
5.086446502535954
 30
377.9346008300781
 10
621.3168659522867
 20
8.509041331823798
 30
377.9346008300781
 10
626.8577051299423
 20
10.04453067922654
 30
377.9346008300781
 10
631.8474797325582
 20
10.48171253799532
 30
377.9346008300781
 10
634.4204960305119
 20
10.38443616428489
 30
377.9346008300781
 10
635.6935500357422
 20
10.25956411634328
 30
377.9346008300781
  0
SPLINE
  5
5CD0C
330
1F
100
AcDbEntity
  8
Make2D visible lines - Tangent
100
AcDbSpline
210
0.0
220
0.0
230
1.0
 70
    12
 71
     2
 72
     6
 73
     3
 74
     0
 42
0.000000001
 43
0.0000000001
 40
0.0
 40
0.0
 40
0.0
 40
0.1369528492222414
 40
0.1369528492222414
 40
0.1369528492222414
 10
645.3292105722612
 20
-9.28433407637627
 30
377.9346008300781
 41
1.0
 10
643.5903183103855
 20
-9.2480238716727
 30
377.9346008300781
 41
0.9999966913238282
 10
641.8504377316328
 20
-9.267116211372609
 30
377.9346008300781
 41
0.9999959461296658
  0
ARC
  5
5CD0D
330
1F
100
AcDbEntity
  8
Make2D visible lines - Tangent
100
AcDbCircle
 10
641.6415898537302
 20
-21.96539887336635
 30
377.9346008300781
 40
12.7
100
AcDbArc
 50
89.05774477487243
 51
101.5128478264678
  0
SPLINE
  5
5CD0E
330
1F
100
AcDbEntity
  8
Make2D visible lines - Tangent
100
AcDbSpline
210
0.0
220
0.0
230
1.0
 70
     8
 71
     3
 72
    14
 73
    10
 74
     0
 42
0.000000001
 43
0.0000000001
 40
0.2772630823298201
 40
0.2772630823298201
 40
0.2772630823298201
 40
0.2772630823298201
 40
1.0
 40
2.0
 40
3.0
 40
4.0
 40
5.0
 40
6.0
 40
7.0
 40
7.0
 40
7.0
 40
7.0
 10
639.1068265126104
 20
-9.520923199216355
 30
377.9346008300781
 10
638.0970829058728
 20
-9.726593662585088
 30
377.9346008300781
 10
635.668188144446
 20
-10.10927612958235
 30
377.9346008300781
 10
631.7780624031599
 20
-10.22970690536399
 30
377.9346008300781
 10
627.5165440354181
 20
-9.772141306451114
 30
377.9346008300781
 10
623.3574008326281
 20
-8.717295459935169
 30
377.9346008300781
 10
619.4491654454948
 20
-6.926890755837713
 30
377.9346008300781
 10
616.1227944232237
 20
-4.130221016164023
 30
377.9346008300781
 10
614.9742012544557
 20
-1.386781106854096
 30
377.9346008300781
 10
614.9870918994122
 20
0.052992433052941
 30
377.9346008300781
  0
SPLINE
  5
5CD0F
330
1F
100
AcDbEntity
  8
Make2D visible lines - Tangent
100
AcDbSpline
210
0.0
220
0.0
230
1.0
 70
     8
 71
     3
 72
    14
 73
    10
 74
     0
 42
0.000000001
 43
0.0000000001
 40
-7.0
 40
-7.0
 40
-7.0
 40
-7.0
 40
-6.0
 40
-5.0
 40
-4.0
 40
-3.0
 40
-2.0
 40
-1.0
 40
-0.2482205602640466
 40
-0.2482205602640466
 40
-0.2482205602640466
 40
-0.2482205602640466
 10
614.9870918994122
 20
0.052992433052941
 30
377.9346008300781
 10
614.9742012544557
 20
1.492765972959977
 30
377.9346008300781
 10
616.1227944232237
 20
4.236205882269905
 30
377.9346008300781
 10
619.4491654454948
 20
7.032875621943593
 30
377.9346008300781
 10
623.3574008326281
 20
8.823280326041501
 30
377.9346008300781
 10
627.5165440354181
 20
9.878126172556992
 30
377.9346008300781
 10
631.7780624031599
 20
10.33569177146987
 30
377.9346008300781
 10
635.709682811796
 20
10.21397640097015
 30
377.9346008300781
 10
638.1789680490624
 20
9.819588625941236
 30
377.9346008300781
 10
639.2285083609213
 20
9.601896004065423
 30
377.9346008300781
  0
ARC
  5
5CD10
330
1F
100
AcDbEntity
  8
Make2D visible lines - Tangent
100
AcDbCircle
 10
641.8078068385271
 20
22.037217445967
 30
377.9346008300781
 40
12.7
100
AcDbArc
 50
258.2820321218375
 51
271.022420192049
  0
SPLINE
  5
5CD11
330
1F
100
AcDbEntity
  8
Make2D visible lines - Tangent
100
AcDbSpline
210
0.0
220
0.0
230
1.0
 70
    12
 71
     2
 72
     6
 73
     3
 74
     0
 42
0.000000001
 43
0.0000000001
 40
-0.1297405451143296
 40
-0.1297405451143296
 40
-0.1297405451143296
 40
0.0
 40
0.0
 40
0.0
 10
642.0344212146524
 20
9.339239420922098
 30
377.9346008300781
 41
0.9999960316975588
 10
643.6818642790947
 20
9.368640502063811
 30
377.9346008300781
 41
0.999996865512317
 10
645.3292105722612
 20
9.40303911457917
 30
377.9346008300781
 41
1.0
  0
SPLINE
  5
5CD12
330
1F
100
AcDbEntity
  8
Make2D visible lines - Tangent
100
AcDbSpline
210
0.0
220
0.0
230
1.0
 70
     8
 71
     3
 72
    12
 73
     8
 74
     0
 42
0.000000001
 43
0.0000000001
 40
0.0
 40
0.0
 40
0.0
 40
0.0
 40
0.1510110321465192
 40
0.3037660471064116
 40
0.5900965017365678
 40
0.8249401141264362
 40
1.014583801502342
 40
1.014583801502342
 40
1.014583801502342
 40
1.014583801502342
 10
1337.69855322361
 20
10.25956382457268
 30
377.9346008300781
 10
1338.97160722884
 20
10.38443587251383
 30
377.9346008300781
 10
1341.544623526794
 20
10.48171224622426
 30
377.9346008300781
 10
1346.53439812941
 20
10.04453038745548
 30
377.9346008300781
 10
1352.075237307065
 20
8.509041040052734
 30
377.9346008300781
 10
1357.176948324238
 20
5.086446210765342
 30
377.9346008300781
 10
1358.821459290377
 20
1.687488407875815
 30
377.9346008300781
 10
1358.789620906279
 20
0.0529795286562769
 30
377.9346008300781
  0
SPLINE
  5
5CD13
330
1F
100
AcDbEntity
  8
Make2D visible lines - Tangent
100
AcDbSpline
210
0.0
220
0.0
230
1.0
 70
     8
 71
     3
 72
    12
 73
     8
 74
     0
 42
0.000000001
 43
0.0000000001
 40
-1.014583801502342
 40
-1.014583801502342
 40
-1.014583801502342
 40
-1.014583801502342
 40
-0.8249401141264362
 40
-0.5900965017365678
 40
-0.3037660471064116
 40
-0.1510110321465192
 40
0.0
 40
0.0
 40
0.0
 40
0.0
 10
1358.789620906279
 20
0.0529795286562769
 30
377.9346008300781
 10
1358.821459290377
 20
-1.581529350563261
 30
377.9346008300781
 10
1357.176948324238
 20
-4.980487153452787
 30
377.9346008300781
 10
1352.075237307065
 20
-8.403081982740177
 30
377.9346008300781
 10
1346.53439812941
 20
-9.93857133014292
 30
377.9346008300781
 10
1341.544623526794
 20
-10.3757531889117
 30
377.9346008300781
 10
1338.97160722884
 20
-10.27847681520127
 30
377.9346008300781
 10
1337.69855322361
 20
-10.15360476725966
 30
377.9346008300781
  0
SPLINE
  5
5CD14
330
1F
100
AcDbEntity
  8
Make2D visible lines
100
AcDbSpline
210
0.0
220
0.0
230
1.0
 70
    12
 71
     2
 72
     6
 73
     3
 74
     0
 42
0.000000001
 43
0.0000000001
 40
0.0
 40
0.0
 40
0.0
 40
0.0853474550214741
 40
0.0853474550214741
 40
0.0853474550214741
 10
1338.588732329604
 20
-10.22880510003263
 30
377.9346008300781
 41
1.0
 10
1339.670422786989
 20
-10.30468450028577
 30
377.9346008300781
 41
0.9993970637774639
 10
1340.754771224687
 20
-10.30531270664762
 30
377.9346008300781
 41
1.0
  0
SPLINE
  5
5CD15
330
1F
100
AcDbEntity
  8
Default
100
AcDbSpline
210
0.0
220
0.0
230
1.0
 70
     8
 71
     3
 72
    10
 73
     6
 74
     0
 42
0.000000001
 43
0.0000000001
 40
0.0
 40
0.0
 40
0.0
 40
0.0
 40
1.0
 40
2.0
 40
3.0
 40
3.0
 40
3.0
 40
3.0
 10
971.550597564534
 20
378.8031488420245
 30
377.9346008300781
 10
983.1826582003781
 20
384.520934361826
 30
377.9346008300781
 10
1008.961726047683
 20
389.9138112295402
 30
377.9346008300781
 10
1047.71575940784
 20
384.7957176907596
 30
377.9346008300781
 10
1072.333390598161
 20
376.7737291200131
 30
377.9346008300781
 10
1084.281451334379
 20
371.849385076999
 30
377.9346008300781
  0
SPLINE
  5
5CD16
330
1F
100
AcDbEntity
  8
Default
100
AcDbSpline
210
0.0
220
0.0
230
1.0
 70
     8
 71
     3
 72
    10
 73
     6
 74
     0
 42
0.000000001
 43
0.0000000001
 40
-3.0
 40
-3.0
 40
-3.0
 40
-3.0
 40
-2.0
 40
-1.0
 40
0.0
 40
0.0
 40
0.0
 40
0.0
 10
1084.281451334379
 20
371.849385076999
 30
377.9346008300781
 10
1132.042142816815
 20
352.0782502978903
 30
377.9346008300781
 10
1216.924314164887
 20
289.5246268909092
 30
377.9346008300781
 10
1298.618787131312
 20
154.9001909455916
 30
377.9346008300781
 10
1317.324244018896
 20
51.65973888111846
 30
377.9346008300781
 10
1316.904793592642
 20
0.0529796745419649
 30
377.9346008300781
  0
SPLINE
  5
5CD17
330
1F
100
AcDbEntity
  8
Default
100
AcDbSpline
210
0.0
220
0.0
230
1.0
 70
     8
 71
     3
 72
    10
 73
     6
 74
     0
 42
0.000000001
 43
0.0000000001
 40
0.0
 40
0.0
 40
0.0
 40
0.0
 40
1.0
 40
2.0
 40
3.0
 40
3.0
 40
3.0
 40
3.0
 10
1316.904793592642
 20
0.0529796745419649
 30
377.9346008300781
 10
1317.324244018896
 20
-51.55377953203453
 30
377.9346008300781
 10
1298.618787131312
 20
-154.7942315965077
 30
377.9346008300781
 10
1216.924314164887
 20
-289.4186675418255
 30
377.9346008300781
 10
1132.042142816815
 20
-351.9722909488062
 30
377.9346008300781
 10
1084.281451334379
 20
-371.7434257279149
 30
377.9346008300781
  0
SPLINE
  5
5CD18
330
1F
100
AcDbEntity
  8
Default
100
AcDbSpline
210
0.0
220
0.0
230
1.0
 70
     8
 71
     3
 72
    10
 73
     6
 74
     0
 42
0.000000001
 43
0.0000000001
 40
-3.0
 40
-3.0
 40
-3.0
 40
-3.0
 40
-2.0
 40
-1.0
 40
0.0
 40
0.0
 40
0.0
 40
0.0
 10
1084.281451334379
 20
-371.7434257279149
 30
377.9346008300781
 10
1072.333390598161
 20
-376.6677697709294
 30
377.9346008300781
 10
1047.71575940784
 20
-384.6897583416756
 30
377.9346008300781
 10
1008.961726047683
 20
-389.8078518804566
 30
377.9346008300781
 10
983.1826582003779
 20
-384.4149750127422
 30
377.9346008300781
 10
971.5505975645339
 20
-378.6971894929406
 30
377.9346008300781
  0
ARC
  5
5CD19
330
1F
100
AcDbEntity
  8
Default
100
AcDbCircle
 10
1158.929469708673
 20
68.40536419261773
 30
377.9346008300781
 40
455.7859007505599
100
AcDbArc
 50
214.5347986330981
 51
223.3741222382038
  0
SPLINE
  5
5CD1A
330
1F
100
AcDbEntity
  8
Default
100
AcDbSpline
210
0.0
220
0.0
230
1.0
 70
     8
 71
     3
 72
    14
 73
    10
 74
     0
 42
0.000000001
 43
0.0000000001
 40
0.0000000000000002
 40
0.0000000000000002
 40
0.0000000000000002
 40
0.0000000000000002
 40
1.0
 40
2.0
 40
3.0
 40
4.0
 40
5.0
 40
6.0
 40
7.0
 40
7.0
 40
7.0
 40
7.0
 10
827.6255710651625
 20
-244.6098336278871
 30
377.9346008300781
 10
837.3872313272189
 20
-254.9418434618221
 30
377.9346008300781
 10
857.2148277475843
 20
-275.3552978712239
 30
377.9346008300781
 10
889.1121884991616
 20
-303.6767788057379
 30
377.9346008300781
 10
921.7197096190693
 20
-331.2218536853913
 30
377.9346008300781
 10
956.0674963538117
 20
-356.4333805800068
 30
377.9346008300781
 10
994.9685720937518
 20
-375.6033358435072
 30
377.9346008300781
 10
1038.663334954086
 20
-374.4257098219928
 30
377.9346008300781
 10
1065.983637841168
 20
-366.5034935093706
 30
377.9346008300781
 10
1079.204704143887
 20
-361.2116660976778
 30
377.9346008300781
  0
ARC
  5
5CD1B
330
1F
100
AcDbEntity
  8
Default
100
AcDbCircle
 10
1158.929469708673
 20
-68.29940484353372
 30
377.9346008300781
 40
455.7859007505599
100
AcDbArc
 50
136.6258777617963
 51
145.465201366902
  0
SPLINE
  5
5CD1C
330
1F
100
AcDbEntity
  8
Default
100
AcDbSpline
210
0.0
220
0.0
230
1.0
 70
     8
 71
     3
 72
    14
 73
    10
 74
     0
 42
0.000000001
 43
0.0000000001
 40
0.0000000000000002
 40
0.0000000000000002
 40
0.0000000000000002
 40
0.0000000000000002
 40
1.0
 40
2.0
 40
3.0
 40
4.0
 40
5.0
 40
6.0
 40
7.0
 40
7.0
 40
7.0
 40
7.0
 10
827.6255710651625
 20
244.7157929769708
 30
377.9346008300781
 10
837.3872313272189
 20
255.0478028109058
 30
377.9346008300781
 10
857.2148277475845
 20
275.4612572203076
 30
377.9346008300781
 10
889.1121884991617
 20
303.7827381548221
 30
377.9346008300781
 10
921.7197096190695
 20
331.327813034475
 30
377.9346008300781
 10
956.0674963538119
 20
356.5393399290904
 30
377.9346008300781
 10
994.968572093752
 20
375.7092951925908
 30
377.9346008300781
 10
1038.663334954086
 20
374.5316691710766
 30
377.9346008300781
 10
1065.983637841168
 20
366.6094528584547
 30
377.9346008300781
 10
1079.204704143887
 20
361.3176254467614
 30
377.9346008300781
  0
SPLINE
  5
5CD1D
330
1F
100
AcDbEntity
  8
Default
100
AcDbSpline
210
0.0
220
0.0
230
1.0
 70
     8
 71
     3
 72
    24
 73
    20
 74
     0
 42
0.000000001
 43
0.0000000001
 40
0.0
 40
0.0
 40
0.0
 40
0.0
 40
1.0
 40
2.0
 40
3.0
 40
4.0
 40
5.0
 40
6.0
 40
7.0
 40
8.0
 40
9.0
 40
10.0
 40
11.0
 40
12.0
 40
13.0
 40
14.0
 40
15.0
 40
16.0
 40
17.0
 40
17.0
 40
17.0
 40
17.0
 10
971.5505975645339
 20
-378.6972430953242
 30
377.9346008300781
 10
962.7268915447443
 20
-374.4445723037593
 30
377.9346008300781
 10
945.8623379639595
 20
-364.4501175642074
 30
377.9346008300781
 10
921.7322876640233
 20
-347.6817345109025
 30
377.9346008300781
 10
898.7651144999418
 20
-329.367405080875
 30
377.9346008300781
 10
875.9469431432803
 20
-310.8813181380435
 30
377.9346008300781
 10
853.2587734014786
 20
-292.2300245233111
 30
377.9346008300781
 10
831.1303427968404
 20
-272.9153281847277
 30
377.9346008300781
 10
809.6749899897186
 20
-252.8529704699856
 30
377.9346008300781
 10
788.8610170193062
 20
-232.1355584386499
 30
377.9346008300781
 10
767.7914688812511
 20
-211.6606583673117
 30
377.9346008300781
 10
748.4010157190548
 20
-189.5668104139724
 30
377.9346008300781
 10
730.9437635896397
 20
-165.9187435423129
 30
377.9346008300781
 10
715.6411532774027
 20
-140.8157500021945
 30
377.9346008300781
 10
702.7136221181783
 20
-114.4095262517068
 30
377.9346008300781
 10
692.4339567231793
 20
-86.85776191886922
 30
377.9346008300781
 10
685.0560276336969
 20
-58.39086392418463
 30
377.9346008300781
 10
680.643865362173
 20
-29.31666250043888
 30
377.9346008300781
 10
679.6767102502301
 20
-9.736637184648467
 30
377.9346008300781
 10
679.6930069226505
 20
0.0529528733503267
 30
377.9346008300781
  0
SPLINE
  5
5CD1E
330
1F
100
AcDbEntity
  8
Default
100
AcDbSpline
210
0.0
220
0.0
230
1.0
 70
     8
 71
     3
 72
    24
 73
    20
 74
     0
 42
0.000000001
 43
0.0000000001
 40
-17.0
 40
-17.0
 40
-17.0
 40
-17.0
 40
-16.0
 40
-15.0
 40
-14.0
 40
-13.0
 40
-12.0
 40
-11.0
 40
-10.0
 40
-9.0
 40
-8.0
 40
-7.0
 40
-6.0
 40
-5.0
 40
-4.0
 40
-3.0
 40
-2.0
 40
-1.0
 40
0.0
 40
0.0
 40
0.0
 40
0.0
 10
679.6930069226505
 20
0.0529528733503267
 30
377.9346008300781
 10
679.6767102502301
 20
9.842542931348665
 30
377.9346008300781
 10
680.643865362173
 20
29.42256824713907
 30
377.9346008300781
 10
685.0560276336969
 20
58.49676967088484
 30
377.9346008300781
 10
692.4339567231793
 20
86.96366766556941
 30
377.9346008300781
 10
702.7136221181783
 20
114.515431998407
 30
377.9346008300781
 10
715.6411532774027
 20
140.9216557488947
 30
377.9346008300781
 10
730.9437635896397
 20
166.0246492890131
 30
377.9346008300781
 10
748.4010157190548
 20
189.672716160673
 30
377.9346008300781
 10
767.7914688812511
 20
211.7665641140123
 30
377.9346008300781
 10
788.8610170193062
 20
232.2414641853505
 30
377.9346008300781
 10
809.6749899897186
 20
252.9588762166857
 30
377.9346008300781
 10
831.1303427968406
 20
273.0212339314283
 30
377.9346008300781
 10
853.2587734014787
 20
292.3359302700117
 30
377.9346008300781
 10
875.9469431432805
 20
310.9872238847436
 30
377.9346008300781
 10
898.7651144999421
 20
329.4733108275752
 30
377.9346008300781
 10
921.7322876640237
 20
347.7876402576028
 30
377.9346008300781
 10
945.8623379639597
 20
364.5560233109079
 30
377.9346008300781
 10
962.7268915447444
 20
374.5504780504596
 30
377.9346008300781
 10
971.550597564534
 20
378.8031488420245
 30
377.9346008300781
  0
SPLINE
  5
5CD1F
330
1F
100
AcDbEntity
  8
Default
100
AcDbSpline
210
0.0
220
0.0
230
1.0
 70
     8
 71
     3
 72
    12
 73
     8
 74
     0
 42
0.000000001
 43
0.0000000001
 40
-15.35241690788854
 40
-15.35241690788854
 40
-15.35241690788854
 40
-15.35241690788854
 40
-11.42846741267097
 40
-7.624448814229928
 40
-3.868777023834103
 40
-1.918304340297428
 40
0.0
 40
0.0
 40
0.0
 40
0.0
 10
932.5948740898139
 20
244.5276243124038
 30
377.9346008300781
 10
965.8024029006041
 20
244.528160088442
 30
377.9346008300781
 10
1031.380276165935
 20
232.7053089012145
 30
377.9346008300781
 10
1114.938532138666
 20
179.2515234230452
 30
377.9346008300781
 10
1161.032073722446
 20
111.1818645456326
 30
377.9346008300781
 10
1179.67783082626
 20
49.05528682870018
 30
377.9346008300781
 10
1182.848012415893
 20
16.29304731315934
 30
377.9346008300781
 10
1182.834534645152
 20
0.0529796745419946
 30
377.9346008300781
  0
SPLINE
  5
5CD20
330
1F
100
AcDbEntity
  8
Default
100
AcDbSpline
210
0.0
220
0.0
230
1.0
 70
     8
 71
     3
 72
    12
 73
     8
 74
     0
 42
0.000000001
 43
0.0000000001
 40
0.0
 40
0.0
 40
0.0
 40
0.0
 40
1.918304340297428
 40
3.868777023834103
 40
7.624448814229928
 40
11.42846741267097
 40
15.35241690788854
 40
15.35241690788854
 40
15.35241690788854
 40
15.35241690788854
 10
1182.834534645152
 20
0.0529796745419946
 30
377.9346008300781
 10
1182.848012415893
 20
-16.18708796407581
 30
377.9346008300781
 10
1179.67783082626
 20
-48.94932747961619
 30
377.9346008300781
 10
1161.032073722446
 20
-111.0759051965485
 30
377.9346008300781
 10
1114.938532138666
 20
-179.1455640739616
 30
377.9346008300781
 10
1031.380276165935
 20
-232.5993495521304
 30
377.9346008300781
 10
965.8024029006041
 20
-244.422200739358
 30
377.9346008300781
 10
932.5948740898139
 20
-244.4216649633201
 30
377.9346008300781
  0
SPLINE
  5
5CD21
330
1F
100
AcDbEntity
  8
Default
100
AcDbSpline
210
0.0
220
0.0
230
1.0
 70
     8
 71
     3
 72
    12
 73
     8
 74
     0
 42
0.000000001
 43
0.0000000001
 40
-14.89017237659325
 40
-14.89017237659325
 40
-14.89017237659325
 40
-14.89017237659325
 40
-11.21816892444778
 40
-7.516681648226318
 40
-3.774518777477096
 40
-1.889354184169619
 40
0.0
 40
0.0
 40
0.0
 40
0.0
 10
932.5948740898139
 20
-244.4216649633201
 30
377.9346008300781
 10
901.5010502252819
 20
-244.4299977125054
 30
377.9346008300781
 10
839.0882859639132
 20
-231.5483116363687
 30
377.9346008300781
 10
760.1749911669062
 20
-176.8873626365586
 30
377.9346008300781
 10
716.5663923912127
 20
-109.2444083241004
 30
377.9346008300781
 10
698.5908063274657
 20
-47.90171853864392
 30
377.9346008300781
 10
695.5170645385765
 20
-15.94222298771153
 30
377.9346008300781
 10
695.5153415258389
 20
0.0529796745421028
 30
377.9346008300781
  0
SPLINE
  5
5CD22
330
1F
100
AcDbEntity
  8
Default
100
AcDbSpline
210
0.0
220
0.0
230
1.0
 70
     8
 71
     3
 72
    12
 73
     8
 74
     0
 42
0.000000001
 43
0.0000000001
 40
0.0
 40
0.0
 40
0.0
 40
0.0
 40
1.889354184169619
 40
3.774518777477096
 40
7.516681648226318
 40
11.21816892444778
 40
14.89017237659325
 40
14.89017237659325
 40
14.89017237659325
 40
14.89017237659325
 10
695.5153415258389
 20
0.0529796745421028
 30
377.9346008300781
 10
695.5170645385765
 20
16.04818233679574
 30
377.9346008300781
 10
698.5908063274657
 20
48.00767788772766
 30
377.9346008300781
 10
716.5663923912127
 20
109.3503676731842
 30
377.9346008300781
 10
760.1749911669062
 20
176.9933219856423
 30
377.9346008300781
 10
839.0882859639132
 20
231.6542709854528
 30
377.9346008300781
 10
901.5010502252819
 20
244.5359570615895
 30
377.9346008300781
 10
932.5948740898139
 20
244.5276243124038
 30
377.9346008300781
  0
SPLINE
  5
5CD23
330
1F
100
AcDbEntity
  8
Default
100
AcDbSpline
210
0.0
220
0.0
230
1.0
 70
     8
 71
     3
 72
    19
 73
    15
 74
     0
 42
0.000000001
 43
0.0000000001
 40
-12.0
 40
-12.0
 40
-12.0
 40
-12.0
 40
-11.0
 40
-10.0
 40
-9.0
 40
-8.0
 40
-7.0
 40
-6.0
 40
-5.0
 40
-4.0
 40
-3.0
 40
-2.0
 40
-1.0
 40
0.0
 40
0.0
 40
0.0
 40
0.0
 10
766.3434458263857
 20
209.9496135275816
 30
377.9346008300781
 10
783.1006120410002
 20
227.3494212871436
 30
377.9346008300781
 10
816.733444846908
 20
261.8537061346931
 30
377.9346008300781
 10
867.7576139947305
 20
313.7513705927948
 30
377.9346008300781
 10
924.9752588933697
 20
357.0267981192999
 30
377.9346008300781
 10
986.1368754327662
 20
400.8368810797789
 30
377.9346008300781
 10
1061.470431588233
 20
395.4359163151846
 30
377.9346008300781
 10
1127.62718878197
 20
365.0983289406152
 30
377.9346008300781
 10
1186.783058235579
 20
322.7615522919907
 30
377.9346008300781
 10
1236.71417458747
 20
269.8610325309639
 30
377.9346008300781
 10
1276.789497093864
 20
209.2327621185161
 30
377.9346008300781
 10
1306.245110913262
 20
142.7971575107178
 30
377.9346008300781
 10
1324.535276060729
 20
72.46796786608427
 30
377.9346008300781
 10
1328.79711638133
 20
24.19851892512332
 30
377.9346008300781
 10
1328.80845942703
 20
0.0529796745419622
 30
377.9346008300781
  0
SPLINE
  5
5CD24
330
1F
100
AcDbEntity
  8
Default
100
AcDbSpline
210
0.0
220
0.0
230
1.0
 70
     8
 71
     3
 72
    19
 73
    15
 74
     0
 42
0.000000001
 43
0.0000000001
 40
0.0
 40
0.0
 40
0.0
 40
0.0
 40
1.0
 40
2.0
 40
3.0
 40
4.0
 40
5.0
 40
6.0
 40
7.0
 40
8.0
 40
9.0
 40
10.0
 40
11.0
 40
12.0
 40
12.0
 40
12.0
 40
12.0
 10
1328.80845942703
 20
0.0529796745419622
 30
377.9346008300781
 10
1328.79711638133
 20
-24.09255957603984
 30
377.9346008300781
 10
1324.535276060729
 20
-72.3620085170008
 30
377.9346008300781
 10
1306.245110913262
 20
-142.6911981616338
 30
377.9346008300781
 10
1276.789497093864
 20
-209.1268027694326
 30
377.9346008300781
 10
1236.71417458747
 20
-269.7550731818804
 30
377.9346008300781
 10
1186.783058235579
 20
-322.6555929429069
 30
377.9346008300781
 10
1127.62718878197
 20
-364.9923695915315
 30
377.9346008300781
 10
1061.470431588233
 20
-395.329956966101
 30
377.9346008300781
 10
986.136875432766
 20
-400.7309217306952
 30
377.9346008300781
 10
924.9752588933693
 20
-356.9208387702161
 30
377.9346008300781
 10
867.7576139947303
 20
-313.6454112437109
 30
377.9346008300781
 10
816.7334448469079
 20
-261.747746785609
 30
377.9346008300781
 10
783.1006120410002
 20
-227.2434619380598
 30
377.9346008300781
 10
766.3434458263857
 20
-209.8436541784979
 30
377.9346008300781
  0
SPLINE
  5
5CD25
330
1F
100
AcDbEntity
  8
Make2D visible lines - Tangent
100
AcDbSpline
210
0.0
220
0.0
230
1.0
 70
    12
 71
     2
 72
     6
 73
     3
 74
     0
 42
0.000000001
 43
0.0000000001
 40
-1.290200918579373
 40
-1.290200918579373
 40
-1.290200918579373
 40
0.0
 40
0.0
 40
0.0
 10
679.8416103914838
 20
9.794592738397417
 30
377.9346008300781
 41
0.9999999993028318
 10
663.4466771983839
 20
9.612885980351927
 30
377.9346008300781
 41
0.9999999996040196
 10
647.0503290041188
 20
9.43139903694495
 30
377.9346008300781
 41
1.0
  0
SPLINE
  5
5CD26
330
1F
100
AcDbEntity
  8
Make2D visible lines - Tangent
100
AcDbSpline
210
0.0
220
0.0
230
1.0
 70
     8
 71
     3
 72
    14
 73
    10
 74
     0
 42
0.000000001
 43
0.0000000001
 40
0.0
 40
0.0
 40
0.0
 40
0.0
 40
1.0
 40
2.0
 40
3.0
 40
4.0
 40
5.0
 40
6.0
 40
7.0
 40
7.0
 40
7.0
 40
7.0
 10
647.0503290041188
 20
9.43139903694495
 30
377.9346008300781
 10
645.2645664327751
 20
9.404731863387807
 30
377.9346008300781
 10
641.8956134956827
 20
8.889186372379157
 30
377.9346008300781
 10
637.2632333322067
 20
6.710251012907833
 30
377.9346008300781
 10
633.8390328459568
 20
2.661618855638012
 30
377.9346008300781
 10
633.9248166289273
 20
-2.753342753924839
 30
377.9346008300781
 10
637.4292879892359
 20
-6.71971454784139
 30
377.9346008300781
 10
642.0873755857059
 20
-8.83859866523349
 30
377.9346008300781
 10
645.4614430573642
 20
-9.318862310028778
 30
377.9346008300781
 10
647.1488516296765
 20
-9.319620325486683
 30
377.9346008300781
  0
SPLINE
  5
5CD27
330
1F
100
AcDbEntity
  8
Make2D visible lines - Tangent
100
AcDbSpline
210
0.0
220
0.0
230
1.0
 70
    12
 71
     2
 72
     6
 73
     3
 74
     0
 42
0.000000001
 43
0.0000000001
 40
0.0
 40
0.0
 40
0.0
 40
1.287184386108664
 40
1.287184386108664
 40
1.287184386108664
 10
647.1488516296765
 20
-9.319620325486683
 30
377.9346008300781
 41
1.0
 10
663.495099703547
 20
-9.499855850629193
 30
377.9346008300781
 41
0.9999999996049455
 10
679.8413442729445
 20
-9.68040893001004
 30
377.9346008300781
 41
0.9999999993042408
  0
SPLINE
  5
5CD28
330
1F
100
AcDbEntity
  8
Make2D visible lines - Tangent
100
AcDbSpline
210
0.0
220
0.0
230
1.0
 70
     8
 71
     3
 72
    14
 73
    10
 74
     0
 42
0.000000001
 43
0.0000000001
 40
0.4515573393836121
 40
0.4515573393836121
 40
0.4515573393836121
 40
0.4515573393836121
 40
1.0
 40
2.0
 40
3.0
 40
4.0
 40
5.0
 40
6.0
 40
6.512759776800351
 40
6.512759776800351
 40
6.512759776800351
 40
6.512759776800351
 10
1328.701803454394
 20
-9.147653022550752
 30
377.9346008300781
 10
1329.634503311756
 20
-9.01820566454246
 30
377.9346008300781
 10
1332.193751517547
 20
-8.455255605425305
 30
377.9346008300781
 10
1336.128869927146
 20
-6.604291663824211
 30
377.9346008300781
 10
1339.553070413395
 20
-2.55565950655439
 30
377.9346008300781
 10
1339.467286630425
 20
2.85930210300846
 30
377.9346008300781
 10
1335.962815270116
 20
6.825673896925012
 30
377.9346008300781
 10
1332.061263553709
 20
8.600422824219707
 30
377.9346008300781
 10
1329.558695480895
 20
9.1354836519419
 30
377.9346008300781
 10
1328.701778428383
 20
9.25471531524106
 30
377.9346008300781
  0
SPLINE
  5
5CD29
330
1F
100
AcDbEntity
  8
Make2D visible lines - Tangent
100
AcDbSpline
210
0.0
220
0.0
230
1.0
 70
    12
 71
     2
 72
     6
 73
     3
 74
     0
 42
0.000000001
 43
0.0000000001
 40
0.0250459851910298
 40
0.0250459851910298
 40
0.0250459851910298
 40
0.1369528492222414
 40
0.1369528492222414
 40
0.1369528492222414
 10
1328.698942721382
 20
9.378865555307289
 30
377.9346008300781
 41
0.9999988755525052
 10
1330.119974726853
 20
9.357474832423736
 30
377.9346008300781
 41
0.999996555042458
 10
1331.541665527719
 20
9.373075560456232
 30
377.9346008300781
 41
0.9999959461296658
  0
ARC
  5
5CD2A
330
1F
100
AcDbEntity
  8
Make2D visible lines - Tangent
100
AcDbCircle
 10
1331.750513405622
 20
22.07135822244998
 30
377.9346008300781
 40
12.7
100
AcDbArc
 50
269.0577447748724
 51
281.5128478264679
  0
SPLINE
  5
5CD2B
330
1F
100
AcDbEntity
  8
Make2D visible lines - Tangent
100
AcDbSpline
210
0.0
220
0.0
230
1.0
 70
     8
 71
     3
 72
    14
 73
    10
 74
     0
 42
0.000000001
 43
0.0000000001
 40
0.2772630823298201
 40
0.2772630823298201
 40
0.2772630823298201
 40
0.2772630823298201
 40
1.0
 40
2.0
 40
3.0
 40
4.0
 40
5.0
 40
6.0
 40
7.0
 40
7.0
 40
7.0
 40
7.0
 10
1334.285276746741
 20
9.626882548299976
 30
377.9346008300781
 10
1335.295020353479
 20
9.832553011668709
 30
377.9346008300781
 10
1337.723915114906
 20
10.21523547866597
 30
377.9346008300781
 10
1341.614040856192
 20
10.33566625444761
 30
377.9346008300781
 10
1345.875559223934
 20
9.878100655534737
 30
377.9346008300781
 10
1350.034702426724
 20
8.82325480901879
 30
377.9346008300781
 10
1353.942937813857
 20
7.032850104921335
 30
377.9346008300781
 10
1357.269308836128
 20
4.236180365247645
 30
377.9346008300781
 10
1358.417902004896
 20
1.492740455937717
 30
377.9346008300781
 10
1358.40501135994
 20
0.0529669160306806
 30
377.9346008300781
  0
SPLINE
  5
5CD2C
330
1F
100
AcDbEntity
  8
Make2D visible lines - Tangent
100
AcDbSpline
210
0.0
220
0.0
230
1.0
 70
     8
 71
     3
 72
    14
 73
    10
 74
     0
 42
0.000000001
 43
0.0000000001
 40
-7.0
 40
-7.0
 40
-7.0
 40
-7.0
 40
-6.0
 40
-5.0
 40
-4.0
 40
-3.0
 40
-2.0
 40
-1.0
 40
-0.2482205602640466
 40
-0.2482205602640466
 40
-0.2482205602640466
 40
-0.2482205602640466
 10
1358.40501135994
 20
0.0529669160306806
 30
377.9346008300781
 10
1358.417902004896
 20
-1.386806623876356
 30
377.9346008300781
 10
1357.269308836128
 20
-4.130246533186737
 30
377.9346008300781
 10
1353.942937813857
 20
-6.926916272859971
 30
377.9346008300781
 10
1350.034702426724
 20
-8.71732097695788
 30
377.9346008300781
 10
1345.875559223934
 20
-9.772166823473369
 30
377.9346008300781
 10
1341.614040856192
 20
-10.22973242238625
 30
377.9346008300781
 10
1337.682420447557
 20
-10.10801705188653
 30
377.9346008300781
 10
1335.21313521029
 20
-9.713629276857615
 30
377.9346008300781
 10
1334.163594898431
 20
-9.495936654981802
 30
377.9346008300781
  0
ARC
  5
5CD2D
330
1F
100
AcDbEntity
  8
Make2D visible lines - Tangent
100
AcDbCircle
 10
1331.584296420825
 20
-21.93125809688384
 30
377.9346008300781
 40
12.7
100
AcDbArc
 50
78.28203212183753
 51
91.02242019204906
  0
SPLINE
  5
5CD2E
330
1F
100
AcDbEntity
  8
Make2D visible lines - Tangent
100
AcDbSpline
210
0.0
220
0.0
230
1.0
 70
    12
 71
     2
 72
     6
 73
     3
 74
     0
 42
0.000000001
 43
0.0000000001
 40
-0.1297405451143296
 40
-0.1297405451143296
 40
-0.1297405451143296
 40
-0.025036663849024
 40
-0.025036663849024
 40
-0.025036663849024
 10
1331.3576820447
 20
-9.233280071838475
 30
377.9346008300781
 41
0.9999960316975588
 10
1330.028153865101
 20
-9.257007487208579
 30
377.9346008300781
 41
0.9999967046070288
 10
1328.698687758965
 20
-9.283989763312842
 30
377.9346008300781
 41
0.9999988759207846
  0
SPLINE
  5
5CD2F
330
1F
100
AcDbEntity
  8
Make2D visible lines
100
AcDbSpline
210
0.0
220
0.0
230
1.0
 70
    12
 71
     2
 72
     6
 73
     3
 74
     0
 42
0.000000001
 43
0.0000000001
 40
0.0
 40
0.0
 40
0.0
 40
0.0853474550214741
 40
0.0853474550214741
 40
0.0853474550214741
 10
-634.8033709297483
 20
10.33476444911653
 30
377.9346008300781
 41
1.0
 10
-633.7216804723635
 20
10.41064384936967
 30
377.9346008300781
 41
0.9993970637774639
 10
-632.6373320346656
 20
10.41127205573153
 30
377.9346008300781
 41
1.0
  0
SPLINE
  5
5CD30
330
1F
100
AcDbEntity
  8
Make2D visible lines - Tangent
100
AcDbSpline
210
0.0
220
0.0
230
1.0
 70
     8
 71
     3
 72
    12
 73
     8
 74
     0
 42
0.000000001
 43
0.0000000001
 40
0.0
 40
0.0
 40
0.0
 40
0.0
 40
0.1510110321465192
 40
0.3037660471064116
 40
0.5900965017365678
 40
0.8249401141264362
 40
1.014583801502342
 40
1.014583801502342
 40
1.014583801502342
 40
1.014583801502342
 10
-635.6935500357422
 20
-10.15360447548878
 30
377.9346008300781
 10
-634.4204960305119
 20
-10.27847652343038
 30
377.9346008300781
 10
-631.8474797325582
 20
-10.37575289714036
 30
377.9346008300781
 10
-626.8577051299423
 20
-9.938571038371581
 30
377.9346008300781
 10
-621.3168659522867
 20
-8.403081690968836
 30
377.9346008300781
 10
-616.2151549351137
 20
-4.980486861681447
 30
377.9346008300781
 10
-614.5706439689752
 20
-1.58152905879192
 30
377.9346008300781
 10
-614.6024823530733
 20
0.0529798204276177
 30
377.9346008300781
  0
SPLINE
  5
5CD31
330
1F
100
AcDbEntity
  8
Make2D visible lines - Tangent
100
AcDbSpline
210
0.0
220
0.0
230
1.0
 70
     8
 71
     3
 72
    12
 73
     8
 74
     0
 42
0.000000001
 43
0.0000000001
 40
-1.014583801502342
 40
-1.014583801502342
 40
-1.014583801502342
 40
-1.014583801502342
 40
-0.8249401141264362
 40
-0.5900965017365678
 40
-0.3037660471064116
 40
-0.1510110321465192
 40
0.0
 40
0.0
 40
0.0
 40
0.0
 10
-614.6024823530733
 20
0.0529798204276177
 30
377.9346008300781
 10
-614.5706439689752
 20
1.687488699647156
 30
377.9346008300781
 10
-616.2151549351137
 20
5.086446502536228
 30
377.9346008300781
 10
-621.3168659522867
 20
8.509041331824075
 30
377.9346008300781
 10
-626.8577051299423
 20
10.04453067922682
 30
377.9346008300781
 10
-631.8474797325582
 20
10.4817125379956
 30
377.9346008300781
 10
-634.4204960305119
 20
10.38443616428517
 30
377.9346008300781
 10
-635.6935500357422
 20
10.25956411634356
 30
377.9346008300781
  0
SPLINE
  5
5CD32
330
1F
100
AcDbEntity
  8
Make2D visible lines - Tangent
100
AcDbSpline
210
0.0
220
0.0
230
1.0
 70
    12
 71
     2
 72
     6
 73
     3
 74
     0
 42
0.000000001
 43
0.0000000001
 40
0.0
 40
0.0
 40
0.0
 40
0.1369528492222414
 40
0.1369528492222414
 40
0.1369528492222414
 10
-645.3292105722612
 20
-9.284334076375982
 30
377.9346008300781
 41
1.0
 10
-643.5903183103855
 20
-9.248023871672415
 30
377.9346008300781
 41
0.9999966913238282
 10
-641.8504377316328
 20
-9.267116211372325
 30
377.9346008300781
 41
0.9999959461296658
  0
ARC
  5
5CD33
330
1F
100
AcDbEntity
  8
Make2D visible lines - Tangent
100
AcDbCircle
 10
-641.6415898537302
 20
-21.96539887336607
 30
377.9346008300781
 40
12.7
100
AcDbArc
 50
78.48715217353209
 51
90.94225522512756
  0
SPLINE
  5
5CD34
330
1F
100
AcDbEntity
  8
Make2D visible lines - Tangent
100
AcDbSpline
210
0.0
220
0.0
230
1.0
 70
     8
 71
     3
 72
    14
 73
    10
 74
     0
 42
0.000000001
 43
0.0000000001
 40
0.2772630823298201
 40
0.2772630823298201
 40
0.2772630823298201
 40
0.2772630823298201
 40
1.0
 40
2.0
 40
3.0
 40
4.0
 40
5.0
 40
6.0
 40
7.0
 40
7.0
 40
7.0
 40
7.0
 10
-639.1068265126104
 20
-9.52092319921607
 30
377.9346008300781
 10
-638.0970829058728
 20
-9.726593662584804
 30
377.9346008300781
 10
-635.668188144446
 20
-10.10927612958207
 30
377.9346008300781
 10
-631.7780624031599
 20
-10.22970690536371
 30
377.9346008300781
 10
-627.5165440354181
 20
-9.772141306450837
 30
377.9346008300781
 10
-623.3574008326281
 20
-8.717295459934891
 30
377.9346008300781
 10
-619.4491654454948
 20
-6.926890755837438
 30
377.9346008300781
 10
-616.1227944232237
 20
-4.13022101616375
 30
377.9346008300781
 10
-614.9742012544557
 20
-1.386781106853822
 30
377.9346008300781
 10
-614.9870918994122
 20
0.0529924330532141
 30
377.9346008300781
  0
SPLINE
  5
5CD35
330
1F
100
AcDbEntity
  8
Make2D visible lines - Tangent
100
AcDbSpline
210
0.0
220
0.0
230
1.0
 70
     8
 71
     3
 72
    14
 73
    10
 74
     0
 42
0.000000001
 43
0.0000000001
 40
-7.0
 40
-7.0
 40
-7.0
 40
-7.0
 40
-6.0
 40
-5.0
 40
-4.0
 40
-3.0
 40
-2.0
 40
-1.0
 40
-0.2482205602640466
 40
-0.2482205602640466
 40
-0.2482205602640466
 40
-0.2482205602640466
 10
-614.9870918994122
 20
0.0529924330532141
 30
377.9346008300781
 10
-614.9742012544557
 20
1.492765972960251
 30
377.9346008300781
 10
-616.1227944232237
 20
4.236205882270178
 30
377.9346008300781
 10
-619.4491654454948
 20
7.032875621943868
 30
377.9346008300781
 10
-623.3574008326281
 20
8.823280326041778
 30
377.9346008300781
 10
-627.5165440354181
 20
9.878126172557269
 30
377.9346008300781
 10
-631.7780624031599
 20
10.33569177147015
 30
377.9346008300781
 10
-635.709682811796
 20
10.21397640097043
 30
377.9346008300781
 10
-638.1789680490624
 20
9.81958862594152
 30
377.9346008300781
 10
-639.2285083609213
 20
9.601896004065707
 30
377.9346008300781
  0
ARC
  5
5CD36
330
1F
100
AcDbEntity
  8
Make2D visible lines - Tangent
100
AcDbCircle
 10
-641.8078068385271
 20
22.03721744596728
 30
377.9346008300781
 40
12.7
100
AcDbArc
 50
268.9775798079509
 51
281.7179678781624
  0
SPLINE
  5
5CD37
330
1F
100
AcDbEntity
  8
Make2D visible lines - Tangent
100
AcDbSpline
210
0.0
220
0.0
230
1.0
 70
    12
 71
     2
 72
     6
 73
     3
 74
     0
 42
0.000000001
 43
0.0000000001
 40
-0.1297405451143296
 40
-0.1297405451143296
 40
-0.1297405451143296
 40
0.0
 40
0.0
 40
0.0
 10
-642.0344212146524
 20
9.339239420922382
 30
377.9346008300781
 41
0.9999960316975588
 10
-643.6818642790947
 20
9.368640502064096
 30
377.9346008300781
 41
0.999996865512317
 10
-645.3292105722612
 20
9.403039114579458
 30
377.9346008300781
 41
1.0
  0
SPLINE
  5
5CD38
330
1F
100
AcDbEntity
  8
Make2D visible lines - Tangent
100
AcDbSpline
210
0.0
220
0.0
230
1.0
 70
     8
 71
     3
 72
    12
 73
     8
 74
     0
 42
0.000000001
 43
0.0000000001
 40
0.0
 40
0.0
 40
0.0
 40
0.0
 40
0.1510110321465192
 40
0.3037660471064116
 40
0.5900965017365678
 40
0.8249401141264362
 40
1.014583801502342
 40
1.014583801502342
 40
1.014583801502342
 40
1.014583801502342
 10
-1337.69855322361
 20
10.25956382457327
 30
377.9346008300781
 10
-1338.97160722884
 20
10.38443587251443
 30
377.9346008300781
 10
-1341.544623526794
 20
10.48171224622486
 30
377.9346008300781
 10
-1346.53439812941
 20
10.04453038745608
 30
377.9346008300781
 10
-1352.075237307065
 20
8.509041040053334
 30
377.9346008300781
 10
-1357.176948324238
 20
5.086446210765944
 30
377.9346008300781
 10
-1358.821459290377
 20
1.687488407876418
 30
377.9346008300781
 10
-1358.789620906279
 20
0.0529795286568803
 30
377.9346008300781
  0
SPLINE
  5
5CD39
330
1F
100
AcDbEntity
  8
Make2D visible lines - Tangent
100
AcDbSpline
210
0.0
220
0.0
230
1.0
 70
     8
 71
     3
 72
    12
 73
     8
 74
     0
 42
0.000000001
 43
0.0000000001
 40
-1.014583801502342
 40
-1.014583801502342
 40
-1.014583801502342
 40
-1.014583801502342
 40
-0.8249401141264362
 40
-0.5900965017365678
 40
-0.3037660471064116
 40
-0.1510110321465192
 40
0.0
 40
0.0
 40
0.0
 40
0.0
 10
-1358.789620906279
 20
0.0529795286568803
 30
377.9346008300781
 10
-1358.821459290377
 20
-1.581529350562657
 30
377.9346008300781
 10
-1357.176948324238
 20
-4.980487153452185
 30
377.9346008300781
 10
-1352.075237307065
 20
-8.403081982739577
 30
377.9346008300781
 10
-1346.53439812941
 20
-9.938571330142323
 30
377.9346008300781
 10
-1341.544623526794
 20
-10.3757531889111
 30
377.9346008300781
 10
-1338.97160722884
 20
-10.27847681520068
 30
377.9346008300781
 10
-1337.69855322361
 20
-10.15360476725907
 30
377.9346008300781
  0
SPLINE
  5
5CD3A
330
1F
100
AcDbEntity
  8
Make2D visible lines
100
AcDbSpline
210
0.0
220
0.0
230
1.0
 70
    12
 71
     2
 72
     6
 73
     3
 74
     0
 42
0.000000001
 43
0.0000000001
 40
0.0
 40
0.0
 40
0.0
 40
0.0853474550214741
 40
0.0853474550214741
 40
0.0853474550214741
 10
-1338.588732329604
 20
-10.22880510003203
 30
377.9346008300781
 41
1.0
 10
-1339.670422786989
 20
-10.30468450028518
 30
377.9346008300781
 41
0.9993970637774639
 10
-1340.754771224687
 20
-10.30531270664703
 30
377.9346008300781
 41
1.0
  0
SPLINE
  5
5CD3B
330
1F
100
AcDbEntity
  8
Default
100
AcDbSpline
210
0.0
220
0.0
230
1.0
 70
     8
 71
     3
 72
    10
 73
     6
 74
     0
 42
0.000000001
 43
0.0000000001
 40
0.0
 40
0.0
 40
0.0
 40
0.0
 40
1.0
 40
2.0
 40
3.0
 40
3.0
 40
3.0
 40
3.0
 10
-971.5505975645339
 20
378.8031488420249
 30
377.9346008300781
 10
-983.1826582003779
 20
384.5209343618265
 30
377.9346008300781
 10
-1008.961726047683
 20
389.9138112295407
 30
377.9346008300781
 10
-1047.71575940784
 20
384.79571769076
 30
377.9346008300781
 10
-1072.333390598161
 20
376.7737291200135
 30
377.9346008300781
 10
-1084.281451334379
 20
371.8493850769994
 30
377.9346008300781
  0
SPLINE
  5
5CD3C
330
1F
100
AcDbEntity
  8
Default
100
AcDbSpline
210
0.0
220
0.0
230
1.0
 70
     8
 71
     3
 72
    10
 73
     6
 74
     0
 42
0.000000001
 43
0.0000000001
 40
-3.0
 40
-3.0
 40
-3.0
 40
-3.0
 40
-2.0
 40
-1.0
 40
0.0
 40
0.0
 40
0.0
 40
0.0
 10
-1084.281451334379
 20
371.8493850769994
 30
377.9346008300781
 10
-1132.042142816815
 20
352.0782502978907
 30
377.9346008300781
 10
-1216.924314164887
 20
289.5246268909098
 30
377.9346008300781
 10
-1298.618787131312
 20
154.9001909455922
 30
377.9346008300781
 10
-1317.324244018896
 20
51.65973888111905
 30
377.9346008300781
 10
-1316.904793592642
 20
0.0529796745425497
 30
377.9346008300781
  0
SPLINE
  5
5CD3D
330
1F
100
AcDbEntity
  8
Default
100
AcDbSpline
210
0.0
220
0.0
230
1.0
 70
     8
 71
     3
 72
    10
 73
     6
 74
     0
 42
0.000000001
 43
0.0000000001
 40
0.0
 40
0.0
 40
0.0
 40
0.0
 40
1.0
 40
2.0
 40
3.0
 40
3.0
 40
3.0
 40
3.0
 10
-1316.904793592642
 20
0.0529796745425497
 30
377.9346008300781
 10
-1317.324244018896
 20
-51.55377953203394
 30
377.9346008300781
 10
-1298.618787131312
 20
-154.7942315965071
 30
377.9346008300781
 10
-1216.924314164887
 20
-289.418667541825
 30
377.9346008300781
 10
-1132.042142816815
 20
-351.9722909488057
 30
377.9346008300781
 10
-1084.281451334379
 20
-371.7434257279145
 30
377.9346008300781
  0
SPLINE
  5
5CD3E
330
1F
100
AcDbEntity
  8
Default
100
AcDbSpline
210
0.0
220
0.0
230
1.0
 70
     8
 71
     3
 72
    10
 73
     6
 74
     0
 42
0.000000001
 43
0.0000000001
 40
-3.0
 40
-3.0
 40
-3.0
 40
-3.0
 40
-2.0
 40
-1.0
 40
0.0
 40
0.0
 40
0.0
 40
0.0
 10
-1084.281451334379
 20
-371.7434257279145
 30
377.9346008300781
 10
-1072.333390598161
 20
-376.667769770929
 30
377.9346008300781
 10
-1047.71575940784
 20
-384.6897583416751
 30
377.9346008300781
 10
-1008.961726047683
 20
-389.8078518804561
 30
377.9346008300781
 10
-983.1826582003781
 20
-384.4149750127417
 30
377.9346008300781
 10
-971.550597564534
 20
-378.6971894929402
 30
377.9346008300781
  0
ARC
  5
5CD3F
330
1F
100
AcDbEntity
  8
Default
100
AcDbCircle
 10
-1158.929469708673
 20
68.40536419261823
 30
377.9346008300781
 40
455.7859007505599
100
AcDbArc
 50
316.6258777617962
 51
325.4652013669019
  0
SPLINE
  5
5CD40
330
1F
100
AcDbEntity
  8
Default
100
AcDbSpline
210
0.0
220
0.0
230
1.0
 70
     8
 71
     3
 72
    14
 73
    10
 74
     0
 42
0.000000001
 43
0.0000000001
 40
0.0000000000000002
 40
0.0000000000000002
 40
0.0000000000000002
 40
0.0000000000000002
 40
1.0
 40
2.0
 40
3.0
 40
4.0
 40
5.0
 40
6.0
 40
7.0
 40
7.0
 40
7.0
 40
7.0
 10
-827.6255710651625
 20
-244.6098336278867
 30
377.9346008300781
 10
-837.3872313272189
 20
-254.9418434618217
 30
377.9346008300781
 10
-857.2148277475845
 20
-275.3552978712235
 30
377.9346008300781
 10
-889.1121884991617
 20
-303.6767788057376
 30
377.9346008300781
 10
-921.7197096190695
 20
-331.2218536853909
 30
377.9346008300781
 10
-956.0674963538119
 20
-356.4333805800063
 30
377.9346008300781
 10
-994.968572093752
 20
-375.6033358435068
 30
377.9346008300781
 10
-1038.663334954086
 20
-374.4257098219923
 30
377.9346008300781
 10
-1065.983637841168
 20
-366.5034935093702
 30
377.9346008300781
 10
-1079.204704143887
 20
-361.2116660976774
 30
377.9346008300781
  0
ARC
  5
5CD41
330
1F
100
AcDbEntity
  8
Default
100
AcDbCircle
 10
-1158.929469708673
 20
-68.29940484353321
 30
377.9346008300781
 40
455.7859007505599
100
AcDbArc
 50
34.53479863309797
 51
43.37412223820363
  0
SPLINE
  5
5CD42
330
1F
100
AcDbEntity
  8
Default
100
AcDbSpline
210
0.0
220
0.0
230
1.0
 70
     8
 71
     3
 72
    14
 73
    10
 74
     0
 42
0.000000001
 43
0.0000000001
 40
0.0000000000000002
 40
0.0000000000000002
 40
0.0000000000000002
 40
0.0000000000000002
 40
1.0
 40
2.0
 40
3.0
 40
4.0
 40
5.0
 40
6.0
 40
7.0
 40
7.0
 40
7.0
 40
7.0
 10
-827.6255710651625
 20
244.7157929769712
 30
377.9346008300781
 10
-837.3872313272189
 20
255.0478028109062
 30
377.9346008300781
 10
-857.2148277475843
 20
275.4612572203079
 30
377.9346008300781
 10
-889.1121884991616
 20
303.7827381548224
 30
377.9346008300781
 10
-921.7197096190693
 20
331.3278130344754
 30
377.9346008300781
 10
-956.0674963538117
 20
356.5393399290908
 30
377.9346008300781
 10
-994.9685720937518
 20
375.7092951925913
 30
377.9346008300781
 10
-1038.663334954086
 20
374.5316691710771
 30
377.9346008300781
 10
-1065.983637841168
 20
366.6094528584551
 30
377.9346008300781
 10
-1079.204704143887
 20
361.3176254467619
 30
377.9346008300781
  0
SPLINE
  5
5CD43
330
1F
100
AcDbEntity
  8
Default
100
AcDbSpline
210
0.0
220
0.0
230
1.0
 70
     8
 71
     3
 72
    24
 73
    20
 74
     0
 42
0.000000001
 43
0.0000000001
 40
0.0
 40
0.0
 40
0.0
 40
0.0
 40
1.0
 40
2.0
 40
3.0
 40
4.0
 40
5.0
 40
6.0
 40
7.0
 40
8.0
 40
9.0
 40
10.0
 40
11.0
 40
12.0
 40
13.0
 40
14.0
 40
15.0
 40
16.0
 40
17.0
 40
17.0
 40
17.0
 40
17.0
 10
-971.550597564534
 20
-378.6972430953237
 30
377.9346008300781
 10
-962.7268915447444
 20
-374.4445723037588
 30
377.9346008300781
 10
-945.8623379639597
 20
-364.450117564207
 30
377.9346008300781
 10
-921.7322876640237
 20
-347.681734510902
 30
377.9346008300781
 10
-898.7651144999421
 20
-329.3674050808745
 30
377.9346008300781
 10
-875.9469431432805
 20
-310.8813181380431
 30
377.9346008300781
 10
-853.2587734014787
 20
-292.2300245233108
 30
377.9346008300781
 10
-831.1303427968406
 20
-272.9153281847274
 30
377.9346008300781
 10
-809.6749899897186
 20
-252.8529704699852
 30
377.9346008300781
 10
-788.8610170193062
 20
-232.1355584386495
 30
377.9346008300781
 10
-767.7914688812511
 20
-211.6606583673113
 30
377.9346008300781
 10
-748.4010157190548
 20
-189.5668104139721
 30
377.9346008300781
 10
-730.9437635896397
 20
-165.9187435423126
 30
377.9346008300781
 10
-715.6411532774027
 20
-140.8157500021942
 30
377.9346008300781
 10
-702.7136221181783
 20
-114.4095262517065
 30
377.9346008300781
 10
-692.4339567231793
 20
-86.85776191886892
 30
377.9346008300781
 10
-685.0560276336969
 20
-58.39086392418433
 30
377.9346008300781
 10
-680.643865362173
 20
-29.31666250043857
 30
377.9346008300781
 10
-679.6767102502301
 20
-9.736637184648165
 30
377.9346008300781
 10
-679.6930069226505
 20
0.0529528733506285
 30
377.9346008300781
  0
SPLINE
  5
5CD44
330
1F
100
AcDbEntity
  8
Default
100
AcDbSpline
210
0.0
220
0.0
230
1.0
 70
     8
 71
     3
 72
    24
 73
    20
 74
     0
 42
0.000000001
 43
0.0000000001
 40
-17.0
 40
-17.0
 40
-17.0
 40
-17.0
 40
-16.0
 40
-15.0
 40
-14.0
 40
-13.0
 40
-12.0
 40
-11.0
 40
-10.0
 40
-9.0
 40
-8.0
 40
-7.0
 40
-6.0
 40
-5.0
 40
-4.0
 40
-3.0
 40
-2.0
 40
-1.0
 40
0.0
 40
0.0
 40
0.0
 40
0.0
 10
-679.6930069226505
 20
0.0529528733506285
 30
377.9346008300781
 10
-679.6767102502301
 20
9.842542931348967
 30
377.9346008300781
 10
-680.643865362173
 20
29.42256824713938
 30
377.9346008300781
 10
-685.0560276336969
 20
58.49676967088513
 30
377.9346008300781
 10
-692.4339567231793
 20
86.96366766556973
 30
377.9346008300781
 10
-702.7136221181783
 20
114.5154319984073
 30
377.9346008300781
 10
-715.6411532774027
 20
140.921655748895
 30
377.9346008300781
 10
-730.9437635896397
 20
166.0246492890134
 30
377.9346008300781
 10
-748.4010157190548
 20
189.6727161606733
 30
377.9346008300781
 10
-767.7914688812511
 20
211.7665641140126
 30
377.9346008300781
 10
-788.8610170193062
 20
232.2414641853508
 30
377.9346008300781
 10
-809.6749899897186
 20
252.9588762166861
 30
377.9346008300781
 10
-831.1303427968404
 20
273.0212339314286
 30
377.9346008300781
 10
-853.2587734014786
 20
292.335930270012
 30
377.9346008300781
 10
-875.9469431432803
 20
310.987223884744
 30
377.9346008300781
 10
-898.7651144999418
 20
329.4733108275757
 30
377.9346008300781
 10
-921.7322876640233
 20
347.7876402576033
 30
377.9346008300781
 10
-945.8623379639595
 20
364.5560233109084
 30
377.9346008300781
 10
-962.7268915447443
 20
374.55047805046
 30
377.9346008300781
 10
-971.5505975645339
 20
378.8031488420249
 30
377.9346008300781
  0
SPLINE
  5
5CD45
330
1F
100
AcDbEntity
  8
Default
100
AcDbSpline
210
0.0
220
0.0
230
1.0
 70
     8
 71
     3
 72
    12
 73
     8
 74
     0
 42
0.000000001
 43
0.0000000001
 40
-15.35241690788854
 40
-15.35241690788854
 40
-15.35241690788854
 40
-15.35241690788854
 40
-11.42846741267097
 40
-7.624448814229928
 40
-3.868777023834103
 40
-1.918304340297428
 40
0.0
 40
0.0
 40
0.0
 40
0.0
 10
-932.5948740898139
 20
244.5276243124042
 30
377.9346008300781
 10
-965.8024029006041
 20
244.5281600884425
 30
377.9346008300781
 10
-1031.380276165935
 20
232.7053089012149
 30
377.9346008300781
 10
-1114.938532138666
 20
179.2515234230457
 30
377.9346008300781
 10
-1161.032073722446
 20
111.1818645456331
 30
377.9346008300781
 10
-1179.67783082626
 20
49.05528682870071
 30
377.9346008300781
 10
-1182.848012415893
 20
16.29304731315986
 30
377.9346008300781
 10
-1182.834534645152
 20
0.0529796745425199
 30
377.9346008300781
  0
SPLINE
  5
5CD46
330
1F
100
AcDbEntity
  8
Default
100
AcDbSpline
210
0.0
220
0.0
230
1.0
 70
     8
 71
     3
 72
    12
 73
     8
 74
     0
 42
0.000000001
 43
0.0000000001
 40
0.0
 40
0.0
 40
0.0
 40
0.0
 40
1.918304340297428
 40
3.868777023834103
 40
7.624448814229928
 40
11.42846741267097
 40
15.35241690788854
 40
15.35241690788854
 40
15.35241690788854
 40
15.35241690788854
 10
-1182.834534645152
 20
0.0529796745425199
 30
377.9346008300781
 10
-1182.848012415893
 20
-16.18708796407528
 30
377.9346008300781
 10
-1179.67783082626
 20
-48.94932747961567
 30
377.9346008300781
 10
-1161.032073722446
 20
-111.075905196548
 30
377.9346008300781
 10
-1114.938532138666
 20
-179.1455640739611
 30
377.9346008300781
 10
-1031.380276165935
 20
-232.59934955213
 30
377.9346008300781
 10
-965.8024029006041
 20
-244.4222007393575
 30
377.9346008300781
 10
-932.5948740898139
 20
-244.4216649633197
 30
377.9346008300781
  0
SPLINE
  5
5CD47
330
1F
100
AcDbEntity
  8
Default
100
AcDbSpline
210
0.0
220
0.0
230
1.0
 70
     8
 71
     3
 72
    12
 73
     8
 74
     0
 42
0.000000001
 43
0.0000000001
 40
-14.89017237659325
 40
-14.89017237659325
 40
-14.89017237659325
 40
-14.89017237659325
 40
-11.21816892444778
 40
-7.516681648226318
 40
-3.774518777477096
 40
-1.889354184169619
 40
0.0
 40
0.0
 40
0.0
 40
0.0
 10
-932.5948740898139
 20
-244.4216649633197
 30
377.9346008300781
 10
-901.5010502252819
 20
-244.429997712505
 30
377.9346008300781
 10
-839.0882859639132
 20
-231.5483116363683
 30
377.9346008300781
 10
-760.1749911669062
 20
-176.8873626365583
 30
377.9346008300781
 10
-716.5663923912127
 20
-109.2444083241001
 30
377.9346008300781
 10
-698.5908063274657
 20
-47.9017185386436
 30
377.9346008300781
 10
-695.5170645385765
 20
-15.94222298771122
 30
377.9346008300781
 10
-695.5153415258389
 20
0.0529796745424117
 30
377.9346008300781
  0
SPLINE
  5
5CD48
330
1F
100
AcDbEntity
  8
Default
100
AcDbSpline
210
0.0
220
0.0
230
1.0
 70
     8
 71
     3
 72
    12
 73
     8
 74
     0
 42
0.000000001
 43
0.0000000001
 40
0.0
 40
0.0
 40
0.0
 40
0.0
 40
1.889354184169619
 40
3.774518777477096
 40
7.516681648226318
 40
11.21816892444778
 40
14.89017237659325
 40
14.89017237659325
 40
14.89017237659325
 40
14.89017237659325
 10
-695.5153415258389
 20
0.0529796745424117
 30
377.9346008300781
 10
-695.5170645385765
 20
16.04818233679604
 30
377.9346008300781
 10
-698.5908063274657
 20
48.00767788772798
 30
377.9346008300781
 10
-716.5663923912127
 20
109.3503676731845
 30
377.9346008300781
 10
-760.1749911669062
 20
176.9933219856427
 30
377.9346008300781
 10
-839.0882859639132
 20
231.6542709854532
 30
377.9346008300781
 10
-901.5010502252819
 20
244.5359570615899
 30
377.9346008300781
 10
-932.5948740898139
 20
244.5276243124042
 30
377.9346008300781
  0
SPLINE
  5
5CD49
330
1F
100
AcDbEntity
  8
Default
100
AcDbSpline
210
0.0
220
0.0
230
1.0
 70
     8
 71
     3
 72
    19
 73
    15
 74
     0
 42
0.000000001
 43
0.0000000001
 40
-12.0
 40
-12.0
 40
-12.0
 40
-12.0
 40
-11.0
 40
-10.0
 40
-9.0
 40
-8.0
 40
-7.0
 40
-6.0
 40
-5.0
 40
-4.0
 40
-3.0
 40
-2.0
 40
-1.0
 40
0.0
 40
0.0
 40
0.0
 40
0.0
 10
-766.3434458263857
 20
209.9496135275819
 30
377.9346008300781
 10
-783.1006120410002
 20
227.3494212871439
 30
377.9346008300781
 10
-816.7334448469079
 20
261.8537061346935
 30
377.9346008300781
 10
-867.7576139947303
 20
313.7513705927951
 30
377.9346008300781
 10
-924.9752588933693
 20
357.0267981193004
 30
377.9346008300781
 10
-986.136875432766
 20
400.8368810797795
 30
377.9346008300781
 10
-1061.470431588233
 20
395.4359163151851
 30
377.9346008300781
 10
-1127.62718878197
 20
365.0983289406156
 30
377.9346008300781
 10
-1186.783058235579
 20
322.7615522919912
 30
377.9346008300781
 10
-1236.71417458747
 20
269.8610325309644
 30
377.9346008300781
 10
-1276.789497093864
 20
209.2327621185166
 30
377.9346008300781
 10
-1306.245110913262
 20
142.7971575107183
 30
377.9346008300781
 10
-1324.535276060729
 20
72.46796786608486
 30
377.9346008300781
 10
-1328.79711638133
 20
24.19851892512391
 30
377.9346008300781
 10
-1328.80845942703
 20
0.0529796745425523
 30
377.9346008300781
  0
SPLINE
  5
5CD4A
330
1F
100
AcDbEntity
  8
Default
100
AcDbSpline
210
0.0
220
0.0
230
1.0
 70
     8
 71
     3
 72
    19
 73
    15
 74
     0
 42
0.000000001
 43
0.0000000001
 40
0.0
 40
0.0
 40
0.0
 40
0.0
 40
1.0
 40
2.0
 40
3.0
 40
4.0
 40
5.0
 40
6.0
 40
7.0
 40
8.0
 40
9.0
 40
10.0
 40
11.0
 40
12.0
 40
12.0
 40
12.0
 40
12.0
 10
-1328.80845942703
 20
0.0529796745425523
 30
377.9346008300781
 10
-1328.79711638133
 20
-24.09255957603925
 30
377.9346008300781
 10
-1324.535276060729
 20
-72.3620085170002
 30
377.9346008300781
 10
-1306.245110913262
 20
-142.6911981616333
 30
377.9346008300781
 10
-1276.789497093864
 20
-209.126802769432
 30
377.9346008300781
 10
-1236.71417458747
 20
-269.7550731818798
 30
377.9346008300781
 10
-1186.783058235579
 20
-322.6555929429064
 30
377.9346008300781
 10
-1127.62718878197
 20
-364.9923695915311
 30
377.9346008300781
 10
-1061.470431588233
 20
-395.3299569661006
 30
377.9346008300781
 10
-986.1368754327662
 20
-400.7309217306946
 30
377.9346008300781
 10
-924.9752588933697
 20
-356.9208387702156
 30
377.9346008300781
 10
-867.7576139947305
 20
-313.6454112437105
 30
377.9346008300781
 10
-816.733444846908
 20
-261.7477467856086
 30
377.9346008300781
 10
-783.1006120410002
 20
-227.2434619380595
 30
377.9346008300781
 10
-766.3434458263857
 20
-209.8436541784975
 30
377.9346008300781
  0
SPLINE
  5
5CD4B
330
1F
100
AcDbEntity
  8
Make2D visible lines - Tangent
100
AcDbSpline
210
0.0
220
0.0
230
1.0
 70
    12
 71
     2
 72
     6
 73
     3
 74
     0
 42
0.000000001
 43
0.0000000001
 40
-1.290200918579373
 40
-1.290200918579373
 40
-1.290200918579373
 40
0.0
 40
0.0
 40
0.0
 10
-679.8416103914838
 20
9.794592738397719
 30
377.9346008300781
 41
0.9999999993028318
 10
-663.4466771983839
 20
9.612885980352222
 30
377.9346008300781
 41
0.9999999996040196
 10
-647.0503290041188
 20
9.431399036945238
 30
377.9346008300781
 41
1.0
  0
SPLINE
  5
5CD4C
330
1F
100
AcDbEntity
  8
Make2D visible lines - Tangent
100
AcDbSpline
210
0.0
220
0.0
230
1.0
 70
     8
 71
     3
 72
    14
 73
    10
 74
     0
 42
0.000000001
 43
0.0000000001
 40
0.0
 40
0.0
 40
0.0
 40
0.0
 40
1.0
 40
2.0
 40
3.0
 40
4.0
 40
5.0
 40
6.0
 40
7.0
 40
7.0
 40
7.0
 40
7.0
 10
-647.0503290041188
 20
9.431399036945238
 30
377.9346008300781
 10
-645.2645664327751
 20
9.404731863388095
 30
377.9346008300781
 10
-641.8956134956827
 20
8.889186372379441
 30
377.9346008300781
 10
-637.2632333322067
 20
6.710251012908115
 30
377.9346008300781
 10
-633.8390328459568
 20
2.661618855638293
 30
377.9346008300781
 10
-633.9248166289273
 20
-2.753342753924557
 30
377.9346008300781
 10
-637.4292879892359
 20
-6.719714547841108
 30
377.9346008300781
 10
-642.0873755857059
 20
-8.838598665233206
 30
377.9346008300781
 10
-645.4614430573642
 20
-9.318862310028491
 30
377.9346008300781
 10
-647.1488516296765
 20
-9.319620325486395
 30
377.9346008300781
  0
SPLINE
  5
5CD4D
330
1F
100
AcDbEntity
  8
Make2D visible lines - Tangent
100
AcDbSpline
210
0.0
220
0.0
230
1.0
 70
    12
 71
     2
 72
     6
 73
     3
 74
     0
 42
0.000000001
 43
0.0000000001
 40
0.0
 40
0.0
 40
0.0
 40
1.287184386108664
 40
1.287184386108664
 40
1.287184386108664
 10
-647.1488516296765
 20
-9.319620325486395
 30
377.9346008300781
 41
1.0
 10
-663.495099703547
 20
-9.499855850628899
 30
377.9346008300781
 41
0.9999999996049455
 10
-679.8413442729445
 20
-9.680408930009738
 30
377.9346008300781
 41
0.9999999993042408
  0
SPLINE
  5
5CD4E
330
1F
100
AcDbEntity
  8
Make2D visible lines - Tangent
100
AcDbSpline
210
0.0
220
0.0
230
1.0
 70
     8
 71
     3
 72
    14
 73
    10
 74
     0
 42
0.000000001
 43
0.0000000001
 40
0.4515573393836121
 40
0.4515573393836121
 40
0.4515573393836121
 40
0.4515573393836121
 40
1.0
 40
2.0
 40
3.0
 40
4.0
 40
5.0
 40
6.0
 40
6.512759776800351
 40
6.512759776800351
 40
6.512759776800351
 40
6.512759776800351
 10
-1328.701803454394
 20
-9.147653022550162
 30
377.9346008300781
 10
-1329.634503311756
 20
-9.01820566454187
 30
377.9346008300781
 10
-1332.193751517547
 20
-8.455255605424712
 30
377.9346008300781
 10
-1336.128869927146
 20
-6.604291663823618
 30
377.9346008300781
 10
-1339.553070413395
 20
-2.555659506553795
 30
377.9346008300781
 10
-1339.467286630425
 20
2.859302103009055
 30
377.9346008300781
 10
-1335.962815270116
 20
6.825673896925605
 30
377.9346008300781
 10
-1332.061263553709
 20
8.6004228242203
 30
377.9346008300781
 10
-1329.558695480895
 20
9.13548365194249
 30
377.9346008300781
 10
-1328.701778428383
 20
9.25471531524165
 30
377.9346008300781
  0
SPLINE
  5
5CD4F
330
1F
100
AcDbEntity
  8
Make2D visible lines - Tangent
100
AcDbSpline
210
0.0
220
0.0
230
1.0
 70
    12
 71
     2
 72
     6
 73
     3
 74
     0
 42
0.000000001
 43
0.0000000001
 40
0.0250459851910298
 40
0.0250459851910298
 40
0.0250459851910298
 40
0.1369528492222414
 40
0.1369528492222414
 40
0.1369528492222414
 10
-1328.698942721382
 20
9.378865555307879
 30
377.9346008300781
 41
0.9999988755525052
 10
-1330.119974726853
 20
9.357474832424326
 30
377.9346008300781
 41
0.999996555042458
 10
-1331.541665527719
 20
9.373075560456822
 30
377.9346008300781
 41
0.9999959461296658
  0
ARC
  5
5CD50
330
1F
100
AcDbEntity
  8
Make2D visible lines - Tangent
100
AcDbCircle
 10
-1331.750513405622
 20
22.07135822245056
 30
377.9346008300781
 40
12.7
100
AcDbArc
 50
258.4871521735321
 51
270.9422552251275
  0
SPLINE
  5
5CD51
330
1F
100
AcDbEntity
  8
Make2D visible lines - Tangent
100
AcDbSpline
210
0.0
220
0.0
230
1.0
 70
     8
 71
     3
 72
    14
 73
    10
 74
     0
 42
0.000000001
 43
0.0000000001
 40
0.2772630823298201
 40
0.2772630823298201
 40
0.2772630823298201
 40
0.2772630823298201
 40
1.0
 40
2.0
 40
3.0
 40
4.0
 40
5.0
 40
6.0
 40
7.0
 40
7.0
 40
7.0
 40
7.0
 10
-1334.285276746741
 20
9.626882548300569
 30
377.9346008300781
 10
-1335.295020353479
 20
9.832553011669302
 30
377.9346008300781
 10
-1337.723915114906
 20
10.21523547866657
 30
377.9346008300781
 10
-1341.614040856192
 20
10.33566625444821
 30
377.9346008300781
 10
-1345.875559223934
 20
9.878100655535334
 30
377.9346008300781
 10
-1350.034702426724
 20
8.82325480901939
 30
377.9346008300781
 10
-1353.942937813857
 20
7.032850104921935
 30
377.9346008300781
 10
-1357.269308836128
 20
4.236180365248247
 30
377.9346008300781
 10
-1358.417902004896
 20
1.49274045593832
 30
377.9346008300781
 10
-1358.40501135994
 20
0.0529669160312839
 30
377.9346008300781
  0
SPLINE
  5
5CD52
330
1F
100
AcDbEntity
  8
Make2D visible lines - Tangent
100
AcDbSpline
210
0.0
220
0.0
230
1.0
 70
     8
 71
     3
 72
    14
 73
    10
 74
     0
 42
0.000000001
 43
0.0000000001
 40
-7.0
 40
-7.0
 40
-7.0
 40
-7.0
 40
-6.0
 40
-5.0
 40
-4.0
 40
-3.0
 40
-2.0
 40
-1.0
 40
-0.2482205602640466
 40
-0.2482205602640466
 40
-0.2482205602640466
 40
-0.2482205602640466
 10
-1358.40501135994
 20
0.0529669160312839
 30
377.9346008300781
 10
-1358.417902004896
 20
-1.386806623875753
 30
377.9346008300781
 10
-1357.269308836128
 20
-4.130246533186135
 30
377.9346008300781
 10
-1353.942937813857
 20
-6.92691627285937
 30
377.9346008300781
 10
-1350.034702426724
 20
-8.71732097695728
 30
377.9346008300781
 10
-1345.875559223934
 20
-9.772166823472772
 30
377.9346008300781
 10
-1341.614040856192
 20
-10.22973242238565
 30
377.9346008300781
 10
-1337.682420447557
 20
-10.10801705188594
 30
377.9346008300781
 10
-1335.21313521029
 20
-9.713629276857021
 30
377.9346008300781
 10
-1334.163594898431
 20
-9.495936654981209
 30
377.9346008300781
  0
ARC
  5
5CD53
330
1F
100
AcDbEntity
  8
Make2D visible lines - Tangent
100
AcDbCircle
 10
-1331.584296420825
 20
-21.93125809688325
 30
377.9346008300781
 40
12.7
100
AcDbArc
 50
88.97757980795091
 51
101.7179678781624
  0
SPLINE
  5
5CD54
330
1F
100
AcDbEntity
  8
Make2D visible lines - Tangent
100
AcDbSpline
210
0.0
220
0.0
230
1.0
 70
    12
 71
     2
 72
     6
 73
     3
 74
     0
 42
0.000000001
 43
0.0000000001
 40
-0.1297405451143296
 40
-0.1297405451143296
 40
-0.1297405451143296
 40
-0.025036663849024
 40
-0.025036663849024
 40
-0.025036663849024
 10
-1331.3576820447
 20
-9.233280071837885
 30
377.9346008300781
 41
0.9999960316975588
 10
-1330.028153865101
 20
-9.257007487207989
 30
377.9346008300781
 41
0.9999967046070288
 10
-1328.698687758965
 20
-9.283989763312252
 30
377.9346008300781
 41
0.9999988759207846
  0
CIRCLE
  5
5CD56
330
1F
100
AcDbEntity
  8
Default
100
AcDbCircle
 10
0.0
 20
0.0
 30
0.0
 40
381.0
  0
ENDSEC
  0
SECTION
  2
OBJECTS
  0
DICTIONARY
  5
C
330
0
100
AcDbDictionary
281
     1
  3
ACAD_BACKGROUND
350
5CB6D
  3
ACAD_CIP_PREVIOUS_PRODUCT_INFO
350
5CB52
  3
ACAD_COLOR
350
5CB4A
  3
ACAD_DETAILVIEWSTYLE
350
5CB47
  3
ACAD_GROUP
350
D
  3
ACAD_LAYOUT
350
1A
  3
ACAD_MATERIAL
350
43
  3
ACAD_MLEADERSTYLE
350
5CB46
  3
ACAD_MLINESTYLE
350
17
  3
ACAD_PLOTSETTINGS
350
19
  3
ACAD_PLOTSTYLENAME
350
E
  3
ACAD_SCALELIST
350
47
  3
ACAD_SECTIONVIEWSTYLE
350
5CB48
  3
ACAD_TABLESTYLE
350
5CB45
  3
ACAD_VISUALSTYLE
350
2A
  3
ACDB_RECOMPOSE_DATA
350
5CD9A
  3
AcDbVariableDictionary
350
5CB0C
  0
DICTIONARY
  5
5CB0A
330
8
100
AcDbDictionary
280
     1
281
     1
  0
SUN
  5
69
330
29
100
AcDbSun
 90
        1
290
     0
 63
     7
421
 16777215
 40
1.0
291
     1
 91
  2455826
 92
 54000000
292
     0
 70
     0
 71
   256
280
     1
  0
DICTIONARY
  5
5CB5A
330
2
100
AcDbDictionary
280
     1
281
     1
  3
ACAD_LAYERSTATES
360
5CB5B
  0
DICTIONARY
  5
5CB53
330
10
100
AcDbDictionary
280
     1
281
     1
  3
ADSK_XREC_LAYER_RECONCILED
360
5CB54
  0
DICTIONARY
  5
5CB55
330
6A
100
AcDbDictionary
280
     1
281
     1
  3
ADSK_XREC_LAYER_RECONCILED
360
5CB56
  0
DICTIONARY
  5
5CB7D
330
5CB7C
100
AcDbDictionary
280
     1
281
     1
  0
DICTIONARY
  5
5CB7F
330
5CB7E
100
AcDbDictionary
280
     1
281
     1
  0
DICTIONARY
  5
5CCE0
330
1F
100
AcDbDictionary
280
     1
281
     1
  3
ACAD_SORTENTS
360
5CCE1
  0
DICTIONARY
  5
5CB6D
102
{ACAD_REACTORS
330
C
102
}
330
C
100
AcDbDictionary
281
     1
  0
XRECORD
  5
5CB52
102
{ACAD_REACTORS
330
C
102
}
330
C
100
AcDbXrecord
280
     1
300
ACD
300
2016
300
ACD_F_S
  0
DICTIONARY
  5
5CB4A
102
{ACAD_REACTORS
330
C
102
}
330
C
100
AcDbDictionary
281
     1
  0
DICTIONARY
  5
5CB47
102
{ACAD_REACTORS
330
C
102
}
330
C
100
AcDbDictionary
281
     1
  3
Imperial24
350
5CB4E
  0
DICTIONARY
  5
D
102
{ACAD_REACTORS
330
C
102
}
330
C
100
AcDbDictionary
281
     1
  0
DICTIONARY
  5
1A
102
{ACAD_REACTORS
330
C
102
}
330
C
100
AcDbDictionary
281
     1
  3
Layout1
350
1E
  3
Layout2
350
26
  3
Model
350
22
  0
DICTIONARY
  5
43
102
{ACAD_REACTORS
330
C
102
}
330
C
100
AcDbDictionary
281
     1
  3
ByBlock
350
45
  3
ByLayer
350
44
  3
Global
350
46
  0
DICTIONARY
  5
5CB46
102
{ACAD_REACTORS
330
C
102
}
330
C
100
AcDbDictionary
281
     1
  3
Standard
350
5CB4C
  0
DICTIONARY
  5
17
102
{ACAD_REACTORS
330
C
102
}
330
C
100
AcDbDictionary
281
     1
  3
Standard
350
18
  0
DICTIONARY
  5
19
102
{ACAD_REACTORS
330
C
102
}
330
C
100
AcDbDictionary
281
     1
  0
ACDBDICTIONARYWDFLT
  5
E
102
{ACAD_REACTORS
330
C
102
}
330
C
100
AcDbDictionary
281
     1
  3
Normal
350
F
100
AcDbDictionaryWithDefault
340
F
  0
DICTIONARY
  5
47
102
{ACAD_REACTORS
330
C
102
}
330
C
100
AcDbDictionary
281
     1
  3
A0
350
48
  3
A1
350
49
  3
A2
350
4A
  3
A3
350
4B
  3
A4
350
4C
  3
A5
350
4D
  3
A6
350
4E
  3
A7
350
4F
  3
A8
350
50
  3
A9
350
51
  3
B0
350
52
  3
B1
350
53
  3
B2
350
54
  3
B3
350
55
  3
B4
350
56
  3
B5
350
57
  3
B6
350
58
  3
B7
350
59
  3
B8
350
5A
  3
B9
350
5B
  3
C0
350
5C
  3
C1
350
5D
  3
C2
350
5E
  3
C3
350
5F
  3
C4
350
60
  3
C5
350
61
  3
C6
350
62
  3
C7
350
63
  3
C8
350
64
  3
C9
350
65
  3
D0
350
66
  3
D1
350
67
  3
D2
350
68
  0
DICTIONARY
  5
5CB48
102
{ACAD_REACTORS
330
C
102
}
330
C
100
AcDbDictionary
281
     1
  3
Imperial24
350
5CB4D
  0
DICTIONARY
  5
5CB45
102
{ACAD_REACTORS
330
C
102
}
330
C
100
AcDbDictionary
281
     1
  3
Standard
350
5CB4B
  0
DICTIONARY
  5
2A
102
{ACAD_REACTORS
330
C
102
}
330
C
100
AcDbDictionary
281
     1
  3
2dWireframe
350
2F
  3
3D Hidden
350
5CB80
  3
3dWireframe
350
5CB81
  3
Basic
350
32
  3
Brighten
350
36
  3
ColorChange
350
3A
  3
Conceptual
350
34
  3
Dim
350
35
  3
EdgeColorOff
350
3D
  3
Facepattern
350
39
  3
Flat
350
2B
  3
FlatWithEdges
350
2C
  3
Gouraud
350
2D
  3
GouraudWithEdges
350
2E
  3
Hidden
350
31
  3
JitterOff
350
3B
  3
Linepattern
350
38
  3
OverhangOff
350
3C
  3
Realistic
350
33
  3
Shaded
350
42
  3
Shaded with edges
350
41
  3
Shades of Gray
350
3E
  3
Sketchy
350
3F
  3
Thicken
350
37
  3
Wireframe
350
30
  3
X-Ray
350
40
  0
XRECORD
  5
5CD9A
102
{ACAD_REACTORS
330
C
102
}
330
C
100
AcDbXrecord
280
     1
 90
        1
330
5CB4B
330
5CB4D
330
5CB4E
  0
DICTIONARY
  5
5CB0C
102
{ACAD_REACTORS
330
C
102
}
330
C
100
AcDbDictionary
281
     1
  3
CANNOSCALE
350
5CB0D
  3
CMLEADERSTYLE
350
5CD77
  3
CTABLESTYLE
350
5CD76
  3
CVIEWDETAILSTYLE
350
5CD78
  3
CVIEWSECTIONSTYLE
350
5CD79
  3
LAYEREVAL
350
5CD7B
  3
LAYERNOTIFY
350
5CD7C
  3
LIGHTINGUNITS
350
5CD7A
  3
MSLTSCALE
350
5CB0E
  0
DICTIONARY
  5
5CB5B
102
{ACAD_REACTORS
330
5CB5A
102
}
330
5CB5A
100
AcDbDictionary
281
     1
  0
XRECORD
  5
5CB54
102
{ACAD_REACTORS
330
5CB53
102
}
330
5CB53
100
AcDbXrecord
280
     1
290
     1
  0
XRECORD
  5
5CB56
102
{ACAD_REACTORS
330
5CB55
102
}
330
5CB55
100
AcDbXrecord
280
     1
290
     1
  0
SORTENTSTABLE
  5
5CCE1
102
{ACAD_REACTORS
330
5CCE0
102
}
330
5CCE0
100
AcDbSortentsTable
330
1F
331
5CC4B
  5
5CC4B
331
5CCCF
  5
5CCCF
331
5CC4C
  5
5CC4C
331
5CC4D
  5
5CC4D
331
5CCD8
  5
5CCD8
331
5CC45
  5
5CC45
331
5CC4E
  5
5CC4E
331
5CCD9
  5
5CCD9
331
5CC46
  5
5CC46
331
5CC4F
  5
5CC4F
331
5CCDA
  5
5CCDA
331
5CC47
  5
5CC47
331
5CC50
  5
5CC50
331
5CCC2
  5
5CCC2
331
5CCDB
  5
5CCDB
331
5CCDC
  5
5CCDC
331
5CCC3
  5
5CCC3
331
5CCDD
  5
5CCDD
331
5CCC4
  5
5CCC4
331
5CCC5
  5
5CCC5
331
5CCDE
  5
5CCDE
331
5CCC6
  5
5CCC6
331
5CCDF
  5
5CCDF
331
5CCC7
  5
5CCC7
331
5CCD0
  5
5CCD0
331
5CCD1
  5
5CCD1
331
5CCC8
  5
5CCC8
331
5CCC9
  5
5CCC9
331
5CCCA
  5
5CCCA
331
5CCCB
  5
5CCCB
331
5CC48
  5
5CC48
331
5CCCC
  5
5CCCC
331
5CC49
  5
5CC49
331
5CCCD
  5
5CCCD
331
5CCD6
  5
5CCD6
331
5CC4A
  5
5CC4A
331
5CCCE
  5
5CCCE
331
5CCD7
  5
5CCD7
  0
ACDBDETAILVIEWSTYLE
  5
5CB4E
102
{ACAD_XDICTIONARY
360
5CD73
102
}
102
{ACAD_REACTORS
330
5CB47
102
}
330
5CB47
100
AcDbModelDocViewStyle
 70
     0
  3
Imperial24
290
     0
100
AcDbDetailViewStyle
 70
     0
 71
     0
 90
        3
 71
     1
340
11
 62
   256
 40
0.24
340
0
 62
   256
 40
0.24
300

 40
0.36
280
     3
 71
     2
340
16
 90
       25
 62
   256
 71
     3
340
11
 62
   256
 40
0.24
 90
        1
 40
0.75
 90
        1
300
%<\AcVar ViewType \f "%tc1">% %<\AcVar ViewDetailId>%\PSCALE %<\AcVar ViewScale \f "%sn">%
 71
     4
340
16
 90
       25
 62
   256
340
16
 90
       25
 62
   256
280
     0
  0
LAYOUT
  5
1E
102
{ACAD_REACTORS
330
1A
102
}
330
1A
100
AcDbPlotSettings
  1

  2
none_device
  4

  6

 40
0.0
 41
0.0
 42
0.0
 43
0.0
 44
0.0
 45
0.0
 46
0.0
 47
0.0
 48
0.0
 49
0.0
140
0.0
141
0.0
142
1.0
143
1.0
 70
   688
 72
     0
 73
     0
 74
     5
  7

 75
    16
147
1.0
 76
     0
 77
     2
 78
   300
148
0.0
149
0.0
100
AcDbLayout
  1
Layout1
 70
     1
 71
     1
 10
0.0
 20
0.0
 11
12.0
 21
9.0
 12
0.0
 22
0.0
 32
0.0
 14
1.000000000000000E+20
 24
1.000000000000000E+20
 34
1.000000000000000E+20
 15
-1.000000000000000E+20
 25
-1.000000000000000E+20
 35
-1.000000000000000E+20
146
0.0
 13
0.0
 23
0.0
 33
0.0
 16
1.0
 26
0.0
 36
0.0
 17
0.0
 27
1.0
 37
0.0
 76
     0
330
1B
  0
LAYOUT
  5
26
102
{ACAD_REACTORS
330
1A
102
}
330
1A
100
AcDbPlotSettings
  1

  2
none_device
  4

  6

 40
0.0
 41
0.0
 42
0.0
 43
0.0
 44
0.0
 45
0.0
 46
0.0
 47
0.0
 48
0.0
 49
0.0
140
0.0
141
0.0
142
1.0
143
1.0
 70
   688
 72
     0
 73
     0
 74
     5
  7

 75
    16
147
1.0
 76
     0
 77
     2
 78
   300
148
0.0
149
0.0
100
AcDbLayout
  1
Layout2
 70
     1
 71
     2
 10
0.0
 20
0.0
 11
0.0
 21
0.0
 12
0.0
 22
0.0
 32
0.0
 14
0.0
 24
0.0
 34
0.0
 15
0.0
 25
0.0
 35
0.0
146
0.0
 13
0.0
 23
0.0
 33
0.0
 16
1.0
 26
0.0
 36
0.0
 17
0.0
 27
1.0
 37
0.0
 76
     0
330
23
  0
LAYOUT
  5
22
102
{ACAD_REACTORS
330
1A
102
}
330
1A
100
AcDbPlotSettings
  1

  2
none_device
  4
Letter_(8.50_x_11.00_Inches)
  6

 40
6.349999999999999
 41
6.349999999999999
 42
6.350005079999999
 43
6.350005079999999
 44
215.9
 45
279.4
 46
0.0
 47
0.0
 48
0.0
 49
0.0
140
0.0
141
0.0
142
1.0
143
1.0
 70
  1712
 72
     0
 73
     0
 74
     0
  7

 75
     0
147
1.0
 76
     0
 77
     2
 78
   300
148
0.0
149
0.0
100
AcDbLayout
  1
Model
 70
     1
 71
     0
 10
0.0
 20
0.0
 11
12.0
 21
9.0
 12
0.0
 22
0.0
 32
0.0
 14
-1264.202880859375
 24
-1264.202880859375
 34
-0.000000000000652
 15
1264.202880859375
 25
1264.202880859375
 35
709.343017578125
146
0.0
 13
0.0
 23
0.0
 33
0.0
 16
1.0
 26
0.0
 36
0.0
 17
0.0
 27
1.0
 37
0.0
 76
     0
330
1F
331
29
  0
MATERIAL
  5
45
102
{ACAD_REACTORS
330
43
102
}
330
43
100
AcDbMaterial
  1
ByBlock
 73
     1
 78
     1
172
     1
176
     1
270
     1
274
     1
  0
MATERIAL
  5
44
102
{ACAD_REACTORS
330
43
102
}
330
43
100
AcDbMaterial
  1
ByLayer
 73
     1
 78
     1
172
     1
176
     1
270
     1
274
     1
  0
MATERIAL
  5
46
102
{ACAD_REACTORS
330
43
102
}
330
43
100
AcDbMaterial
  1
Global
 73
     1
 78
     1
172
     1
176
     1
270
     1
274
     1
  0
MLEADERSTYLE
  5
5CB4C
102
{ACAD_REACTORS
330
5CB46
102
}
330
5CB46
100
AcDbMLeaderStyle
179
     2
170
     2
171
     1
172
     0
 90
        2
 40
0.0
 41
0.0
173
     1
 91
-1056964608
340
14
 92
       -2
290
     1
 42
0.09
291
     1
 43
0.36
  3
Standard
 44
0.18
300

342
11
174
     1
178
     6
175
     1
176
     0
 93
-1056964608
 45
0.18
292
     0
297
     0
 46
0.18
 94
-1056964608
 47
1.0
 49
1.0
140
1.0
293
     1
141
0.0
294
     1
177
     0
142
1.0
295
     1
296
     0
143
0.125
271
     0
272
     9
273
     9
298
     1
  0
MLINESTYLE
  5
18
102
{ACAD_REACTORS
330
17
102
}
330
17
100
AcDbMlineStyle
  2
STANDARD
 70
     0
  3

 62
   256
 51
90.0
 52
90.0
 71
     2
 49
0.5
 62
   256
  6
BYLAYER
 49
-0.5
 62
   256
  6
BYLAYER
  0
ACDBPLACEHOLDER
  5
F
102
{ACAD_REACTORS
330
E
102
}
330
E
  0
SCALE
  5
48
102
{ACAD_REACTORS
330
47
102
}
330
47
100
AcDbScale
 70
     0
300
1:1
140
1.0
141
1.0
290
     1
  0
SCALE
  5
49
102
{ACAD_REACTORS
330
47
102
}
330
47
100
AcDbScale
 70
     0
300
1:2
140
1.0
141
2.0
290
     0
  0
SCALE
  5
4A
102
{ACAD_REACTORS
330
47
102
}
330
47
100
AcDbScale
 70
     0
300
1:4
140
1.0
141
4.0
290
     0
  0
SCALE
  5
4B
102
{ACAD_REACTORS
330
47
102
}
330
47
100
AcDbScale
 70
     0
300
1:5
140
1.0
141
5.0
290
     0
  0
SCALE
  5
4C
102
{ACAD_REACTORS
330
47
102
}
330
47
100
AcDbScale
 70
     0
300
1:8
140
1.0
141
8.0
290
     0
  0
SCALE
  5
4D
102
{ACAD_REACTORS
330
47
102
}
330
47
100
AcDbScale
 70
     0
300
1:10
140
1.0
141
10.0
290
     0
  0
SCALE
  5
4E
102
{ACAD_REACTORS
330
47
102
}
330
47
100
AcDbScale
 70
     0
300
1:16
140
1.0
141
16.0
290
     0
  0
SCALE
  5
4F
102
{ACAD_REACTORS
330
47
102
}
330
47
100
AcDbScale
 70
     0
300
1:20
140
1.0
141
20.0
290
     0
  0
SCALE
  5
50
102
{ACAD_REACTORS
330
47
102
}
330
47
100
AcDbScale
 70
     0
300
1:30
140
1.0
141
30.0
290
     0
  0
SCALE
  5
51
102
{ACAD_REACTORS
330
47
102
}
330
47
100
AcDbScale
 70
     0
300
1:40
140
1.0
141
40.0
290
     0
  0
SCALE
  5
52
102
{ACAD_REACTORS
330
47
102
}
330
47
100
AcDbScale
 70
     0
300
1:50
140
1.0
141
50.0
290
     0
  0
SCALE
  5
53
102
{ACAD_REACTORS
330
47
102
}
330
47
100
AcDbScale
 70
     0
300
1:100
140
1.0
141
100.0
290
     0
  0
SCALE
  5
54
102
{ACAD_REACTORS
330
47
102
}
330
47
100
AcDbScale
 70
     0
300
2:1
140
2.0
141
1.0
290
     0
  0
SCALE
  5
55
102
{ACAD_REACTORS
330
47
102
}
330
47
100
AcDbScale
 70
     0
300
4:1
140
4.0
141
1.0
290
     0
  0
SCALE
  5
56
102
{ACAD_REACTORS
330
47
102
}
330
47
100
AcDbScale
 70
     0
300
8:1
140
8.0
141
1.0
290
     0
  0
SCALE
  5
57
102
{ACAD_REACTORS
330
47
102
}
330
47
100
AcDbScale
 70
     0
300
10:1
140
10.0
141
1.0
290
     0
  0
SCALE
  5
58
102
{ACAD_REACTORS
330
47
102
}
330
47
100
AcDbScale
 70
     0
300
100:1
140
100.0
141
1.0
290
     0
  0
SCALE
  5
59
102
{ACAD_REACTORS
330
47
102
}
330
47
100
AcDbScale
 70
     0
300
1/128" = 1'-0"
140
0.0078125
141
12.0
290
     0
  0
SCALE
  5
5A
102
{ACAD_REACTORS
330
47
102
}
330
47
100
AcDbScale
 70
     0
300
1/64" = 1'-0"
140
0.015625
141
12.0
290
     0
  0
SCALE
  5
5B
102
{ACAD_REACTORS
330
47
102
}
330
47
100
AcDbScale
 70
     0
300
1/32" = 1'-0"
140
0.03125
141
12.0
290
     0
  0
SCALE
  5
5C
102
{ACAD_REACTORS
330
47
102
}
330
47
100
AcDbScale
 70
     0
300
1/16" = 1'-0"
140
0.0625
141
12.0
290
     0
  0
SCALE
  5
5D
102
{ACAD_REACTORS
330
47
102
}
330
47
100
AcDbScale
 70
     0
300
3/32" = 1'-0"
140
0.09375
141
12.0
290
     0
  0
SCALE
  5
5E
102
{ACAD_REACTORS
330
47
102
}
330
47
100
AcDbScale
 70
     0
300
1/8" = 1'-0"
140
0.125
141
12.0
290
     0
  0
SCALE
  5
5F
102
{ACAD_REACTORS
330
47
102
}
330
47
100
AcDbScale
 70
     0
300
3/16" = 1'-0"
140
0.1875
141
12.0
290
     0
  0
SCALE
  5
60
102
{ACAD_REACTORS
330
47
102
}
330
47
100
AcDbScale
 70
     0
300
1/4" = 1'-0"
140
0.25
141
12.0
290
     0
  0
SCALE
  5
61
102
{ACAD_REACTORS
330
47
102
}
330
47
100
AcDbScale
 70
     0
300
3/8" = 1'-0"
140
0.375
141
12.0
290
     0
  0
SCALE
  5
62
102
{ACAD_REACTORS
330
47
102
}
330
47
100
AcDbScale
 70
     0
300
1/2" = 1'-0"
140
0.5
141
12.0
290
     0
  0
SCALE
  5
63
102
{ACAD_REACTORS
330
47
102
}
330
47
100
AcDbScale
 70
     0
300
3/4" = 1'-0"
140
0.75
141
12.0
290
     0
  0
SCALE
  5
64
102
{ACAD_REACTORS
330
47
102
}
330
47
100
AcDbScale
 70
     0
300
1" = 1'-0"
140
1.0
141
12.0
290
     0
  0
SCALE
  5
65
102
{ACAD_REACTORS
330
47
102
}
330
47
100
AcDbScale
 70
     0
300
1-1/2" = 1'-0"
140
1.5
141
12.0
290
     0
  0
SCALE
  5
66
102
{ACAD_REACTORS
330
47
102
}
330
47
100
AcDbScale
 70
     0
300
3" = 1'-0"
140
3.0
141
12.0
290
     0
  0
SCALE
  5
67
102
{ACAD_REACTORS
330
47
102
}
330
47
100
AcDbScale
 70
     0
300
6" = 1'-0"
140
6.0
141
12.0
290
     0
  0
SCALE
  5
68
102
{ACAD_REACTORS
330
47
102
}
330
47
100
AcDbScale
 70
     0
300
1'-0" = 1'-0"
140
12.0
141
12.0
290
     0
  0
ACDBSECTIONVIEWSTYLE
  5
5CB4D
102
{ACAD_XDICTIONARY
360
5CD71
102
}
102
{ACAD_REACTORS
330
5CB48
102
}
330
5CB48
100
AcDbModelDocViewStyle
 70
     0
  3
Imperial24
290
     0
100
AcDbSectionViewStyle
 70
     0
 71
     0
 90
       78
 71
     1
340
11
 62
   256
 40
0.24
340
0
340
0
 62
   256
 40
0.24
300
I, O, Q, S, X, Z
 40
0.48
 90
        3
 40
0.18
 90
        1
 71
     2
340
16
 90
       25
 62
   256
340
16
 90
       50
 62
   256
 40
0.24
 40
0.0
 40
0.24
 71
     3
340
11
 62
   256
 40
0.24
 90
        1
 40
0.75
 90
        1
300
%<\AcVar ViewType \f "%tc1">% %<\AcVar ViewSectionStartId>%-%<\AcVar ViewSectionEndId>%\PSCALE %<\AcVar ViewScale \f "%sn">%
 71
     4
 62
   256
 62
   257
300
ANSI31
 40
1.0
 90
        0
290
     0
290
     0
 90
        6
 40
0.0
 40
1.570796326794896
 40
0.2617993877991494
 40
1.308996938995747
 40
-0.2617993877991494
 40
1.832595714594046
  0
TABLESTYLE
  5
5CB4B
102
{ACAD_XDICTIONARY
360
5CD96
102
}
102
{ACAD_REACTORS
330
5CB45
102
}
330
5CB45
100
AcDbTableStyle
280
     0
  3
Standard
 70
     0
 71
     0
 40
0.06
 41
0.06
280
     0
281
     0
  7
Standard
140
0.18
170
     2
 62
     0
 63
     7
283
     0
 90
      512
 91
        0
  1

274
    -2
284
     1
 64
     0
275
    -2
285
     1
 65
     0
276
    -2
286
     1
 66
     0
277
    -2
287
     1
 67
     0
278
    -2
288
     1
 68
     0
279
    -2
289
     1
 69
     0
  7
Standard
140
0.25
170
     5
 62
     0
 63
     7
283
     0
 90
      512
 91
        0
  1

274
    -2
284
     1
 64
     0
275
    -2
285
     1
 65
     0
276
    -2
286
     1
 66
     0
277
    -2
287
     1
 67
     0
278
    -2
288
     1
 68
     0
279
    -2
289
     1
 69
     0
  7
Standard
140
0.18
170
     5
 62
     0
 63
     7
283
     0
 90
      512
 91
        0
  1

274
    -2
284
     1
 64
     0
275
    -2
285
     1
 65
     0
276
    -2
286
     1
 66
     0
277
    -2
287
     1
 67
     0
278
    -2
288
     1
 68
     0
279
    -2
289
     1
 69
     0
  0
VISUALSTYLE
  5
2F
102
{ACAD_REACTORS
330
2A
102
}
330
2A
100
AcDbVisualStyle
  2
2dWireframe
 70
     4
177
     3
291
     0
 70
    58
 90
        0
176
     1
 90
        2
176
     1
 90
        0
176
     1
 90
        0
176
     1
 40
0.6
176
     1
 40
30.0
176
     1
 62
     7
420
 16777215
176
     1
 90
        1
176
     1
 90
        4
176
     1
 62
     7
176
     1
 62
   257
176
     1
 90
        1
176
     1
 90
        1
176
     1
 40
1.0
176
     1
 90
        0
176
     1
 62
   257
176
     1
 40
1.0
176
     1
 90
        1
176
     1
 90
        6
176
     1
 90
        2
176
     1
 62
     7
176
     1
 90
        5
176
     1
 90
        0
176
     1
 90
        0
176
     1
290
     0
176
     1
 90
        1
176
     1
 40
0.0
176
     1
 90
        0
176
     1
290
     1
176
     1
290
     1
176
     1
290
     0
176
     1
290
     0
176
     1
290
     0
176
     1
290
     0
176
     1
290
     0
176
     1
290
     0
176
     1
290
     0
176
     1
 90
       50
176
     1
 40
0.0
176
     1
 40
1.0
176
     1
 90
        0
176
     1
 62
    18
420
        0
176
     1
 90
       50
176
     1
 90
        3
176
     1
 62
     5
420
      255
176
     1
290
     0
176
     1
 90
       50
176
     1
 90
       50
176
     1
 90
       50
176
     1
290
     0
176
     1
 90
       50
176
     1
 62
   256
176
     0
 40
1.0
176
     0
 90
        2
176
     1
  1
strokes_ogs.tif
176
     1
290
     0
176
     1
 40
1.0
176
     1
 40
1.0
176
     1
  0
VISUALSTYLE
  5
5CB80
102
{ACAD_REACTORS
330
2A
102
}
330
2A
100
AcDbVisualStyle
  2

 70
     6
177
     3
291
     0
 70
    58
 90
        1
176
     1
 90
        2
176
     1
 90
        2
176
     1
 90
        0
176
     1
 40
0.6
176
     1
 40
30.0
176
     1
 62
     7
420
 16777215
176
     1
 90
        2
176
     1
 90
        2
176
     1
 62
     7
176
     1
 62
   257
176
     1
 90
        2
176
     1
 90
        1
176
     1
 40
40.0
176
     1
 90
        0
176
     1
 62
   257
176
     1
 40
1.0
176
     1
 90
        1
176
     1
 90
        6
176
     1
 90
        2
176
     1
 62
     7
176
     1
 90
        3
176
     1
 90
        0
176
     1
 90
        0
176
     1
290
     0
176
     1
 90
        1
176
     1
 40
0.0
176
     1
 90
        0
176
     1
290
     0
176
     1
290
     1
176
     1
290
     1
176
     1
290
     0
176
     1
290
     0
176
     1
290
     0
176
     1
290
     0
176
     1
290
     0
176
     1
290
     0
176
     1
 90
       50
176
     1
 40
0.0
176
     1
 40
1.0
176
     1
 90
        0
176
     1
 62
    18
420
        0
176
     1
 90
       50
176
     1
 90
        3
176
     1
 62
     5
420
      255
176
     1
290
     0
176
     1
 90
       50
176
     1
 90
       50
176
     1
 90
       50
176
     1
290
     0
176
     1
 90
       50
176
     1
 62
   256
176
     0
 40
1.0
176
     0
 90
        2
176
     1
  1
strokes_ogs.tif
176
     1
290
     0
176
     1
 40
1.0
176
     1
 40
1.0
176
     1
  0
VISUALSTYLE
  5
5CB81
102
{ACAD_REACTORS
330
2A
102
}
330
2A
100
AcDbVisualStyle
  2

 70
     5
177
     3
291
     0
 70
    58
 90
        0
176
     1
 90
        2
176
     1
 90
        0
176
     1
 90
        0
176
     1
 40
0.6
176
     1
 40
30.0
176
     1
 62
     7
420
 16777215
176
     1
 90
        1
176
     1
 90
        4
176
     1
 62
     7
176
     1
 62
   257
176
     1
 90
        1
176
     1
 90
        1
176
     1
 40
1.0
176
     1
 90
        0
176
     1
 62
   257
176
     1
 40
1.0
176
     1
 90
        1
176
     1
 90
        6
176
     1
 90
        2
176
     1
 62
     7
176
     1
 90
        5
176
     1
 90
        0
176
     1
 90
        0
176
     1
290
     0
176
     1
 90
        1
176
     1
 40
0.0
176
     1
 90
        0
176
     1
290
     0
176
     1
290
     1
176
     1
290
     1
176
     1
290
     0
176
     1
290
     0
176
     1
290
     0
176
     1
290
     0
176
     1
290
     0
176
     1
290
     0
176
     1
 90
       50
176
     1
 40
0.0
176
     1
 40
1.0
176
     1
 90
        0
176
     1
 62
    18
420
        0
176
     1
 90
       50
176
     1
 90
        3
176
     1
 62
     5
420
      255
176
     1
290
     0
176
     1
 90
       50
176
     1
 90
       50
176
     1
 90
       50
176
     1
290
     0
176
     1
 90
       50
176
     1
 62
   256
176
     0
 40
1.0
176
     0
 90
        2
176
     1
  1
strokes_ogs.tif
176
     1
290
     0
176
     1
 40
1.0
176
     1
 40
1.0
176
     1
  0
VISUALSTYLE
  5
32
102
{ACAD_REACTORS
330
2A
102
}
330
2A
100
AcDbVisualStyle
  2
Basic
 70
     7
177
     3
291
     1
 70
    58
 90
        1
176
     1
 90
        0
176
     1
 90
        1
176
     1
 90
        0
176
     1
 40
0.6
176
     1
 40
30.0
176
     1
 62
     7
420
 16777215
176
     1
 90
        0
176
     1
 90
        4
176
     1
 62
     7
176
     1
 62
   257
176
     1
 90
        1
176
     1
 90
        1
176
     1
 40
1.0
176
     1
 90
        8
176
     1
 62
     7
176
     1
 40
1.0
176
     1
 90
        1
176
     1
 90
        6
176
     1
 90
        2
176
     1
 62
     7
176
     1
 90
        5
176
     1
 90
        0
176
     1
 90
        0
176
     1
290
     0
176
     1
 90
        1
176
     1
 40
0.0
176
     1
 90
        0
176
     1
290
     0
176
     1
290
     1
176
     1
290
     1
176
     1
290
     0
176
     1
290
     0
176
     1
290
     0
176
     1
290
     0
176
     1
290
     0
176
     1
290
     0
176
     1
 90
       50
176
     1
 40
0.0
176
     1
 40
1.0
176
     1
 90
        0
176
     1
 62
    18
420
        0
176
     1
 90
       50
176
     1
 90
        3
176
     1
 62
     5
420
      255
176
     1
290
     0
176
     1
 90
       50
176
     1
 90
       50
176
     1
 90
       50
176
     1
290
     0
176
     1
 90
       50
176
     1
 62
   256
176
     0
 40
1.0
176
     0
 90
        2
176
     1
  1
strokes_ogs.tif
176
     1
290
     0
176
     1
 40
1.0
176
     1
 40
1.0
176
     1
  0
VISUALSTYLE
  5
36
102
{ACAD_REACTORS
330
2A
102
}
330
2A
100
AcDbVisualStyle
  2
Brighten
 70
    12
177
     3
291
     1
 70
    58
 90
        2
176
     1
 90
        2
176
     1
 90
        0
176
     1
 90
        0
176
     1
 40
0.6
176
     1
 40
30.0
176
     1
 62
     7
420
 16777215
176
     1
 90
        1
176
     1
 90
        4
176
     1
 62
     7
176
     1
 62
   257
176
     1
 90
        1
176
     1
 90
        1
176
     1
 40
1.0
176
     1
 90
        8
176
     1
 62
     7
176
     1
 40
1.0
176
     1
 90
        1
176
     1
 90
        6
176
     1
 90
        2
176
     1
 62
     7
176
     1
 90
        5
176
     1
 90
        0
176
     1
 90
        0
176
     1
290
     0
176
     1
 90
        1
176
     1
 40
50.0
176
     1
 90
        0
176
     1
290
     0
176
     1
290
     1
176
     1
290
     1
176
     1
290
     0
176
     1
290
     0
176
     1
290
     0
176
     1
290
     0
176
     1
290
     0
176
     1
290
     0
176
     1
 90
       50
176
     1
 40
0.0
176
     1
 40
1.0
176
     1
 90
        0
176
     1
 62
    18
420
        0
176
     1
 90
       50
176
     1
 90
        3
176
     1
 62
     5
420
      255
176
     1
290
     0
176
     1
 90
       50
176
     1
 90
       50
176
     1
 90
       50
176
     1
290
     0
176
     1
 90
       50
176
     1
 62
   256
176
     0
 40
1.0
176
     0
 90
        2
176
     1
  1
strokes_ogs.tif
176
     1
290
     0
176
     1
 40
1.0
176
     1
 40
1.0
176
     1
  0
VISUALSTYLE
  5
3A
102
{ACAD_REACTORS
330
2A
102
}
330
2A
100
AcDbVisualStyle
  2
ColorChange
 70
    16
177
     3
291
     1
 70
    58
 90
        2
176
     1
 90
        2
176
     1
 90
        3
176
     1
 90
        0
176
     1
 40
0.6
176
     1
 40
30.0
176
     1
 62
     8
420
  8421504
176
     1
 90
        1
176
     1
 90
        4
176
     1
 62
     7
176
     1
 62
   257
176
     1
 90
        1
176
     1
 90
        1
176
     1
 40
1.0
176
     1
 90
        8
176
     1
 62
     8
420
  8421504
176
     1
 40
1.0
176
     1
 90
        1
176
     1
 90
        6
176
     1
 90
        2
176
     1
 62
     7
176
     1
 90
        5
176
     1
 90
        0
176
     1
 90
        0
176
     1
290
     0
176
     1
 90
        1
176
     1
 40
0.0
176
     1
 90
        0
176
     1
290
     0
176
     1
290
     1
176
     1
290
     1
176
     1
290
     0
176
     1
290
     0
176
     1
290
     0
176
     1
290
     0
176
     1
290
     0
176
     1
290
     0
176
     1
 90
       50
176
     1
 40
0.0
176
     1
 40
1.0
176
     1
 90
        0
176
     1
 62
    18
420
        0
176
     1
 90
       50
176
     1
 90
        3
176
     1
 62
     5
420
      255
176
     1
290
     0
176
     1
 90
       50
176
     1
 90
       50
176
     1
 90
       50
176
     1
290
     0
176
     1
 90
       50
176
     1
 62
   256
176
     0
 40
1.0
176
     0
 90
        2
176
     1
  1
strokes_ogs.tif
176
     1
290
     0
176
     1
 40
1.0
176
     1
 40
1.0
176
     1
  0
VISUALSTYLE
  5
34
102
{ACAD_REACTORS
330
2A
102
}
330
2A
100
AcDbVisualStyle
  2
Conceptual
 70
     9
177
     3
291
     0
 70
    58
 90
        3
176
     1
 90
        2
176
     1
 90
        0
176
     1
 90
        0
176
     1
 40
0.6
176
     1
 40
30.0
176
     1
 62
     7
420
 16777215
176
     1
 90
        2
176
     1
 90
        2
176
     1
 62
     7
176
     1
 62
   257
176
     1
 90
        1
176
     1
 90
        1
176
     1
 40
179.0
176
     1
 90
        8
176
     1
 62
     7
176
     1
 40
1.0
176
     1
 90
        1
176
     1
 90
        6
176
     1
 90
        2
176
     1
 62
     7
176
     1
 90
        3
176
     1
 90
        0
176
     1
 90
        0
176
     1
290
     0
176
     1
 90
        1
176
     1
 40
0.0
176
     1
 90
        0
176
     1
290
     0
176
     1
290
     1
176
     1
290
     1
176
     1
290
     0
176
     1
290
     0
176
     1
290
     0
176
     1
290
     0
176
     1
290
     0
176
     1
290
     0
176
     1
 90
       50
176
     1
 40
0.0
176
     1
 40
1.0
176
     1
 90
        0
176
     1
 62
    18
420
        0
176
     1
 90
       50
176
     1
 90
        3
176
     1
 62
     5
420
      255
176
     1
290
     0
176
     1
 90
       50
176
     1
 90
       50
176
     1
 90
       50
176
     1
290
     0
176
     1
 90
       50
176
     1
 62
   256
176
     0
 40
1.0
176
     0
 90
        2
176
     1
  1
strokes_ogs.tif
176
     1
290
     0
176
     1
 40
1.0
176
     1
 40
1.0
176
     1
  0
VISUALSTYLE
  5
35
102
{ACAD_REACTORS
330
2A
102
}
330
2A
100
AcDbVisualStyle
  2
Dim
 70
    11
177
     3
291
     1
 70
    58
 90
        2
176
     1
 90
        2
176
     1
 90
        0
176
     1
 90
        0
176
     1
 40
0.6
176
     1
 40
30.0
176
     1
 62
     7
420
 16777215
176
     1
 90
        1
176
     1
 90
        4
176
     1
 62
     7
176
     1
 62
   257
176
     1
 90
        1
176
     1
 90
        1
176
     1
 40
1.0
176
     1
 90
        8
176
     1
 62
     7
176
     1
 40
1.0
176
     1
 90
        1
176
     1
 90
        6
176
     1
 90
        2
176
     1
 62
     7
176
     1
 90
        5
176
     1
 90
        0
176
     1
 90
        0
176
     1
290
     0
176
     1
 90
        1
176
     1
 40
-50.0
176
     1
 90
        0
176
     1
290
     0
176
     1
290
     1
176
     1
290
     1
176
     1
290
     0
176
     1
290
     0
176
     1
290
     0
176
     1
290
     0
176
     1
290
     0
176
     1
290
     0
176
     1
 90
       50
176
     1
 40
0.0
176
     1
 40
1.0
176
     1
 90
        0
176
     1
 62
    18
420
        0
176
     1
 90
       50
176
     1
 90
        3
176
     1
 62
     5
420
      255
176
     1
290
     0
176
     1
 90
       50
176
     1
 90
       50
176
     1
 90
       50
176
     1
290
     0
176
     1
 90
       50
176
     1
 62
   256
176
     0
 40
1.0
176
     0
 90
        2
176
     1
  1
strokes_ogs.tif
176
     1
290
     0
176
     1
 40
1.0
176
     1
 40
1.0
176
     1
  0
VISUALSTYLE
  5
3D
102
{ACAD_REACTORS
330
2A
102
}
330
2A
100
AcDbVisualStyle
  2
EdgeColorOff
 70
    22
177
     3
291
     1
 70
    58
 90
        2
176
     0
 90
        2
176
     0
 90
        0
176
     0
 90
        0
176
     0
 40
0.6
176
     0
 40
30.0
176
     0
 62
     7
420
 16777215
176
     0
 90
        1
176
     0
 90
        4
176
     0
 62
     7
176
     0
 62
   257
176
     0
 90
        1
176
     0
 90
        1
176
     0
 40
1.0
176
     0
 90
        8
176
     2
 62
     7
176
     0
 40
1.0
176
     0
 90
        1
176
     0
 90
        6
176
     0
 90
        2
176
     0
 62
     7
176
     0
 90
        5
176
     0
 90
        0
176
     0
 90
        0
176
     0
290
     0
176
     0
 90
        1
176
     0
 40
0.0
176
     0
 90
        0
176
     0
290
     0
176
     0
290
     1
176
     0
290
     1
176
     0
290
     0
176
     0
290
     0
176
     0
290
     0
176
     0
290
     0
176
     0
290
     0
176
     0
290
     0
176
     0
 90
       50
176
     0
 40
0.0
176
     0
 40
1.0
176
     0
 90
        0
176
     0
 62
    18
420
        0
176
     0
 90
       50
176
     0
 90
        3
176
     0
 62
     5
420
      255
176
     0
290
     0
176
     0
 90
       50
176
     0
 90
       50
176
     0
 90
       50
176
     0
290
     0
176
     0
 90
       50
176
     0
 62
   256
176
     0
 40
1.0
176
     0
 90
        2
176
     0
  1
strokes_ogs.tif
176
     0
290
     0
176
     0
 40
1.0
176
     0
 40
1.0
176
     0
  0
VISUALSTYLE
  5
39
102
{ACAD_REACTORS
330
2A
102
}
330
2A
100
AcDbVisualStyle
  2
Facepattern
 70
    15
177
     3
291
     1
 70
    58
 90
        2
176
     1
 90
        2
176
     1
 90
        0
176
     1
 90
        0
176
     1
 40
0.6
176
     1
 40
30.0
176
     1
 62
     7
420
 16777215
176
     1
 90
        1
176
     1
 90
        4
176
     1
 62
     7
176
     1
 62
   257
176
     1
 90
        1
176
     1
 90
        1
176
     1
 40
1.0
176
     1
 90
        8
176
     1
 62
     7
176
     1
 40
1.0
176
     1
 90
        1
176
     1
 90
        6
176
     1
 90
        2
176
     1
 62
     7
176
     1
 90
        5
176
     1
 90
        0
176
     1
 90
        0
176
     1
290
     0
176
     1
 90
        1
176
     1
 40
0.0
176
     1
 90
        0
176
     1
290
     0
176
     1
290
     1
176
     1
290
     1
176
     1
290
     0
176
     1
290
     0
176
     1
290
     0
176
     1
290
     0
176
     1
290
     0
176
     1
290
     0
176
     1
 90
       50
176
     1
 40
0.0
176
     1
 40
1.0
176
     1
 90
        0
176
     1
 62
    18
420
        0
176
     1
 90
       50
176
     1
 90
        3
176
     1
 62
     5
420
      255
176
     1
290
     0
176
     1
 90
       50
176
     1
 90
       50
176
     1
 90
       50
176
     1
290
     0
176
     1
 90
       50
176
     1
 62
   256
176
     0
 40
1.0
176
     0
 90
        2
176
     1
  1
strokes_ogs.tif
176
     1
290
     0
176
     1
 40
1.0
176
     1
 40
1.0
176
     1
  0
VISUALSTYLE
  5
2B
102
{ACAD_REACTORS
330
2A
102
}
330
2A
100
AcDbVisualStyle
  2
Flat
 70
     0
177
     3
291
     1
 70
    58
 90
        2
176
     1
 90
        1
176
     1
 90
        1
176
     1
 90
        2
176
     1
 40
0.6
176
     1
 40
30.0
176
     1
 62
     7
420
 16777215
176
     1
 90
        0
176
     1
 90
        0
176
     1
 62
     7
176
     1
 62
   257
176
     1
 90
        1
176
     1
 90
        1
176
     1
 40
1.0
176
     1
 90
        8
176
     1
 62
     7
176
     1
 40
1.0
176
     1
 90
        1
176
     1
 90
        6
176
     1
 90
        2
176
     1
 62
     7
176
     1
 90
        5
176
     1
 90
        0
176
     1
 90
        0
176
     1
290
     0
176
     1
 90
       13
176
     1
 40
0.0
176
     1
 90
        0
176
     1
290
     0
176
     1
290
     1
176
     1
290
     1
176
     1
290
     0
176
     1
290
     0
176
     1
290
     0
176
     1
290
     0
176
     1
290
     0
176
     1
290
     0
176
     1
 90
       50
176
     1
 40
0.0
176
     1
 40
1.0
176
     1
 90
        0
176
     1
 62
    18
420
        0
176
     1
 90
       50
176
     1
 90
        3
176
     1
 62
     5
420
      255
176
     1
290
     0
176
     1
 90
       50
176
     1
 90
       50
176
     1
 90
       50
176
     1
290
     0
176
     1
 90
       50
176
     1
 62
   256
176
     0
 40
1.0
176
     0
 90
        2
176
     1
  1
strokes_ogs.tif
176
     1
290
     0
176
     1
 40
1.0
176
     1
 40
1.0
176
     1
  0
VISUALSTYLE
  5
2C
102
{ACAD_REACTORS
330
2A
102
}
330
2A
100
AcDbVisualStyle
  2
FlatWithEdges
 70
     1
177
     3
291
     1
 70
    58
 90
        2
176
     1
 90
        1
176
     1
 90
        1
176
     1
 90
        2
176
     1
 40
0.6
176
     1
 40
30.0
176
     1
 62
     7
420
 16777215
176
     1
 90
        1
176
     1
 90
        0
176
     1
 62
     7
176
     1
 62
   257
176
     1
 90
        1
176
     1
 90
        1
176
     1
 40
1.0
176
     1
 90
        0
176
     1
 62
   257
176
     1
 40
1.0
176
     1
 90
        1
176
     1
 90
        6
176
     1
 90
        2
176
     1
 62
     7
176
     1
 90
        5
176
     1
 90
        0
176
     1
 90
        0
176
     1
290
     0
176
     1
 90
       13
176
     1
 40
0.0
176
     1
 90
        0
176
     1
290
     0
176
     1
290
     1
176
     1
290
     1
176
     1
290
     0
176
     1
290
     0
176
     1
290
     0
176
     1
290
     0
176
     1
290
     0
176
     1
290
     0
176
     1
 90
       50
176
     1
 40
0.0
176
     1
 40
1.0
176
     1
 90
        0
176
     1
 62
    18
420
        0
176
     1
 90
       50
176
     1
 90
        3
176
     1
 62
     5
420
      255
176
     1
290
     0
176
     1
 90
       50
176
     1
 90
       50
176
     1
 90
       50
176
     1
290
     0
176
     1
 90
       50
176
     1
 62
   256
176
     0
 40
1.0
176
     0
 90
        2
176
     1
  1
strokes_ogs.tif
176
     1
290
     0
176
     1
 40
1.0
176
     1
 40
1.0
176
     1
  0
VISUALSTYLE
  5
2D
102
{ACAD_REACTORS
330
2A
102
}
330
2A
100
AcDbVisualStyle
  2
Gouraud
 70
     2
177
     3
291
     1
 70
    58
 90
        2
176
     1
 90
        2
176
     1
 90
        1
176
     1
 90
        2
176
     1
 40
0.6
176
     1
 40
30.0
176
     1
 62
     7
420
 16777215
176
     1
 90
        0
176
     1
 90
        0
176
     1
 62
     7
176
     1
 62
   257
176
     1
 90
        1
176
     1
 90
        1
176
     1
 40
1.0
176
     1
 90
        0
176
     1
 62
     7
176
     1
 40
1.0
176
     1
 90
        1
176
     1
 90
        6
176
     1
 90
        2
176
     1
 62
     7
176
     1
 90
        5
176
     1
 90
        0
176
     1
 90
        0
176
     1
290
     0
176
     1
 90
       13
176
     1
 40
0.0
176
     1
 90
        0
176
     1
290
     0
176
     1
290
     1
176
     1
290
     1
176
     1
290
     0
176
     1
290
     0
176
     1
290
     0
176
     1
290
     0
176
     1
290
     0
176
     1
290
     0
176
     1
 90
       50
176
     1
 40
0.0
176
     1
 40
1.0
176
     1
 90
        0
176
     1
 62
    18
420
        0
176
     1
 90
       50
176
     1
 90
        3
176
     1
 62
     5
420
      255
176
     1
290
     0
176
     1
 90
       50
176
     1
 90
       50
176
     1
 90
       50
176
     1
290
     0
176
     1
 90
       50
176
     1
 62
   256
176
     0
 40
1.0
176
     0
 90
        2
176
     1
  1
strokes_ogs.tif
176
     1
290
     0
176
     1
 40
1.0
176
     1
 40
1.0
176
     1
  0
VISUALSTYLE
  5
2E
102
{ACAD_REACTORS
330
2A
102
}
330
2A
100
AcDbVisualStyle
  2
GouraudWithEdges
 70
     3
177
     3
291
     1
 70
    58
 90
        2
176
     1
 90
        2
176
     1
 90
        1
176
     1
 90
        2
176
     1
 40
0.6
176
     1
 40
30.0
176
     1
 62
     7
420
 16777215
176
     1
 90
        1
176
     1
 90
        0
176
     1
 62
     7
176
     1
 62
   257
176
     1
 90
        1
176
     1
 90
        1
176
     1
 40
1.0
176
     1
 90
        0
176
     1
 62
   257
176
     1
 40
1.0
176
     1
 90
        1
176
     1
 90
        6
176
     1
 90
        2
176
     1
 62
     7
176
     1
 90
        5
176
     1
 90
        0
176
     1
 90
        0
176
     1
290
     0
176
     1
 90
       13
176
     1
 40
0.0
176
     1
 90
        0
176
     1
290
     0
176
     1
290
     1
176
     1
290
     1
176
     1
290
     0
176
     1
290
     0
176
     1
290
     0
176
     1
290
     0
176
     1
290
     0
176
     1
290
     0
176
     1
 90
       50
176
     1
 40
0.0
176
     1
 40
1.0
176
     1
 90
        0
176
     1
 62
    18
420
        0
176
     1
 90
       50
176
     1
 90
        3
176
     1
 62
     5
420
      255
176
     1
290
     0
176
     1
 90
       50
176
     1
 90
       50
176
     1
 90
       50
176
     1
290
     0
176
     1
 90
       50
176
     1
 62
   256
176
     0
 40
1.0
176
     0
 90
        2
176
     1
  1
strokes_ogs.tif
176
     1
290
     0
176
     1
 40
1.0
176
     1
 40
1.0
176
     1
  0
VISUALSTYLE
  5
31
102
{ACAD_REACTORS
330
2A
102
}
330
2A
100
AcDbVisualStyle
  2
Hidden
 70
     6
177
     3
291
     0
 70
    58
 90
        1
176
     1
 90
        2
176
     1
 90
        2
176
     1
 90
        0
176
     1
 40
0.6
176
     1
 40
30.0
176
     1
 62
     7
420
 16777215
176
     1
 90
        2
176
     1
 90
        2
176
     1
 62
     7
176
     1
 62
   257
176
     1
 90
        2
176
     1
 90
        1
176
     1
 40
40.0
176
     1
 90
        0
176
     1
 62
   257
176
     1
 40
1.0
176
     1
 90
        1
176
     1
 90
        6
176
     1
 90
        2
176
     1
 62
     7
176
     1
 90
        3
176
     1
 90
        0
176
     1
 90
        0
176
     1
290
     0
176
     1
 90
        1
176
     1
 40
0.0
176
     1
 90
        0
176
     1
290
     0
176
     1
290
     1
176
     1
290
     1
176
     1
290
     0
176
     1
290
     0
176
     1
290
     0
176
     1
290
     0
176
     1
290
     0
176
     1
290
     0
176
     1
 90
       50
176
     1
 40
0.0
176
     1
 40
1.0
176
     1
 90
        0
176
     1
 62
    18
420
        0
176
     1
 90
       50
176
     1
 90
        3
176
     1
 62
     5
420
      255
176
     1
290
     0
176
     1
 90
       50
176
     1
 90
       50
176
     1
 90
       50
176
     1
290
     0
176
     1
 90
       50
176
     1
 62
   256
176
     0
 40
1.0
176
     0
 90
        2
176
     1
  1
strokes_ogs.tif
176
     1
290
     0
176
     1
 40
1.0
176
     1
 40
1.0
176
     1
  0
VISUALSTYLE
  5
3B
102
{ACAD_REACTORS
330
2A
102
}
330
2A
100
AcDbVisualStyle
  2
JitterOff
 70
    20
177
     3
291
     1
 70
    58
 90
        2
176
     0
 90
        2
176
     0
 90
        0
176
     0
 90
        0
176
     0
 40
0.6
176
     0
 40
30.0
176
     0
 62
     7
420
 16777215
176
     0
 90
        1
176
     0
 90
        4
176
     0
 62
     7
176
     0
 62
   257
176
     0
 90
        1
176
     0
 90
        1
176
     0
 40
1.0
176
     0
 90
       10
176
     2
 62
     7
176
     0
 40
1.0
176
     0
 90
        1
176
     0
 90
        6
176
     0
 90
        2
176
     0
 62
     7
176
     0
 90
        5
176
     0
 90
        0
176
     0
 90
        0
176
     0
290
     0
176
     0
 90
        1
176
     0
 40
0.0
176
     0
 90
        0
176
     0
290
     0
176
     0
290
     1
176
     0
290
     1
176
     0
290
     0
176
     0
290
     0
176
     0
290
     0
176
     0
290
     0
176
     0
290
     0
176
     0
290
     0
176
     0
 90
       50
176
     0
 40
0.0
176
     0
 40
1.0
176
     0
 90
        0
176
     0
 62
    18
420
        0
176
     0
 90
       50
176
     0
 90
        3
176
     0
 62
     5
420
      255
176
     0
290
     0
176
     0
 90
       50
176
     0
 90
       50
176
     0
 90
       50
176
     0
290
     0
176
     0
 90
       50
176
     0
 62
   256
176
     0
 40
1.0
176
     0
 90
        2
176
     0
  1
strokes_ogs.tif
176
     0
290
     0
176
     0
 40
1.0
176
     0
 40
1.0
176
     0
  0
VISUALSTYLE
  5
38
102
{ACAD_REACTORS
330
2A
102
}
330
2A
100
AcDbVisualStyle
  2
Linepattern
 70
    14
177
     3
291
     1
 70
    58
 90
        2
176
     1
 90
        2
176
     1
 90
        0
176
     1
 90
        0
176
     1
 40
0.6
176
     1
 40
30.0
176
     1
 62
     7
420
 16777215
176
     1
 90
        1
176
     1
 90
        4
176
     1
 62
     7
176
     1
 62
   257
176
     1
 90
        7
176
     1
 90
        7
176
     1
 40
1.0
176
     1
 90
        8
176
     1
 62
     7
176
     1
 40
1.0
176
     1
 90
        1
176
     1
 90
        6
176
     1
 90
        2
176
     1
 62
     7
176
     1
 90
        5
176
     1
 90
        0
176
     1
 90
        0
176
     1
290
     0
176
     1
 90
        1
176
     1
 40
0.0
176
     1
 90
        0
176
     1
290
     0
176
     1
290
     1
176
     1
290
     1
176
     1
290
     0
176
     1
290
     0
176
     1
290
     0
176
     1
290
     0
176
     1
290
     0
176
     1
290
     0
176
     1
 90
       50
176
     1
 40
0.0
176
     1
 40
1.0
176
     1
 90
        0
176
     1
 62
    18
420
        0
176
     1
 90
       50
176
     1
 90
        3
176
     1
 62
     5
420
      255
176
     1
290
     0
176
     1
 90
       50
176
     1
 90
       50
176
     1
 90
       50
176
     1
290
     0
176
     1
 90
       50
176
     1
 62
   256
176
     0
 40
1.0
176
     0
 90
        2
176
     1
  1
strokes_ogs.tif
176
     1
290
     0
176
     1
 40
1.0
176
     1
 40
1.0
176
     1
  0
VISUALSTYLE
  5
3C
102
{ACAD_REACTORS
330
2A
102
}
330
2A
100
AcDbVisualStyle
  2
OverhangOff
 70
    21
177
     3
291
     1
 70
    58
 90
        2
176
     0
 90
        2
176
     0
 90
        0
176
     0
 90
        0
176
     0
 40
0.6
176
     0
 40
30.0
176
     0
 62
     7
420
 16777215
176
     0
 90
        1
176
     0
 90
        4
176
     0
 62
     7
176
     0
 62
   257
176
     0
 90
        1
176
     0
 90
        1
176
     0
 40
1.0
176
     0
 90
        9
176
     2
 62
     7
176
     0
 40
1.0
176
     0
 90
        1
176
     0
 90
        6
176
     0
 90
        2
176
     0
 62
     7
176
     0
 90
        5
176
     0
 90
        0
176
     0
 90
        0
176
     0
290
     0
176
     0
 90
        1
176
     0
 40
0.0
176
     0
 90
        0
176
     0
290
     0
176
     0
290
     1
176
     0
290
     1
176
     0
290
     0
176
     0
290
     0
176
     0
290
     0
176
     0
290
     0
176
     0
290
     0
176
     0
290
     0
176
     0
 90
       50
176
     0
 40
0.0
176
     0
 40
1.0
176
     0
 90
        0
176
     0
 62
    18
420
        0
176
     0
 90
       50
176
     0
 90
        3
176
     0
 62
     5
420
      255
176
     0
290
     0
176
     0
 90
       50
176
     0
 90
       50
176
     0
 90
       50
176
     0
290
     0
176
     0
 90
       50
176
     0
 62
   256
176
     0
 40
1.0
176
     0
 90
        2
176
     0
  1
strokes_ogs.tif
176
     0
290
     0
176
     0
 40
1.0
176
     0
 40
1.0
176
     0
  0
VISUALSTYLE
  5
33
102
{ACAD_REACTORS
330
2A
102
}
330
2A
100
AcDbVisualStyle
  2
Realistic
 70
     8
177
     3
291
     0
 70
    58
 90
        2
176
     1
 90
        3
176
     1
 90
        0
176
     1
 90
        2
176
     1
 40
0.6
176
     1
 40
30.0
176
     1
 62
     7
420
 16777215
176
     1
 90
        0
176
     1
 90
        0
176
     1
 62
     7
176
     1
 62
   257
176
     1
 90
        1
176
     1
 90
        1
176
     1
 40
1.0
176
     1
 90
        8
176
     1
 62
   257
176
     1
 40
1.0
176
     1
 90
        1
176
     1
 90
        6
176
     1
 90
        2
176
     1
 62
     7
176
     1
 90
        3
176
     1
 90
        0
176
     1
 90
        0
176
     1
290
     0
176
     1
 90
       13
176
     1
 40
0.0
176
     1
 90
        0
176
     1
290
     0
176
     1
290
     1
176
     1
290
     1
176
     1
290
     0
176
     1
290
     0
176
     1
290
     0
176
     1
290
     0
176
     1
290
     0
176
     1
290
     0
176
     1
 90
       50
176
     1
 40
0.0
176
     1
 40
1.0
176
     1
 90
        0
176
     1
 62
    18
420
        0
176
     1
 90
       50
176
     1
 90
        3
176
     1
 62
     5
420
      255
176
     1
290
     0
176
     1
 90
       50
176
     1
 90
       50
176
     1
 90
       50
176
     1
290
     0
176
     1
 90
       50
176
     1
 62
   256
176
     0
 40
1.0
176
     0
 90
        2
176
     1
  1
strokes_ogs.tif
176
     1
290
     0
176
     1
 40
1.0
176
     1
 40
1.0
176
     1
  0
VISUALSTYLE
  5
42
102
{ACAD_REACTORS
330
2A
102
}
330
2A
100
AcDbVisualStyle
  2
Shaded
 70
    27
177
     3
291
     0
 70
    58
 90
        2
176
     1
 90
        2
176
     1
 90
        1
176
     1
 90
        2
176
     1
 40
0.6
176
     1
 40
30.0
176
     1
 62
     7
420
 16777215
176
     1
 90
        0
176
     1
 90
        4
176
     1
 62
     7
176
     1
 62
   257
176
     1
 90
        1
176
     1
 90
        1
176
     1
 40
1.0
176
     1
 90
        8
176
     1
 62
   257
176
     1
 40
1.0
176
     1
 90
        1
176
     1
 90
        6
176
     1
 90
        2
176
     1
 62
     8
420
  7895160
176
     1
 90
        3
176
     1
 90
        0
176
     1
 90
        0
176
     1
290
     0
176
     1
 90
        5
176
     1
 40
0.0
176
     1
 90
        0
176
     1
290
     0
176
     1
290
     1
176
     1
290
     1
176
     1
290
     0
176
     1
290
     0
176
     1
290
     0
176
     1
290
     0
176
     1
290
     0
176
     1
290
     0
176
     1
 90
       50
176
     1
 40
0.0
176
     1
 40
1.0
176
     1
 90
        0
176
     1
 62
    18
420
        0
176
     1
 90
       50
176
     1
 90
        3
176
     1
 62
     5
420
      255
176
     1
290
     0
176
     1
 90
       50
176
     1
 90
       50
176
     1
 90
       50
176
     1
290
     0
176
     1
 90
       50
176
     1
 62
   256
176
     0
 40
1.0
176
     0
 90
        2
176
     1
  1
strokes_ogs.tif
176
     1
290
     0
176
     1
 40
1.0
176
     1
 40
1.0
176
     1
  0
VISUALSTYLE
  5
41
102
{ACAD_REACTORS
330
2A
102
}
330
2A
100
AcDbVisualStyle
  2
Shaded with edges
 70
    26
177
     3
291
     0
 70
    58
 90
        2
176
     1
 90
        2
176
     1
 90
        1
176
     1
 90
        2
176
     1
 40
0.6
176
     1
 40
30.0
176
     1
 62
     7
420
 16777215
176
     1
 90
        1
176
     1
 90
       10
176
     1
 62
     7
176
     1
 62
   257
176
     1
 90
        2
176
     1
 90
        1
176
     1
 40
1.0
176
     1
 90
        8
176
     1
 62
   257
176
     1
 40
1.0
176
     1
 90
        1
176
     1
 90
        6
176
     1
 90
        2
176
     1
 62
     7
176
     1
 90
        3
176
     1
 90
        0
176
     1
 90
        0
176
     1
290
     0
176
     1
 90
        5
176
     1
 40
0.0
176
     1
 90
        0
176
     1
290
     0
176
     1
290
     1
176
     1
290
     1
176
     1
290
     0
176
     1
290
     0
176
     1
290
     0
176
     1
290
     0
176
     1
290
     0
176
     1
290
     0
176
     1
 90
       50
176
     1
 40
0.0
176
     1
 40
1.0
176
     1
 90
        0
176
     1
 62
    18
420
        0
176
     1
 90
       50
176
     1
 90
        3
176
     1
 62
     5
420
      255
176
     1
290
     0
176
     1
 90
       50
176
     1
 90
       50
176
     1
 90
       50
176
     1
290
     0
176
     1
 90
       50
176
     1
 62
   256
176
     0
 40
1.0
176
     0
 90
        2
176
     1
  1
strokes_ogs.tif
176
     1
290
     0
176
     1
 40
1.0
176
     1
 40
1.0
176
     1
  0
VISUALSTYLE
  5
3E
102
{ACAD_REACTORS
330
2A
102
}
330
2A
100
AcDbVisualStyle
  2
Shades of Gray
 70
    23
177
     3
291
     0
 70
    58
 90
        2
176
     1
 90
        2
176
     1
 90
        3
176
     1
 90
        0
176
     1
 40
0.6
176
     1
 40
30.0
176
     1
 62
     7
420
 16777215
176
     1
 90
        2
176
     1
 90
        2
176
     1
 62
     7
176
     1
 62
     7
176
     1
 90
        1
176
     1
 90
        1
176
     1
 40
40.0
176
     1
 90
        8
176
     1
 62
     7
176
     1
 40
1.0
176
     1
 90
        1
176
     1
 90
        6
176
     1
 90
        2
176
     1
 62
     7
176
     1
 90
        3
176
     1
 90
        0
176
     1
 90
        0
176
     1
290
     0
176
     1
 90
        1
176
     1
 40
0.0
176
     1
 90
        0
176
     1
290
     0
176
     1
290
     1
176
     1
290
     1
176
     1
290
     0
176
     1
290
     0
176
     1
290
     0
176
     1
290
     0
176
     1
290
     0
176
     1
290
     0
176
     1
 90
       50
176
     1
 40
0.0
176
     1
 40
1.0
176
     1
 90
        0
176
     1
 62
    18
420
        0
176
     1
 90
       50
176
     1
 90
        3
176
     1
 62
     5
420
      255
176
     1
290
     0
176
     1
 90
       50
176
     1
 90
       50
176
     1
 90
       50
176
     1
290
     0
176
     1
 90
       50
176
     1
 62
   256
176
     0
 40
1.0
176
     0
 90
        2
176
     1
  1
strokes_ogs.tif
176
     1
290
     0
176
     1
 40
1.0
176
     1
 40
1.0
176
     1
  0
VISUALSTYLE
  5
3F
102
{ACAD_REACTORS
330
2A
102
}
330
2A
100
AcDbVisualStyle
  2
Sketchy
 70
    24
177
     3
291
     0
 70
    58
 90
        1
176
     1
 90
        2
176
     1
 90
        2
176
     1
 90
        0
176
     1
 40
0.6
176
     1
 40
30.0
176
     1
 62
     7
420
 16777215
176
     1
 90
        2
176
     1
 90
        2
176
     1
 62
     7
176
     1
 62
     7
176
     1
 90
        1
176
     1
 90
        1
176
     1
 40
40.0
176
     1
 90
       11
176
     1
 62
     7
176
     1
 40
1.0
176
     1
 90
        1
176
     1
 90
        6
176
     1
 90
        2
176
     1
 62
     7
176
     1
 90
        6
176
     1
 90
        0
176
     1
 90
        0
176
     1
290
     0
176
     1
 90
        1
176
     1
 40
0.0
176
     1
 90
        0
176
     1
290
     0
176
     1
290
     1
176
     1
290
     1
176
     1
290
     0
176
     1
290
     0
176
     1
290
     0
176
     1
290
     0
176
     1
290
     0
176
     1
290
     0
176
     1
 90
       50
176
     1
 40
0.0
176
     1
 40
1.0
176
     1
 90
        0
176
     1
 62
    18
420
        0
176
     1
 90
       50
176
     1
 90
        3
176
     1
 62
     5
420
      255
176
     1
290
     0
176
     1
 90
       50
176
     1
 90
       50
176
     1
 90
       50
176
     1
290
     0
176
     1
 90
       50
176
     1
 62
   256
176
     0
 40
1.0
176
     0
 90
        2
176
     1
  1
strokes_ogs.tif
176
     1
290
     0
176
     1
 40
1.0
176
     1
 40
1.0
176
     1
  0
VISUALSTYLE
  5
37
102
{ACAD_REACTORS
330
2A
102
}
330
2A
100
AcDbVisualStyle
  2
Thicken
 70
    13
177
     3
291
     1
 70
    58
 90
        2
176
     1
 90
        2
176
     1
 90
        0
176
     1
 90
        0
176
     1
 40
0.6
176
     1
 40
30.0
176
     1
 62
     7
420
 16777215
176
     1
 90
        1
176
     1
 90
        4
176
     1
 62
     7
176
     1
 62
   257
176
     1
 90
        1
176
     1
 90
        1
176
     1
 40
1.0
176
     1
 90
       12
176
     1
 62
     7
176
     1
 40
1.0
176
     1
 90
        1
176
     1
 90
        6
176
     1
 90
        2
176
     1
 62
     7
176
     1
 90
        5
176
     1
 90
        0
176
     1
 90
        0
176
     1
290
     0
176
     1
 90
        1
176
     1
 40
0.0
176
     1
 90
        0
176
     1
290
     0
176
     1
290
     1
176
     1
290
     1
176
     1
290
     0
176
     1
290
     0
176
     1
290
     0
176
     1
290
     0
176
     1
290
     0
176
     1
290
     0
176
     1
 90
       50
176
     1
 40
0.0
176
     1
 40
1.0
176
     1
 90
        0
176
     1
 62
    18
420
        0
176
     1
 90
       50
176
     1
 90
        3
176
     1
 62
     5
420
      255
176
     1
290
     0
176
     1
 90
       50
176
     1
 90
       50
176
     1
 90
       50
176
     1
290
     0
176
     1
 90
       50
176
     1
 62
   256
176
     0
 40
1.0
176
     0
 90
        2
176
     1
  1
strokes_ogs.tif
176
     1
290
     0
176
     1
 40
1.0
176
     1
 40
1.0
176
     1
  0
VISUALSTYLE
  5
30
102
{ACAD_REACTORS
330
2A
102
}
330
2A
100
AcDbVisualStyle
  2
Wireframe
 70
     5
177
     3
291
     0
 70
    58
 90
        0
176
     1
 90
        2
176
     1
 90
        0
176
     1
 90
        0
176
     1
 40
0.6
176
     1
 40
30.0
176
     1
 62
     7
420
 16777215
176
     1
 90
        1
176
     1
 90
        4
176
     1
 62
     7
176
     1
 62
   257
176
     1
 90
        1
176
     1
 90
        1
176
     1
 40
1.0
176
     1
 90
        0
176
     1
 62
   257
176
     1
 40
1.0
176
     1
 90
        1
176
     1
 90
        6
176
     1
 90
        2
176
     1
 62
     7
176
     1
 90
        3
176
     1
 90
        0
176
     1
 90
        0
176
     1
290
     0
176
     1
 90
        1
176
     1
 40
0.0
176
     1
 90
        0
176
     1
290
     0
176
     1
290
     1
176
     1
290
     1
176
     1
290
     0
176
     1
290
     0
176
     1
290
     0
176
     1
290
     0
176
     1
290
     0
176
     1
290
     0
176
     1
 90
       50
176
     1
 40
0.0
176
     1
 40
1.0
176
     1
 90
        0
176
     1
 62
    18
420
        0
176
     1
 90
       50
176
     1
 90
        3
176
     1
 62
     5
420
      255
176
     1
290
     0
176
     1
 90
       50
176
     1
 90
       50
176
     1
 90
       50
176
     1
290
     0
176
     1
 90
       50
176
     1
 62
   256
176
     0
 40
1.0
176
     0
 90
        2
176
     1
  1
strokes_ogs.tif
176
     1
290
     0
176
     1
 40
1.0
176
     1
 40
1.0
176
     1
  0
VISUALSTYLE
  5
40
102
{ACAD_REACTORS
330
2A
102
}
330
2A
100
AcDbVisualStyle
  2
X-Ray
 70
    25
177
     3
291
     0
 70
    58
 90
        2
176
     1
 90
        2
176
     1
 90
        1
176
     1
 90
        1
176
     1
 40
0.5
176
     1
 40
30.0
176
     1
 62
     7
420
 16777215
176
     1
 90
        1
176
     1
 90
        0
176
     1
 62
     7
176
     1
 62
   257
176
     1
 90
        1
176
     1
 90
        1
176
     1
 40
1.0
176
     1
 90
        8
176
     1
 62
     7
176
     1
 40
1.0
176
     1
 90
        1
176
     1
 90
        6
176
     1
 90
        2
176
     1
 62
     7
176
     1
 90
        3
176
     1
 90
        0
176
     1
 90
        0
176
     1
290
     0
176
     1
 90
       13
176
     1
 40
0.0
176
     1
 90
        0
176
     1
290
     0
176
     1
290
     1
176
     1
290
     1
176
     1
290
     0
176
     1
290
     0
176
     1
290
     0
176
     1
290
     0
176
     1
290
     0
176
     1
290
     0
176
     1
 90
       50
176
     1
 40
0.0
176
     1
 40
1.0
176
     1
 90
        0
176
     1
 62
    18
420
        0
176
     1
 90
       50
176
     1
 90
        3
176
     1
 62
     5
420
      255
176
     1
290
     0
176
     1
 90
       50
176
     1
 90
       50
176
     1
 90
       50
176
     1
290
     0
176
     1
 90
       50
176
     1
 62
   256
176
     0
 40
1.0
176
     0
 90
        2
176
     1
  1
strokes_ogs.tif
176
     1
290
     0
176
     1
 40
1.0
176
     1
 40
1.0
176
     1
  0
DICTIONARYVAR
  5
5CB0D
102
{ACAD_REACTORS
330
5CB0C
102
}
330
5CB0C
100
DictionaryVariables
280
     0
  1
1:1
  0
DICTIONARYVAR
  5
5CD77
102
{ACAD_REACTORS
330
5CB0C
102
}
330
5CB0C
100
DictionaryVariables
280
     0
  1
STANDARD
  0
DICTIONARYVAR
  5
5CD76
102
{ACAD_REACTORS
330
5CB0C
102
}
330
5CB0C
100
DictionaryVariables
280
     0
  1
STANDARD
  0
DICTIONARYVAR
  5
5CD78
102
{ACAD_REACTORS
330
5CB0C
102
}
330
5CB0C
100
DictionaryVariables
280
     0
  1
Imperial24
  0
DICTIONARYVAR
  5
5CD79
102
{ACAD_REACTORS
330
5CB0C
102
}
330
5CB0C
100
DictionaryVariables
280
     0
  1
Imperial24
  0
DICTIONARYVAR
  5
5CD7B
102
{ACAD_REACTORS
330
5CB0C
102
}
330
5CB0C
100
DictionaryVariables
280
     0
  1
1
  0
DICTIONARYVAR
  5
5CD7C
102
{ACAD_REACTORS
330
5CB0C
102
}
330
5CB0C
100
DictionaryVariables
280
     0
  1
15
  0
DICTIONARYVAR
  5
5CD7A
102
{ACAD_REACTORS
330
5CB0C
102
}
330
5CB0C
100
DictionaryVariables
280
     0
  1
0
  0
DICTIONARYVAR
  5
5CB0E
102
{ACAD_REACTORS
330
5CB0C
102
}
330
5CB0C
100
DictionaryVariables
280
     0
  1
1
  0
DICTIONARY
  5
5CD73
330
5CB4E
100
AcDbDictionary
280
     1
281
     1
  3
ACAD_XREC_ROUNDTRIP
360
5CD99
  0
DICTIONARY
  5
5CD71
330
5CB4D
100
AcDbDictionary
280
     1
281
     1
  3
ACAD_XREC_ROUNDTRIP
360
5CD98
  0
DICTIONARY
  5
5CD96
330
5CB4B
100
AcDbDictionary
280
     1
281
     1
  3
ACAD_ROUNDTRIP_2008_TABLESTYLE_CELLSTYLEMAP
360
5CD97
  0
XRECORD
  5
5CD99
102
{ACAD_REACTORS
330
5CD73
102
}
330
5CD73
100
AcDbXrecord
280
     1
102
DISPLAYNAME
  1
Imperial24
102
FLAGS
 90
        0
  0
XRECORD
  5
5CD98
102
{ACAD_REACTORS
330
5CD71
102
}
330
5CD71
100
AcDbXrecord
280
     1
102
DISPLAYNAME
  1
Imperial24
102
FLAGS
 90
        0
  0
CELLSTYLEMAP
  5
5CD97
102
{ACAD_REACTORS
330
5CD96
102
}
330
5CD96
100
AcDbCellStyleMap
 90
        3
300
CELLSTYLE
  1
TABLEFORMAT_BEGIN
 90
        5
170
     1
 91
        0
 92
    32768
 62
   257
 93
        1
300
CONTENTFORMAT
  1
CONTENTFORMAT_BEGIN
 90
        0
 91
        0
 92
      512
 93
        0
300

 40
0.0
140
1.0
 94
        5
 62
     0
340
11
144
0.25
309
CONTENTFORMAT_END
171
     0
 94
        0
309
TABLEFORMAT_END
  1
CELLSTYLE_BEGIN
 90
        1
 91
        1
300
_TITLE
309
CELLSTYLE_END
300
CELLSTYLE
  1
TABLEFORMAT_BEGIN
 90
        5
170
     1
 91
        0
 92
        0
 62
   257
 93
        1
300
CONTENTFORMAT
  1
CONTENTFORMAT_BEGIN
 90
        0
 91
        0
 92
      512
 93
        0
300

 40
0.0
140
1.0
 94
        5
 62
     0
340
11
144
0.18
309
CONTENTFORMAT_END
171
     0
 94
        0
309
TABLEFORMAT_END
  1
CELLSTYLE_BEGIN
 90
        2
 91
        1
300
_HEADER
309
CELLSTYLE_END
300
CELLSTYLE
  1
TABLEFORMAT_BEGIN
 90
        5
170
     1
 91
        0
 92
        0
 62
   257
 93
        1
300
CONTENTFORMAT
  1
CONTENTFORMAT_BEGIN
 90
        0
 91
        0
 92
      512
 93
        0
300

 40
0.0
140
1.0
 94
        2
 62
     0
340
11
144
0.18
309
CONTENTFORMAT_END
171
     0
 94
        0
309
TABLEFORMAT_END
  1
CELLSTYLE_BEGIN
 90
        3
 91
        2
300
_DATA
309
CELLSTYLE_END
  0
ENDSEC
  0
SECTION
  2
ACDSDATA
 70
     2
 71
     8
  0
ACDSSCHEMA
 90
        0
  1
AcDb_Thumbnail_Schema
  2
AcDbDs::ID
280
    10
 91
        8
  2
Thumbnail_Data
280
    15
 91
        0
101
ACDSRECORD
 95
        0
 90
        1
  2
AcDbDs::TreatedAsObjectData
280
     1
291
     1
101
ACDSRECORD
 95
        0
 90
        2
  2
AcDbDs::Legacy
280
     1
291
     1
101
ACDSRECORD
  1
AcDbDs::ID
 90
        3
  2
AcDs:Indexable
280
     1
291
     1
101
ACDSRECORD
  1
AcDbDs::ID
 90
        4
  2
AcDbDs::HandleAttribute
280
     7
282
     1
  0
ACDSSCHEMA
 90
        1
  1
AcDbDs::TreatedAsObjectDataSchema
  2
AcDbDs::TreatedAsObjectData
280
     1
 91
        0
  0
ACDSSCHEMA
 90
        2
  1
AcDbDs::LegacySchema
  2
AcDbDs::Legacy
280
     1
 91
        0
  0
ACDSSCHEMA
 90
        3
  1
AcDbDs::IndexedPropertySchema
  2
AcDs:Indexable
280
     1
 91
        0
  0
ACDSSCHEMA
 90
        4
  1
AcDbDs::HandleAttributeSchema
  2
AcDbDs::HandleAttribute
280
     7
 91
        1
284
     1
  0
ACDSRECORD
 90
        0
  2
AcDbDs::ID
280
    10
320
22
  2
Thumbnail_Data
280
    15
 94
     1419
310
89504E470D0A1A0A0000000D4948445200000100000000670803000000D82A6C0200000300504C5445000000000000C8C8C80000000000000000000000000000000000000000000000000000330000660000990000CC0000FF0033000033330033660033990033CC0033FF0066000066330066660066990066CC0066FF0099
310
000099330099660099990099CC0099FF00CC0000CC3300CC6600CC9900CCCC00CCFF00FF0000FF3300FF6600FF9900FFCC00FFFF3300003300333300663300993300CC3300FF3333003333333333663333993333CC3333FF3366003366333366663366993366CC3366FF3399003399333399663399993399CC3399FF33CC00
310
33CC3333CC6633CC9933CCCC33CCFF33FF0033FF3333FF6633FF9933FFCC33FFFF6600006600336600666600996600CC6600FF6633006633336633666633996633CC6633FF6666006666336666666666996666CC6666FF6699006699336699666699996699CC6699FF66CC0066CC3366CC6666CC9966CCCC66CCFF66FF0066
310
FF3366FF6666FF9966FFCC66FFFF9900009900339900669900999900CC9900FF9933009933339933669933999933CC9933FF9966009966339966669966999966CC9966FF9999009999339999669999999999CC9999FF99CC0099CC3399CC6699CC9999CCCC99CCFF99FF0099FF3399FF6699FF9999FFCC99FFFFCC0000CC00
310
33CC0066CC0099CC00CCCC00FFCC3300CC3333CC3366CC3399CC33CCCC33FFCC6600CC6633CC6666CC6699CC66CCCC66FFCC9900CC9933CC9966CC9999CC99CCCC99FFCCCC00CCCC33CCCC66CCCC99CCCCCCCCCCFFCCFF00CCFF33CCFF66CCFF99CCFFCCCCFFFFFF0000FF0033FF0066FF0099FF00CCFF00FFFF3300FF3333
310
FF3366FF3399FF33CCFF33FFFF6600FF6633FF6666FF6699FF66CCFF66FFFF9900FF9933FF9966FF9999FF99CCFF99FFFFCC00FFCC33FFCC66FFCC99FFCCCCFFCCFFFFFF00FFFF33FFFF66FFFF99FFFFCCFFFFFF0000000D0D0D1A1A1A2828283535354343435050505D5D5D6B6B6B787878868686939393A1A1A1AEAEAEBB
310
BBBBC9C9C9D6D6D6E4E4E4F1F1F1FFFFFF00000000000000000000000000000000000000000000000000000000000008F1915C000002434944415478DAED9CDB72C3300805F9FFFF3DEF9D499B8B6D2121376991179E9AD4F598350509106625257F2F125BFB6F412B2F4342D8AB4C43D0509745406C7FE8694A21F0A2E7CE
310
FF4108DCD5D4E1070681A7B647A74002B0D39543E0AE7F3B30800198FC00794100F2D606D737811100B80510C2C04D4707801800D401405909B60188B316F60070D301B084404B59784A08971684E7046F3E4FEE279C0D506B037A8A4185AD3DD9F8A9D1BFA4A4A4A4A4A484B8DD4F79CB4FEF71A297BEF99E1916B7C12AD7
310
A34E3CBAF2514F5C81C0B6FF23BA0B885E999FC04E2DFF7915DE15C54965D03FE8B9A43112E752ADF1FEFBC91E59F8DBE37DB48001BCF40129ACBF53303BDE53E90D40837F823880CD9F2BBD09A8F180ADAED809CFA866DCCC6D0043FFAE0927DAFCBD1632804937AE41ACC86D026EFF97CE02B02B02507821A1C53A89FCF6
310
A74D308C02D06A00E402D8120802502782E6DC167601681E803A4B88F500102C00EF03DE12058601F302002EBF0E20AF0435B3A03FB317C8DE52FFF1DD60F684808E4F28FB5D3EC01A09D1C429A16DDF979B129BC9083D0F585BFE8CD02E81EB3FECECB713BBA94C043A2FEB7CA22C7D5E3C9AC48FD7056CA5BAC04419E7A2
310
95A1C7DE2F50CA0CD7067FC2E13A05E2F757876DB19652767F40494949494949C9A9DD1350FF22803700FA99392E038D5AA92EFFFA371F6967878FC7E70D3F51D2E00324507EC003C099A1C29E22431FA4D41FA50507C019A858001C003551923251123F53D43D0A4199286987562AC301B046D70F67A2A4E30FFE15C01784
310
B5E1093069C30F0000000049454E44AE426082826082
  0
ENDSEC
  0
EOF
