  0
SECTION
  2
HEADER
  9
$ACADVER
  1
AC1027
  9
$ACADMAINTVER
 70
   105
  9
$DWGCODEPAGE
  3
ANSI_1252
  9
$LASTSAVEDBY
  1
Sandra
  9
$REQUIREDVERSIONS
160
                 0
  9
$INSBASE
 10
0.0
 20
0.0
 30
0.0
  9
$EXTMIN
 10
-1653.145975274618
 20
-1475.373407064549
 30
0.0
  9
$EXTMAX
 10
1653.145975274618
 20
1696.120031277855
 30
0.0
  9
$LIMMIN
 10
0.0
 20
0.0
  9
$LIMMAX
 10
12.0
 20
9.0
  9
$ORTHOMODE
 70
     1
  9
$REGENMODE
 70
     1
  9
$FILLMODE
 70
     1
  9
$QTEXTMODE
 70
     0
  9
$MIRRTEXT
 70
     1
  9
$LTSCALE
 40
1.0
  9
$ATTMODE
 70
     1
  9
$TEXTSIZE
 40
0.2
  9
$TRACEWID
 40
0.05
  9
$TEXTSTYLE
  7
Standard
  9
$CLAYER
  8
Default
  9
$CELTYPE
  6
ByLayer
  9
$CECOLOR
 62
   256
  9
$CELTSCALE
 40
1.0
  9
$DISPSILH
 70
     0
  9
$DIMSCALE
 40
1.0
  9
$DIMASZ
 40
0.18
  9
$DIMEXO
 40
0.0625
  9
$DIMDLI
 40
0.38
  9
$DIMRND
 40
0.0
  9
$DIMDLE
 40
0.0
  9
$DIMEXE
 40
0.18
  9
$DIMTP
 40
0.0
  9
$DIMTM
 40
0.0
  9
$DIMTXT
 40
0.18
  9
$DIMCEN
 40
0.09
  9
$DIMTSZ
 40
0.0
  9
$DIMTOL
 70
     0
  9
$DIMLIM
 70
     0
  9
$DIMTIH
 70
     1
  9
$DIMTOH
 70
     1
  9
$DIMSE1
 70
     0
  9
$DIMSE2
 70
     0
  9
$DIMTAD
 70
     0
  9
$DIMZIN
 70
     0
  9
$DIMBLK
  1

  9
$DIMASO
 70
     1
  9
$DIMSHO
 70
     1
  9
$DIMPOST
  1

  9
$DIMAPOST
  1

  9
$DIMALT
 70
     0
  9
$DIMALTD
 70
     2
  9
$DIMALTF
 40
25.4
  9
$DIMLFAC
 40
1.0
  9
$DIMTOFL
 70
     0
  9
$DIMTVP
 40
0.0
  9
$DIMTIX
 70
     0
  9
$DIMSOXD
 70
     0
  9
$DIMSAH
 70
     0
  9
$DIMBLK1
  1

  9
$DIMBLK2
  1

  9
$DIMSTYLE
  2
Standard
  9
$DIMCLRD
 70
     0
  9
$DIMCLRE
 70
     0
  9
$DIMCLRT
 70
     0
  9
$DIMTFAC
 40
1.0
  9
$DIMGAP
 40
0.09
  9
$DIMJUST
 70
     0
  9
$DIMSD1
 70
     0
  9
$DIMSD2
 70
     0
  9
$DIMTOLJ
 70
     1
  9
$DIMTZIN
 70
     0
  9
$DIMALTZ
 70
     0
  9
$DIMALTTZ
 70
     0
  9
$DIMUPT
 70
     0
  9
$DIMDEC
 70
     4
  9
$DIMTDEC
 70
     4
  9
$DIMALTU
 70
     2
  9
$DIMALTTD
 70
     2
  9
$DIMTXSTY
  7
Standard
  9
$DIMAUNIT
 70
     0
  9
$DIMADEC
 70
     0
  9
$DIMALTRND
 40
0.0
  9
$DIMAZIN
 70
     0
  9
$DIMDSEP
 70
    46
  9
$DIMATFIT
 70
     3
  9
$DIMFRAC
 70
     0
  9
$DIMLDRBLK
  1

  9
$DIMLUNIT
 70
     2
  9
$DIMLWD
 70
    -2
  9
$DIMLWE
 70
    -2
  9
$DIMTMOVE
 70
     2
  9
$DIMFXL
 40
1.0
  9
$DIMFXLON
 70
     0
  9
$DIMJOGANG
 40
0.7853981633974483
  9
$DIMTFILL
 70
     0
  9
$DIMTFILLCLR
 70
     0
  9
$DIMARCSYM
 70
     0
  9
$DIMLTYPE
  6

  9
$DIMLTEX1
  6

  9
$DIMLTEX2
  6

  9
$DIMTXTDIRECTION
 70
     0
  9
$LUNITS
 70
     2
  9
$LUPREC
 70
     3
  9
$SKETCHINC
 40
0.1
  9
$FILLETRAD
 40
0.5
  9
$AUNITS
 70
     0
  9
$AUPREC
 70
     0
  9
$MENU
  1
.
  9
$ELEVATION
 40
0.0
  9
$PELEVATION
 40
0.0
  9
$THICKNESS
 40
0.0
  9
$LIMCHECK
 70
     0
  9
$CHAMFERA
 40
0.0
  9
$CHAMFERB
 40
0.0
  9
$CHAMFERC
 40
0.0
  9
$CHAMFERD
 40
0.0
  9
$SKPOLY
 70
     0
  9
$TDCREATE
 40
2456553.292196250
  9
$TDUCREATE
 40
2456553.458862916
  9
$TDUPDATE
 40
2457854.460477373
  9
$TDUUPDATE
 40
2457854.627144040
  9
$TDINDWG
 40
0.0051117940
  9
$TDUSRTIMER
 40
0.0051117940
  9
$USRTIMER
 70
     1
  9
$ANGBASE
 50
0.0
  9
$ANGDIR
 70
     0
  9
$PDMODE
 70
     0
  9
$PDSIZE
 40
0.0
  9
$PLINEWID
 40
0.0
  9
$SPLFRAME
 70
     0
  9
$SPLINETYPE
 70
     6
  9
$SPLINESEGS
 70
     8
  9
$HANDSEED
  5
727
  9
$SURFTAB1
 70
     6
  9
$SURFTAB2
 70
     6
  9
$SURFTYPE
 70
     6
  9
$SURFU
 70
     6
  9
$SURFV
 70
     6
  9
$UCSBASE
  2

  9
$UCSNAME
  2

  9
$UCSORG
 10
0.0
 20
0.0
 30
0.0
  9
$UCSXDIR
 10
1.0
 20
0.0
 30
0.0
  9
$UCSYDIR
 10
0.0
 20
1.0
 30
0.0
  9
$UCSORTHOREF
  2

  9
$UCSORTHOVIEW
 70
     0
  9
$UCSORGTOP
 10
0.0
 20
0.0
 30
0.0
  9
$UCSORGBOTTOM
 10
0.0
 20
0.0
 30
0.0
  9
$UCSORGLEFT
 10
0.0
 20
0.0
 30
0.0
  9
$UCSORGRIGHT
 10
0.0
 20
0.0
 30
0.0
  9
$UCSORGFRONT
 10
0.0
 20
0.0
 30
0.0
  9
$UCSORGBACK
 10
0.0
 20
0.0
 30
0.0
  9
$PUCSBASE
  2

  9
$PUCSNAME
  2

  9
$PUCSORG
 10
0.0
 20
0.0
 30
0.0
  9
$PUCSXDIR
 10
1.0
 20
0.0
 30
0.0
  9
$PUCSYDIR
 10
0.0
 20
1.0
 30
0.0
  9
$PUCSORTHOREF
  2

  9
$PUCSORTHOVIEW
 70
     0
  9
$PUCSORGTOP
 10
0.0
 20
0.0
 30
0.0
  9
$PUCSORGBOTTOM
 10
0.0
 20
0.0
 30
0.0
  9
$PUCSORGLEFT
 10
0.0
 20
0.0
 30
0.0
  9
$PUCSORGRIGHT
 10
0.0
 20
0.0
 30
0.0
  9
$PUCSORGFRONT
 10
0.0
 20
0.0
 30
0.0
  9
$PUCSORGBACK
 10
0.0
 20
0.0
 30
0.0
  9
$USERI1
 70
     0
  9
$USERI2
 70
     0
  9
$USERI3
 70
     0
  9
$USERI4
 70
     0
  9
$USERI5
 70
     0
  9
$USERR1
 40
0.0
  9
$USERR2
 40
0.0
  9
$USERR3
 40
0.0
  9
$USERR4
 40
0.0
  9
$USERR5
 40
0.0
  9
$WORLDVIEW
 70
     1
  9
$SHADEDGE
 70
     3
  9
$SHADEDIF
 70
    70
  9
$TILEMODE
 70
     1
  9
$MAXACTVP
 70
    64
  9
$PINSBASE
 10
0.0
 20
0.0
 30
0.0
  9
$PLIMCHECK
 70
     0
  9
$PEXTMIN
 10
1.000000000000000E+20
 20
1.000000000000000E+20
 30
1.000000000000000E+20
  9
$PEXTMAX
 10
-1.000000000000000E+20
 20
-1.000000000000000E+20
 30
-1.000000000000000E+20
  9
$PLIMMIN
 10
0.0
 20
0.0
  9
$PLIMMAX
 10
12.0
 20
9.0
  9
$UNITMODE
 70
     0
  9
$VISRETAIN
 70
     1
  9
$PLINEGEN
 70
     0
  9
$PSLTSCALE
 70
     1
  9
$TREEDEPTH
 70
  3020
  9
$CMLSTYLE
  2
Standard
  9
$CMLJUST
 70
     0
  9
$CMLSCALE
 40
1.0
  9
$PROXYGRAPHICS
 70
     1
  9
$MEASUREMENT
 70
     0
  9
$CELWEIGHT
370
    -1
  9
$ENDCAPS
280
     0
  9
$JOINSTYLE
280
     0
  9
$LWDISPLAY
290
     0
  9
$INSUNITS
 70
     4
  9
$HYPERLINKBASE
  1

  9
$STYLESHEET
  1

  9
$XEDIT
290
     1
  9
$CEPSNTYPE
380
     0
  9
$PSTYLEMODE
290
     1
  9
$FINGERPRINTGUID
  2
{0FD71A45-FC85-4B47-867D-B226DB5EDE90}
  9
$VERSIONGUID
  2
{EFBFD1F9-A6EF-4F0B-8109-AAFF67AB6443}
  9
$EXTNAMES
290
     1
  9
$PSVPSCALE
 40
0.0
  9
$OLESTARTUP
290
     0
  9
$SORTENTS
280
   127
  9
$INDEXCTL
280
     0
  9
$HIDETEXT
280
     1
  9
$XCLIPFRAME
280
     0
  9
$HALOGAP
280
     0
  9
$OBSCOLOR
 70
   257
  9
$OBSLTYPE
280
     0
  9
$INTERSECTIONDISPLAY
280
     0
  9
$INTERSECTIONCOLOR
 70
   257
  9
$DIMASSOC
280
     2
  9
$PROJECTNAME
  1

  9
$CAMERADISPLAY
290
     0
  9
$LENSLENGTH
 40
50.0
  9
$CAMERAHEIGHT
 40
0.0
  9
$STEPSPERSEC
 40
2.0
  9
$STEPSIZE
 40
6.0
  9
$3DDWFPREC
 40
2.0
  9
$PSOLWIDTH
 40
0.25
  9
$PSOLHEIGHT
 40
4.0
  9
$LOFTANG1
 40
1.570796326794896
  9
$LOFTANG2
 40
1.570796326794896
  9
$LOFTMAG1
 40
0.0
  9
$LOFTMAG2
 40
0.0
  9
$LOFTPARAM
 70
     7
  9
$LOFTNORMALS
280
     1
  9
$LATITUDE
 40
37.795
  9
$LONGITUDE
 40
-122.394
  9
$NORTHDIRECTION
 40
0.0
  9
$TIMEZONE
 70
 -8000
  9
$LIGHTGLYPHDISPLAY
280
     1
  9
$TILEMODELIGHTSYNCH
280
     1
  9
$CMATERIAL
347
44
  9
$SOLIDHIST
280
     0
  9
$SHOWHIST
280
     1
  9
$DWFFRAME
280
     2
  9
$DGNFRAME
280
     0
  9
$REALWORLDSCALE
290
     1
  9
$INTERFERECOLOR
 62
     1
  9
$INTERFEREOBJVS
345
33
  9
$INTERFEREVPVS
346
30
  9
$CSHADOW
280
     0
  9
$SHADOWPLANELOCATION
 40
0.0
  0
ENDSEC
  0
SECTION
  2
CLASSES
  0
CLASS
  1
ACDBDICTIONARYWDFLT
  2
AcDbDictionaryWithDefault
  3
ObjectDBX Classes
 90
        0
 91
        1
280
     0
281
     0
  0
CLASS
  1
VISUALSTYLE
  2
AcDbVisualStyle
  3
ObjectDBX Classes
 90
     4095
 91
       24
280
     0
281
     0
  0
CLASS
  1
MATERIAL
  2
AcDbMaterial
  3
ObjectDBX Classes
 90
     1153
 91
        3
280
     0
281
     0
  0
CLASS
  1
SCALE
  2
AcDbScale
  3
ObjectDBX Classes
 90
     1153
 91
       33
280
     0
281
     0
  0
CLASS
  1
SUN
  2
AcDbSun
  3
SCENEOE
 90
     1153
 91
        1
280
     0
281
     0
  0
CLASS
  1
SURFACE
  2
AcDbSurface
  3
ObjectDBX Classes
 90
     4095
 91
        0
280
     0
281
     1
  0
CLASS
  1
DICTIONARYVAR
  2
AcDbDictionaryVar
  3
ObjectDBX Classes
 90
        0
 91
        9
280
     0
281
     0
  0
CLASS
  1
TABLESTYLE
  2
AcDbTableStyle
  3
ObjectDBX Classes
 90
     4095
 91
        1
280
     0
281
     0
  0
CLASS
  1
MLEADERSTYLE
  2
AcDbMLeaderStyle
  3
ACDB_MLEADERSTYLE_CLASS
 90
     4095
 91
        1
280
     0
281
     0
  0
CLASS
  1
ACDBSECTIONVIEWSTYLE
  2
AcDbSectionViewStyle
  3
ObjectDBX Classes
 90
     1025
 91
        1
280
     0
281
     0
  0
CLASS
  1
ACDBDETAILVIEWSTYLE
  2
AcDbDetailViewStyle
  3
ObjectDBX Classes
 90
     1025
 91
        1
280
     0
281
     0
  0
CLASS
  1
ACARRAYJIGENTITY
  2
AcArrayJigEntity
  3
ACAD_ARRAY
 90
      129
 91
        0
280
     0
281
     1
  0
CLASS
  1
ACDBASSOCNETWORK
  2
AcDbAssocNetwork
  3
ObjectDBX Classes
 90
     1025
 91
        0
280
     0
281
     0
  0
CLASS
  1
ACDBASSOCACTION
  2
AcDbAssocAction
  3
ObjectDBX Classes
 90
     1025
 91
        0
280
     0
281
     0
  0
CLASS
  1
ACDBASSOCARRAYACTIONBODY
  2
AcDbAssocArrayActionBody
  3
ObjectDBX Classes
 90
     1025
 91
        0
280
     0
281
     0
  0
CLASS
  1
ACDBASSOCVERTEXACTIONPARAM
  2
AcDbAssocVertexActionParam
  3
ObjectDBX Classes
 90
     1025
 91
        0
280
     0
281
     0
  0
CLASS
  1
ACDBASSOCDEPENDENCY
  2
AcDbAssocDependency
  3
ObjectDBX Classes
 90
     1025
 91
        0
280
     0
281
     0
  0
CLASS
  1
ACDBASSOCARRAYPOLARPARAMETERS
  2
AcDbAssocArrayPolarParameters
  3
ObjectDBX Classes
 90
     1025
 91
        0
280
     0
281
     0
  0
CLASS
  1
CELLSTYLEMAP
  2
AcDbCellStyleMap
  3
ObjectDBX Classes
 90
     1152
 91
        1
280
     0
281
     0
  0
ENDSEC
  0
SECTION
  2
TABLES
  0
TABLE
  2
VPORT
  5
8
102
{ACAD_XDICTIONARY
360
481
102
}
330
0
100
AcDbSymbolTable
 70
     1
  0
VPORT
  5
29
330
8
100
AcDbSymbolTableRecord
100
AcDbViewportTableRecord
  2
*Active
 70
     0
 10
0.0
 20
0.0
 11
1.0
 21
1.0
 12
205.9535950624286
 22
242.2985451618383
 13
0.0
 23
0.0
 14
0.5
 24
0.5
 15
0.5
 25
0.5
 16
0.0
 26
0.0
 36
1.0
 17
0.0
 27
0.0
 37
0.0
 40
5111.907237709916
 41
2.472938144329897
 42
50.0
 43
0.0
 44
0.0
 50
0.0
 51
0.0
 71
     0
 72
   100
 73
     1
 74
     3
 75
     0
 76
     0
 77
     0
 78
     0
281
     0
 65
     1
110
0.0
120
0.0
130
0.0
111
1.0
121
0.0
131
0.0
112
0.0
122
1.0
132
0.0
 79
     0
146
0.0
348
2F
 60
     3
 61
     5
292
     1
282
     1
141
0.0
142
0.0
 63
   250
421
  3355443
361
69
1001
ACAD_NAV_VCDISPLAY
1070
     3
  0
ENDTAB
  0
TABLE
  2
LTYPE
  5
5
330
0
100
AcDbSymbolTable
 70
     1
  0
LTYPE
  5
14
330
5
100
AcDbSymbolTableRecord
100
AcDbLinetypeTableRecord
  2
ByBlock
 70
     0
  3

 72
    65
 73
     0
 40
0.0
  0
LTYPE
  5
15
330
5
100
AcDbSymbolTableRecord
100
AcDbLinetypeTableRecord
  2
ByLayer
 70
     0
  3

 72
    65
 73
     0
 40
0.0
  0
LTYPE
  5
16
330
5
100
AcDbSymbolTableRecord
100
AcDbLinetypeTableRecord
  2
Continuous
 70
     0
  3
Solid line
 72
    65
 73
     0
 40
0.0
  0
ENDTAB
  0
TABLE
  2
LAYER
  5
2
102
{ACAD_XDICTIONARY
360
4D3
102
}
330
0
100
AcDbSymbolTable
 70
     2
  0
LAYER
  5
10
102
{ACAD_XDICTIONARY
360
4CA
102
}
330
2
100
AcDbSymbolTableRecord
100
AcDbLayerTableRecord
  2
0
 70
     0
 62
     7
  6
Continuous
370
    -3
390
F
347
46
348
0
  0
LAYER
  5
6A
102
{ACAD_XDICTIONARY
360
4CC
102
}
330
2
100
AcDbSymbolTableRecord
100
AcDbLayerTableRecord
  2
Default
 70
     0
 62
     7
  6
Continuous
370
    -3
390
F
347
46
348
0
  0
ENDTAB
  0
TABLE
  2
STYLE
  5
3
330
0
100
AcDbSymbolTable
 70
     1
  0
STYLE
  5
11
330
3
100
AcDbSymbolTableRecord
100
AcDbTextStyleTableRecord
  2
Standard
 70
     0
 40
0.0
 41
1.0
 50
0.0
 71
     0
 42
0.2
  3
txt
  4

  0
ENDTAB
  0
TABLE
  2
VIEW
  5
6
330
0
100
AcDbSymbolTable
 70
     0
  0
ENDTAB
  0
TABLE
  2
UCS
  5
7
330
0
100
AcDbSymbolTable
 70
     0
  0
ENDTAB
  0
TABLE
  2
APPID
  5
9
330
0
100
AcDbSymbolTable
 70
     4
  0
APPID
  5
12
330
9
100
AcDbSymbolTableRecord
100
AcDbRegAppTableRecord
  2
ACAD
 70
     0
  0
APPID
  5
47C
330
9
100
AcDbSymbolTableRecord
100
AcDbRegAppTableRecord
  2
ACAD_OBJECT_CHANGE_GUID
 70
     0
  0
APPID
  5
4D9
330
9
100
AcDbSymbolTableRecord
100
AcDbRegAppTableRecord
  2
ACAD_NAV_VCDISPLAY
 70
     0
  0
APPID
  5
4F3
330
9
100
AcDbSymbolTableRecord
100
AcDbRegAppTableRecord
  2
ACAD_EXEMPT_FROM_CAD_STANDARDS
 70
     0
  0
ENDTAB
  0
TABLE
  2
DIMSTYLE
  5
A
330
0
100
AcDbSymbolTable
 70
     1
100
AcDbDimStyleTable
 71
     1
340
27
  0
DIMSTYLE
105
27
330
A
100
AcDbSymbolTableRecord
100
AcDbDimStyleTableRecord
  2
Standard
 70
     0
340
11
  0
ENDTAB
  0
TABLE
  2
BLOCK_RECORD
  5
1
330
0
100
AcDbSymbolTable
 70
     1
  0
BLOCK_RECORD
  5
1F
102
{ACAD_XDICTIONARY
360
603
102
}
330
1
100
AcDbSymbolTableRecord
100
AcDbBlockTableRecord
  2
*Model_Space
340
22
 70
     0
280
     1
281
     0
  0
BLOCK_RECORD
  5
1B
330
1
100
AcDbSymbolTableRecord
100
AcDbBlockTableRecord
  2
*Paper_Space
340
1E
 70
     0
280
     1
281
     0
  0
BLOCK_RECORD
  5
23
330
1
100
AcDbSymbolTableRecord
100
AcDbBlockTableRecord
  2
*Paper_Space0
340
26
 70
     0
280
     1
281
     0
  0
ENDTAB
  0
ENDSEC
  0
SECTION
  2
BLOCKS
  0
BLOCK
  5
20
330
1F
100
AcDbEntity
  8
0
100
AcDbBlockBegin
  2
*Model_Space
 70
     0
 10
0.0
 20
0.0
 30
0.0
  3
*Model_Space
  1

  0
ENDBLK
  5
21
330
1F
100
AcDbEntity
  8
0
100
AcDbBlockEnd
  0
BLOCK
  5
1C
330
1B
100
AcDbEntity
 67
     1
  8
0
100
AcDbBlockBegin
  2
*Paper_Space
 70
     0
 10
0.0
 20
0.0
 30
0.0
  3
*Paper_Space
  1

  0
ENDBLK
  5
1D
330
1B
100
AcDbEntity
 67
     1
  8
0
100
AcDbBlockEnd
  0
BLOCK
  5
24
330
23
100
AcDbEntity
 67
     1
  8
0
100
AcDbBlockBegin
  2
*Paper_Space0
 70
     0
 10
0.0
 20
0.0
 30
0.0
  3
*Paper_Space0
  1

  0
ENDBLK
  5
25
330
23
100
AcDbEntity
 67
     1
  8
0
100
AcDbBlockEnd
  0
ENDSEC
  0
SECTION
  2
ENTITIES
  0
CIRCLE
  5
4FB
330
1F
100
AcDbEntity
  8
Default
100
AcDbCircle
 10
0.0
 20
0.0
 30
0.0
 40
533.4999999999999
  0
SPLINE
  5
588
330
1F
100
AcDbEntity
  8
Default
100
AcDbSpline
210
0.0
220
0.0
230
1.0
 70
     8
 71
     3
 72
    12
 73
     8
 74
     0
 42
0.000000001
 43
0.0000000001
 40
0.0
 40
0.0
 40
0.0
 40
0.0
 40
0.1510110321465192
 40
0.3037660471064116
 40
0.5900965017365678
 40
0.8249401141264362
 40
1.014583801502342
 40
1.014583801502342
 40
1.014583801502342
 40
1.014583801502342
 10
-10.20658429591636
 20
919.6422399138882
 30
0.0
 10
-10.33145634385434
 20
918.3691859086593
 30
0.0
 10
-10.42873271756613
 20
915.7961696107067
 30
0.0
 10
-9.991550858798259
 20
910.8063950080886
 30
0.0
 10
-8.456061511395059
 20
905.2655558304305
 30
0.0
 10
-5.033466682107213
 20
900.1638448132599
 30
0.0
 10
-1.634508879218596
 20
898.51933384712
 30
0.0
 10
0.0000000000000327
 20
898.5511722312203
 30
0.0
  0
SPLINE
  5
589
330
1F
100
AcDbEntity
  8
Default
100
AcDbSpline
210
0.0
220
0.0
230
1.0
 70
     8
 71
     3
 72
    12
 73
     8
 74
     0
 42
0.000000001
 43
0.0000000001
 40
-1.014583801502342
 40
-1.014583801502342
 40
-1.014583801502342
 40
-1.014583801502342
 40
-0.8249401141264362
 40
-0.5900965017365678
 40
-0.3037660471064116
 40
-0.1510110321465192
 40
0.0
 40
0.0
 40
0.0
 40
0.0
 10
0.0000000000000327
 20
898.5511722312203
 30
0.0
 10
1.634508879222299
 20
898.51933384712
 30
0.0
 10
5.033466682110916
 20
900.1638448132599
 30
0.0
 10
8.456061511398761
 20
905.2655558304305
 30
0.0
 10
9.991550858801961
 20
910.8063950080886
 30
0.0
 10
10.42873271756983
 20
915.7961696107067
 30
0.0
 10
10.33145634385804
 20
918.3691859086593
 30
0.0
 10
10.20658429591643
 20
919.6422399138882
 30
0.0
  0
SPLINE
  5
58A
330
1F
100
AcDbEntity
  8
Default
100
AcDbSpline
210
0.0
220
0.0
230
1.0
 70
    12
 71
     2
 72
     6
 73
     3
 74
     0
 42
0.000000001
 43
0.0000000001
 40
0.0
 40
0.0
 40
0.0
 40
0.1369528492222414
 40
0.1369528492222414
 40
0.1369528492222414
 10
-9.337313896801756
 20
929.2779004504064
 30
0.0
 41
1.0
 10
-9.301003692100461
 20
927.5390081885289
 30
0.0
 41
0.9999966913238282
 10
-9.320096031799007
 20
925.7991276097801
 30
0.0
 41
0.9999959461296658
  0
ARC
  5
58B
330
1F
100
AcDbEntity
  8
Default
100
AcDbCircle
 10
-22.0183786937923
 20
925.5902797318794
 30
0.0
 40
12.7
100
AcDbArc
 50
348.4871521735316
 51
0.9422552251276957
  0
SPLINE
  5
58C
330
1F
100
AcDbEntity
  8
Default
100
AcDbSpline
210
0.0
220
0.0
230
1.0
 70
     8
 71
     3
 72
    14
 73
    10
 74
     0
 42
0.000000001
 43
0.0000000001
 40
0.2772630823298201
 40
0.2772630823298201
 40
0.2772630823298201
 40
0.2772630823298201
 40
1.0
 40
2.0
 40
3.0
 40
4.0
 40
5.0
 40
6.0
 40
7.0
 40
7.0
 40
7.0
 40
7.0
 10
-9.573903019641843
 20
923.0555163907574
 30
0.0
 10
-9.779573483010576
 20
922.0457727840203
 30
0.0
 10
-10.16225595000648
 20
919.6168780225907
 30
0.0
 10
-10.28268672578994
 20
915.7267522813071
 30
0.0
 10
-9.825121126876151
 20
911.4652339135627
 30
0.0
 10
-8.770275280359751
 20
907.3060907107738
 30
0.0
 10
-6.979870576262295
 20
903.397855323643
 30
0.0
 10
-4.183200836589061
 20
900.0714843013684
 30
0.0
 10
-1.439760927281862
 20
898.9228911326009
 30
0.0
 10
0.0000126126251743
 20
898.935781777558
 30
0.0
  0
SPLINE
  5
58D
330
1F
100
AcDbEntity
  8
Default
100
AcDbSpline
210
0.0
220
0.0
230
1.0
 70
     8
 71
     3
 72
    14
 73
    10
 74
     0
 42
0.000000001
 43
0.0000000001
 40
-7.0
 40
-7.0
 40
-7.0
 40
-7.0
 40
-6.0
 40
-5.0
 40
-4.0
 40
-3.0
 40
-2.0
 40
-1.0
 40
-0.2482205602640466
 40
-0.2482205602640466
 40
-0.2482205602640466
 40
-0.2482205602640466
 10
0.0000126126251743
 20
898.935781777558
 30
0.0
 10
1.439786152535849
 20
898.9228911326009
 30
0.0
 10
4.183226061843048
 20
900.0714843013684
 30
0.0
 10
6.979895801516282
 20
903.397855323643
 30
0.0
 10
8.770300505613736
 20
907.3060907107738
 30
0.0
 10
9.825146352130136
 20
911.4652339135627
 30
0.0
 10
10.28271195104392
 20
915.7267522813071
 30
0.0
 10
10.16099658054375
 20
919.6583726899426
 30
0.0
 10
9.766608805515748
 20
922.1276579272071
 30
0.0
 10
9.548916183637661
 20
923.1771982390691
 30
0.0
  0
ARC
  5
58E
330
1F
100
AcDbEntity
  8
Default
100
AcDbCircle
 10
21.98423762554015
 20
925.7564967166709
 30
0.0
 40
12.7
100
AcDbArc
 50
178.977579807964
 51
191.7179678781666
  0
SPLINE
  5
58F
330
1F
100
AcDbEntity
  8
Default
100
AcDbSpline
210
0.0
220
0.0
230
1.0
 70
    12
 71
     2
 72
     6
 73
     3
 74
     0
 42
0.000000001
 43
0.0000000001
 40
-0.1297405451143296
 40
-0.1297405451143296
 40
-0.1297405451143296
 40
0.0
 40
0.0
 40
0.0
 10
9.286259600496155
 20
925.983111092797
 30
0.0
 41
0.9999960316975588
 10
9.315660681637414
 20
927.6305541572419
 30
0.0
 41
0.999996865512317
 10
9.350059294152774
 20
929.2779004504064
 30
0.0
 41
1.0
  0
SPLINE
  5
590
330
1F
100
AcDbEntity
  8
Default
100
AcDbSpline
210
0.0
220
0.0
230
1.0
 70
    12
 71
     2
 72
     6
 73
     3
 74
     0
 42
0.000000001
 43
0.0000000001
 40
0.0
 40
0.0
 40
0.0
 40
0.0853474550214741
 40
0.0853474550214741
 40
0.0853474550214741
 10
10.28178462868894
 20
918.7520608078939
 30
0.0
 41
1.0
 10
10.35766402894299
 20
917.6703703505099
 30
0.0
 41
0.9993970637774639
 10
10.3582922353053
 20
916.5860219128134
 30
0.0
 41
1.0
  0
SPLINE
  5
591
330
1F
100
AcDbEntity
  8
Default
100
AcDbSpline
210
0.0
220
0.0
230
1.0
 70
    12
 71
     2
 72
     6
 73
     3
 74
     0
 42
0.000000001
 43
0.0000000001
 40
0.0
 40
0.0
 40
0.0
 40
0.0587632096241838
 40
0.0587632096241838
 40
0.0587632096241838
 10
1.476650285872925
 20
899.0587475334013
 30
0.0
 41
1.0
 10
0.7502618474427763
 20
898.8710457489633
 30
0.0
 41
0.9921107855315545
 10
0.0000146309758165
 20
898.869933294145
 30
0.0
 41
1.0
  0
SPLINE
  5
592
330
1F
100
AcDbEntity
  8
Default
100
AcDbSpline
210
0.0
220
0.0
230
1.0
 70
    24
 71
     2
 72
     6
 73
     3
 74
     0
 42
0.000000001
 43
0.0000000001
 40
0.0
 40
0.0
 40
0.0
 40
0.0114467396849787
 40
0.0114467396849787
 40
0.0114467396849787
 10
-0.0000001436710264
 20
898.8699332941232
 30
0.0
 10
-0.0000000781473901
 20
898.7245597001257
 30
0.0
 10
-0.0000000126273918
 20
898.5791861061242
 30
0.0
  0
SPLINE
  5
593
330
1F
100
AcDbEntity
  8
Default
100
AcDbSpline
210
0.0
220
0.0
230
1.0
 70
    12
 71
     2
 72
     6
 73
     3
 74
     0
 42
0.000000001
 43
0.0000000001
 40
0.0
 40
0.0
 40
0.0
 40
0.0586712320260919
 40
0.0586712320260919
 40
0.0586712320260919
 10
-0.0000001436710264
 20
898.8699332941232
 30
0.0
 41
1.0
 10
-0.7490611959801428
 20
898.8710377166372
 30
0.0
 41
0.9921343149382712
 10
-1.474373098608306
 20
899.058164207925
 30
0.0
 41
1.0
  0
SPLINE
  5
594
330
1F
100
AcDbEntity
  8
Default
100
AcDbSpline
210
0.0
220
0.0
230
1.0
 70
     8
 71
     3
 72
    22
 73
    18
 74
     0
 42
0.000000001
 43
0.0000000001
 40
0.0
 40
0.0
 40
0.0
 40
0.0
 40
0.2588469591229587
 40
0.6477254461891114
 40
1.024641027840087
 40
1.817983982162573
 40
2.582167143679937
 40
4.062052734317923
 40
7.850412104674
 40
9.497260537102542
 40
10.543391206404
 40
10.8432833113025
 40
12.15829953678302
 40
13.34949093133962
 40
14.77372714428499
 40
17.25709974516987
 40
21.82793658798906
 40
21.82793658798906
 40
21.82793658798906
 40
21.82793658798906
 10
196.5619435307854
 20
1607.235018153062
 30
0.0
 10
196.3586352222628
 20
1605.037235159301
 30
0.0
 10
197.3424644002225
 20
1599.590029170516
 30
0.0
 10
200.5051008716073
 20
1591.499035097435
 30
0.0
 10
206.2026741987829
 20
1579.586444778326
 30
0.0
 10
214.0253364580495
 20
1565.192060434345
 30
0.0
 10
225.2884062707344
 20
1542.067963381139
 30
0.0
 10
246.9121420252923
 20
1495.794865172351
 30
0.0
 10
269.2397545731911
 20
1441.642622151792
 30
0.0
 10
289.0475311875599
 20
1390.477078403672
 30
0.0
 10
297.9405658649885
 20
1366.747545783854
 30
0.0
 10
305.5958809226904
 20
1345.545005648697
 30
0.0
 10
310.1301611517266
 20
1322.090224833804
 30
0.0
 10
311.8788726469211
 20
1288.854342083197
 30
0.0
 10
311.4186766644416
 20
1245.642914195183
 30
0.0
 10
302.2861164283386
 20
1174.238919913447
 30
0.0
 10
279.5854479900045
 20
1117.926468225951
 30
0.0
 10
257.5850009947499
 20
1085.98229568387
 30
0.0
  0
SPLINE
  5
595
330
1F
100
AcDbEntity
  8
Default
100
AcDbSpline
210
0.0
220
0.0
230
1.0
 70
     8
 71
     3
 72
    19
 73
    15
 74
     0
 42
0.000000001
 43
0.0000000001
 40
-12.0
 40
-12.0
 40
-12.0
 40
-12.0
 40
-11.0
 40
-10.0
 40
-9.0
 40
-8.0
 40
-7.0
 40
-6.0
 40
-5.0
 40
-4.0
 40
-3.0
 40
-2.0
 40
-1.0
 40
0.0
 40
0.0
 40
0.0
 40
0.0
 10
223.1952048463791
 20
1650.971170193856
 30
0.0
 10
220.00015402598
 20
1656.334890383716
 30
0.0
 10
207.1784696626055
 20
1660.402453116721
 30
0.0
 10
189.0630576483818
 20
1664.988937410182
 30
0.0
 10
170.2782084919272
 20
1668.394498680214
 30
0.0
 10
151.5575181734639
 20
1671.484442889645
 30
0.0
 10
132.7198968607991
 20
1674.012707918444
 30
0.0
 10
113.8376903876851
 20
1676.097958349293
 30
0.0
 10
94.91096382726757
 20
1677.757870845578
 30
0.0
 10
75.95552833298282
 20
1679.035738823402
 30
0.0
 10
56.9798422715467
 20
1679.966381836579
 30
0.0
 10
37.99164488101818
 20
1680.585798998925
 30
0.0
 10
18.99658889957576
 20
1680.92979735596
 30
0.0
 10
6.331394639109963
 20
1680.999400107479
 30
0.0
 10
-0.0011769193842739
 20
1681.000217640672
 30
0.0
  0
SPLINE
  5
596
330
1F
100
AcDbEntity
  8
Default
100
AcDbSpline
210
0.0
220
0.0
230
1.0
 70
    12
 71
     2
 72
     6
 73
     3
 74
     0
 42
0.000000001
 43
0.0000000001
 40
-6.233889429224446
 40
-6.233889429224446
 40
-6.233889429224446
 40
0.0
 40
0.0
 40
0.0
 10
-0.0011769193842739
 20
1694.403454747991
 30
0.0
 41
1.0
 10
79.34262533631411
 20
1694.550839366615
 30
0.0
 41
0.996730330589404
 10
157.6737666886329
 20
1681.916518038053
 30
0.0
 41
1.0
  0
SPLINE
  5
597
330
1F
100
AcDbEntity
  8
Default
100
AcDbSpline
210
0.0
220
0.0
230
1.0
 70
     8
 71
     3
 72
    12
 73
     8
 74
     0
 42
0.000000001
 43
0.0000000001
 40
0.0
 40
0.0
 40
0.0
 40
0.0
 40
0.8495817757806477
 40
1.391422022197968
 40
2.191064820612614
 40
2.689385262996221
 40
3.111933853859593
 40
3.111933853859593
 40
3.111933853859593
 40
3.111933853859593
 10
157.6737666886329
 20
1681.916518038053
 30
0.0
 10
164.7803980906538
 20
1680.64461115956
 30
0.0
 10
176.3737793658074
 20
1678.867644435266
 30
0.0
 10
194.5825157378058
 20
1675.021606389915
 30
0.0
 10
209.5828074609527
 20
1670.968379327934
 30
0.0
 10
222.4219160193352
 20
1663.225313457455
 30
0.0
 10
224.3447506301855
 20
1654.627697003814
 30
0.0
 10
223.2334795193056
 20
1651.110765576619
 30
0.0
  0
SPLINE
  5
598
330
1F
100
AcDbEntity
  8
Default
100
AcDbSpline
210
0.0
220
0.0
230
1.0
 70
    12
 71
     2
 72
     6
 73
     3
 74
     0
 42
0.000000001
 43
0.0000000001
 40
0.0
 40
0.0
 40
0.0
 40
0.443505275079806
 40
0.443505275079806
 40
0.443505275079806
 10
223.2334795193056
 20
1651.110765576619
 30
0.0
 41
1.0
 10
221.6079920386146
 20
1645.48465864533
 30
0.0
 41
0.9799943751373794
 10
218.0055186562714
 20
1641.055635897597
 30
0.0
 41
1.0
  0
SPLINE
  5
599
330
1F
100
AcDbEntity
  8
Default
100
AcDbSpline
210
0.0
220
0.0
230
1.0
 70
    12
 71
     2
 72
     6
 73
     3
 74
     0
 42
0.000000001
 43
0.0000000001
 40
-5.654573080352872
 40
-5.654573080352872
 40
-5.654573080352872
 40
0.0
 40
0.0
 40
0.0
 10
142.9817446156631
 20
1684.284638066971
 30
0.0
 41
1.0
 10
71.96746715938573
 20
1695.963971868774
 30
0.0
 41
0.9967681786255456
 10
-0.0011769193842739
 20
1696.120031277855
 30
0.0
 41
1.0
  0
SPLINE
  5
59A
330
1F
100
AcDbEntity
  8
Default
100
AcDbSpline
210
0.0
220
0.0
230
1.0
 70
    12
 71
     2
 72
     6
 73
     3
 74
     0
 42
0.000000001
 43
0.0000000001
 40
-1.281345128275034
 40
-1.281345128275034
 40
-1.281345128275034
 40
0.0
 40
0.0
 40
0.0
 10
9.739118499866922
 20
963.5652343417259
 30
0.0
 41
0.9999999993069707
 10
9.558660454476953
 20
947.2828244334978
 30
0.0
 41
0.9999999996067375
 10
9.378419216518555
 20
930.9990188822649
 30
0.0
 41
1.0
  0
SPLINE
  5
59B
330
1F
100
AcDbEntity
  8
Default
100
AcDbSpline
210
0.0
220
0.0
230
1.0
 70
     8
 71
     3
 72
    14
 73
    10
 74
     0
 42
0.000000001
 43
0.0000000001
 40
0.0
 40
0.0
 40
0.0
 40
0.0
 40
1.0
 40
2.0
 40
3.0
 40
4.0
 40
5.0
 40
6.0
 40
7.0
 40
7.0
 40
7.0
 40
7.0
 10
9.378419216518555
 20
930.9990188822649
 30
0.0
 10
9.351752042959592
 20
929.2132563109207
 30
0.0
 10
8.836206551950485
 20
925.8443033738313
 30
0.0
 10
6.65727119248189
 20
921.2119232103523
 30
0.0
 10
2.608639035213887
 20
917.7877227241024
 30
0.0
 10
-2.806322574349873
 20
917.8735065070741
 30
0.0
 10
-6.772694368264605
 20
921.3779778673798
 30
0.0
 10
-8.891578485658069
 20
926.0360654638516
 30
0.0
 10
-9.371842130454719
 20
929.410132935509
 30
0.0
 10
-9.372600145910805
 20
931.0975415078228
 30
0.0
  0
SPLINE
  5
59C
330
1F
100
AcDbEntity
  8
Default
100
AcDbSpline
210
0.0
220
0.0
230
1.0
 70
    12
 71
     2
 72
     6
 73
     3
 74
     0
 42
0.000000001
 43
0.0000000001
 40
0.0
 40
0.0
 40
0.0
 40
1.278324852146924
 40
1.278324852146924
 40
1.278324852146924
 10
-9.372600145910805
 20
931.0975415078228
 30
0.0
 41
1.0
 10
-9.551595131804756
 20
947.3312803393692
 30
0.0
 41
0.9999999996076647
 10
-9.730903315597938
 20
963.5650157145336
 30
0.0
 41
0.9999999993083845
  0
SPLINE
  5
59D
330
1F
100
AcDbEntity
  8
Default
100
AcDbSpline
210
0.0
220
0.0
230
1.0
 70
     8
 71
     3
 72
    47
 73
    43
 74
     0
 42
0.000000001
 43
0.0000000001
 40
36.00001859489052
 40
36.00001859489052
 40
36.00001859489052
 40
36.00001859489052
 40
37.0
 40
38.0
 40
39.0
 40
40.0
 40
41.0
 40
42.0
 40
43.0
 40
44.0
 40
45.0
 40
46.0
 40
47.0
 40
48.0
 40
49.0
 40
50.0
 40
51.0
 40
52.0
 40
53.0
 40
53.0
 40
53.0
 40
54.0
 40
55.0
 40
56.0
 40
57.0
 40
58.0
 40
59.0
 40
60.0
 40
60.0
 40
60.0
 40
61.0
 40
62.0
 40
63.0
 40
64.0
 40
65.0
 40
66.0
 40
67.0
 40
68.0
 40
69.0
 40
70.0
 40
71.0
 40
72.0
 40
72.0
 40
72.0
 40
72.0
 10
0.0000000000000327
 20
963.4610332551302
 30
0.0
 10
11.18512948279889
 20
963.4421075354426
 30
0.0
 10
33.55782902624109
 20
964.357620260349
 30
0.0
 10
66.87234624374835
 20
968.6395937452379
 30
0.0
 10
99.65983975486963
 20
975.9611527584766
 30
0.0
 10
131.5635626885814
 20
986.5004847167092
 30
0.0
 10
162.1598405565419
 20
1000.42440883038
 30
0.0
 10
190.8141274383815
 20
1017.998402437408
 30
0.0
 10
217.2322674415773
 20
1038.794767497811
 30
0.0
 10
240.6928693911286
 20
1062.887184467296
 30
0.0
 10
260.9058679041446
 20
1089.759231816659
 30
0.0
 10
277.243602306975
 20
1119.177864754163
 30
0.0
 10
288.9176660071426
 20
1150.7301323156
 30
0.0
 10
296.589145489048
 20
1183.444414077063
 30
0.0
 10
301.3026047098211
 20
1216.692246537996
 30
0.0
 10
303.5707799914344
 20
1250.197795906488
 30
0.0
 10
303.6447058398881
 20
1283.752278859416
 30
0.0
 10
302.2704190781151
 20
1317.331484745331
 30
0.0
 10
297.9122935261294
 20
1339.365314344055
 30
0.0
 10
294.5055886748487
 20
1350.027299170089
 30
0.0
 10
291.1810863575884
 20
1360.500987865811
 30
0.0
 10
284.4289471499361
 20
1381.416047347071
 30
0.0
 10
273.7768208095877
 20
1412.615189113881
 30
0.0
 10
262.519840857618
 20
1443.601528860892
 30
0.0
 10
250.5789275510761
 20
1474.331825973093
 30
0.0
 10
237.8513592978816
 20
1504.744180764648
 30
0.0
 10
224.3126728419084
 20
1534.80809344967
 30
0.0
 10
214.4653812841352
 20
1554.460745859958
 30
0.0
 10
209.4012806355058
 20
1564.212684439599
 30
0.0
 10
208.366227399034
 20
1566.215463127633
 30
0.0
 10
206.3064929021675
 20
1570.226492172924
 30
0.0
 10
203.3440034828782
 20
1576.307283299802
 30
0.0
 10
200.5948721734712
 20
1582.48782460797
 30
0.0
 10
198.1946521799619
 20
1588.81755932552
 30
0.0
 10
196.3680323917506
 20
1595.331290046013
 30
0.0
 10
195.4353499317294
 20
1602.084753100147
 30
0.0
 10
196.5831776746636
 20
1608.825287716883
 30
0.0
 10
199.5354174644526
 20
1614.9490678489
 30
0.0
 10
202.4767069016926
 20
1621.030324538786
 30
0.0
 10
205.9312424328055
 20
1626.857904874165
 30
0.0
 10
209.8919010838581
 20
1632.344803203616
 30
0.0
 10
216.582901658403
 20
1639.30661449587
 30
0.0
 10
218.0055186562714
 20
1641.055635897597
 30
0.0
  0
SPLINE
  5
59E
330
1F
100
AcDbEntity
  8
Default
100
AcDbSpline
210
0.0
220
0.0
230
1.0
 70
     8
 71
     3
 72
    12
 73
     8
 74
     0
 42
0.000000001
 43
0.0000000001
 40
0.0
 40
0.0
 40
0.0
 40
0.0
 40
1.918305221504867
 40
3.868777778011241
 40
7.624449324857683
 40
11.42846767657462
 40
15.35241906764609
 40
15.35241906764609
 40
15.35241906764609
 40
15.35241906764609
 10
-0.0006503481999644
 20
1466.602778167305
 30
0.0
 10
16.23942581041777
 20
1466.616257557509
 30
0.0
 10
49.00167417754714
 20
1463.446076728569
 30
0.0
 10
111.1282600983104
 20
1444.800317043054
 30
0.0
 10
179.1979189590165
 20
1398.706775360684
 30
0.0
 10
232.6517144400277
 20
1315.148503638486
 30
0.0
 10
244.4745622025076
 20
1249.570609515789
 30
0.0
 10
244.4740198429536
 20
1216.36308986215
 30
0.0
  0
SPLINE
  5
59F
330
1F
100
AcDbEntity
  8
Default
100
AcDbSpline
210
0.0
220
0.0
230
1.0
 70
     8
 71
     3
 72
    12
 73
     8
 74
     0
 42
0.000000001
 43
0.0000000001
 40
-14.89017236839833
 40
-14.89017236839833
 40
-14.89017236839833
 40
-14.89017236839833
 40
-11.21816917573749
 40
-7.516682162771167
 40
-3.774519558109396
 40
-1.88935509827327
 40
0.0
 40
0.0
 40
0.0
 40
0.0
 10
244.4740198429536
 20
1216.36308986215
 30
0.0
 10
244.4823525904394
 20
1185.26929333669
 30
0.0
 10
231.6006665251553
 20
1122.856529106777
 30
0.0
 10
176.9397175158629
 20
1043.943234381675
 30
0.0
 10
109.2967631917672
 20
1000.334635720099
 30
0.0
 10
47.9540648635448
 20
982.3590472612977
 30
0.0
 10
15.99456012847443
 20
979.2853063272833
 30
0.0
 10
-0.0006513949301407
 20
979.2835850480132
 30
0.0
  0
SPLINE
  5
5A0
330
1F
100
AcDbEntity
  8
Default
100
AcDbSpline
210
0.0
220
0.0
230
1.0
 70
    12
 71
     2
 72
     6
 73
     3
 74
     0
 42
0.000000001
 43
0.0000000001
 40
0.0
 40
0.0
 40
0.0
 40
0.0853474550214741
 40
0.0853474550214741
 40
0.0853474550214741
 10
-351.8926805540431
 20
1280.926526282395
 30
0.0
 41
1.0
 10
-352.9743710114307
 20
1281.002405682649
 30
0.0
 41
0.9993970637774639
 10
-354.0587194491272
 20
1281.003033889012
 30
0.0
 41
1.0
  0
SPLINE
  5
5A1
330
1F
100
AcDbEntity
  8
Default
100
AcDbSpline
210
0.0
220
0.0
230
1.0
 70
     8
 71
     3
 72
    12
 73
     8
 74
     0
 42
0.000000001
 43
0.0000000001
 40
0.0
 40
0.0
 40
0.0
 40
0.0
 40
0.1510110321465192
 40
0.3037660471064116
 40
0.5900965017365678
 40
0.8249401141264362
 40
1.014583801502342
 40
1.014583801502342
 40
1.014583801502342
 40
1.014583801502342
 10
-351.0025014480488
 20
1260.43815735779
 30
0.0
 10
-352.2755554532813
 20
1260.313285309852
 30
0.0
 10
-354.8485717512339
 20
1260.21600893614
 30
0.0
 10
-359.8383463538484
 20
1260.653190794908
 30
0.0
 10
-365.379185531503
 20
1262.188680142311
 30
0.0
 10
-370.4808965486772
 20
1265.611274971599
 30
0.0
 10
-372.1254075148171
 20
1269.010232774488
 30
0.0
 10
-372.0935691307204
 20
1270.644741653706
 30
0.0
  0
SPLINE
  5
5A2
330
1F
100
AcDbEntity
  8
Default
100
AcDbSpline
210
0.0
220
0.0
230
1.0
 70
     8
 71
     3
 72
    12
 73
     8
 74
     0
 42
0.000000001
 43
0.0000000001
 40
-1.014583801502342
 40
-1.014583801502342
 40
-1.014583801502342
 40
-1.014583801502342
 40
-0.8249401141264362
 40
-0.5900965017365678
 40
-0.3037660471064116
 40
-0.1510110321465192
 40
0.0
 40
0.0
 40
0.0
 40
0.0
 10
-372.0935691307204
 20
1270.644741653706
 30
0.0
 10
-372.1254075148171
 20
1272.279250532929
 30
0.0
 10
-370.4808965486772
 20
1275.678208335817
 30
0.0
 10
-365.379185531503
 20
1279.100803165105
 30
0.0
 10
-359.8383463538484
 20
1280.636292512508
 30
0.0
 10
-354.8485717512339
 20
1281.073474371276
 30
0.0
 10
-352.2755554532813
 20
1280.976197997565
 30
0.0
 10
-351.0025014480488
 20
1280.851325949627
 30
0.0
  0
SPLINE
  5
5A3
330
1F
100
AcDbEntity
  8
Default
100
AcDbSpline
210
0.0
220
0.0
230
1.0
 70
    12
 71
     2
 72
     6
 73
     3
 74
     0
 42
0.000000001
 43
0.0000000001
 40
0.0
 40
0.0
 40
0.0
 40
0.1369528492222414
 40
0.1369528492222414
 40
0.1369528492222414
 10
-341.3668409115307
 20
1261.307427756905
 30
0.0
 41
1.0
 10
-343.1057331734046
 20
1261.343737961606
 30
0.0
 41
0.9999966913238282
 10
-344.8456137521607
 20
1261.324645621908
 30
0.0
 41
0.9999959461296658
  0
ARC
  5
5A4
330
1F
100
AcDbEntity
  8
Default
100
AcDbCircle
 10
-345.0544616300612
 20
1248.626362959914
 30
0.0
 40
12.7
100
AcDbArc
 50
89.05774477487232
 51
101.512847826468
  0
SPLINE
  5
5A5
330
1F
100
AcDbEntity
  8
Default
100
AcDbSpline
210
0.0
220
0.0
230
1.0
 70
     8
 71
     3
 72
    14
 73
    10
 74
     0
 42
0.000000001
 43
0.0000000001
 40
0.2772630823298201
 40
0.2772630823298201
 40
0.2772630823298201
 40
0.2772630823298201
 40
1.0
 40
2.0
 40
3.0
 40
4.0
 40
5.0
 40
6.0
 40
7.0
 40
7.0
 40
7.0
 40
7.0
 10
-347.5892249711832
 20
1261.070838634064
 30
0.0
 10
-348.5989685779204
 20
1260.865168170696
 30
0.0
 10
-351.0278633393463
 20
1260.4824857037
 30
0.0
 10
-354.9179890806335
 20
1260.362054927917
 30
0.0
 10
-359.1795074483743
 20
1260.81962052683
 30
0.0
 10
-363.3386506511633
 20
1261.874466373347
 30
0.0
 10
-367.2468860382978
 20
1263.664871077444
 30
0.0
 10
-370.5732570605686
 20
1266.461540817118
 30
0.0
 10
-371.7218502293362
 20
1269.204980726424
 30
0.0
 10
-371.708959584379
 20
1270.644754266335
 30
0.0
  0
SPLINE
  5
5A6
330
1F
100
AcDbEntity
  8
Default
100
AcDbSpline
210
0.0
220
0.0
230
1.0
 70
     8
 71
     3
 72
    14
 73
    10
 74
     0
 42
0.000000001
 43
0.0000000001
 40
-7.0
 40
-7.0
 40
-7.0
 40
-7.0
 40
-6.0
 40
-5.0
 40
-4.0
 40
-3.0
 40
-2.0
 40
-1.0
 40
-0.2482205602640466
 40
-0.2482205602640466
 40
-0.2482205602640466
 40
-0.2482205602640466
 10
-371.708959584379
 20
1270.644754266335
 30
0.0
 10
-371.7218502293362
 20
1272.084527806239
 30
0.0
 10
-370.5732570605686
 20
1274.827967715549
 30
0.0
 10
-367.2468860382978
 20
1277.624637455223
 30
0.0
 10
-363.3386506511633
 20
1279.41504215932
 30
0.0
 10
-359.1795074483743
 20
1280.469888005837
 30
0.0
 10
-354.9179890806335
 20
1280.92745360475
 30
0.0
 10
-350.9863686719981
 20
1280.80573823425
 30
0.0
 10
-348.51708343473
 20
1280.411350459222
 30
0.0
 10
-347.4675431228715
 20
1280.193657837344
 30
0.0
  0
ARC
  5
5A7
330
1F
100
AcDbEntity
  8
Default
100
AcDbCircle
 10
-344.8882446452625
 20
1292.628979279247
 30
0.0
 40
12.7
100
AcDbArc
 50
258.2820321218404
 51
271.022420192049
  0
SPLINE
  5
5A8
330
1F
100
AcDbEntity
  8
Default
100
AcDbSpline
210
0.0
220
0.0
230
1.0
 70
    12
 71
     2
 72
     6
 73
     3
 74
     0
 42
0.000000001
 43
0.0000000001
 40
-0.1297405451143296
 40
-0.1297405451143296
 40
-0.1297405451143296
 40
0.0
 40
0.0
 40
0.0
 10
-344.66163026914
 20
1279.931001254203
 30
0.0
 41
0.9999960316975588
 10
-343.0141872046988
 20
1279.960402335344
 30
0.0
 41
0.999996865512317
 10
-341.3668409115307
 20
1279.994800947859
 30
0.0
 41
1.0
  0
SPLINE
  5
5A9
330
1F
100
AcDbEntity
  8
Default
100
AcDbSpline
210
0.0
220
0.0
230
1.0
 70
     8
 71
     3
 72
    22
 73
    18
 74
     0
 42
0.000000001
 43
0.0000000001
 40
0.0
 40
0.0
 40
0.0
 40
0.0
 40
0.2588469591229587
 40
0.6477254461891114
 40
1.024641027840087
 40
1.817983982162573
 40
2.582167143679937
 40
4.062052734317923
 40
7.850412104674
 40
9.497260537102542
 40
10.543391206404
 40
10.8432833113025
 40
12.15829953678302
 40
13.34949093133962
 40
14.77372714428499
 40
17.25709974516987
 40
21.82793658798906
 40
21.82793658798906
 40
21.82793658798906
 40
21.82793658798906
 10
-196.5619435307853
 20
1607.235018153062
 30
0.0
 10
-196.3586352222628
 20
1605.037235159301
 30
0.0
 10
-197.3424644002225
 20
1599.590029170516
 30
0.0
 10
-200.5051008716073
 20
1591.499035097435
 30
0.0
 10
-206.2026741987829
 20
1579.586444778326
 30
0.0
 10
-214.0253364580494
 20
1565.192060434345
 30
0.0
 10
-225.2884062707344
 20
1542.067963381139
 30
0.0
 10
-246.9121420252923
 20
1495.794865172351
 30
0.0
 10
-269.239754573191
 20
1441.642622151792
 30
0.0
 10
-289.0475311875597
 20
1390.477078403672
 30
0.0
 10
-297.9405658649884
 20
1366.747545783854
 30
0.0
 10
-305.5958809226904
 20
1345.545005648697
 30
0.0
 10
-310.1301611517265
 20
1322.090224833804
 30
0.0
 10
-311.878872646921
 20
1288.854342083197
 30
0.0
 10
-311.4186766644416
 20
1245.642914195183
 30
0.0
 10
-302.2861164283385
 20
1174.238919913447
 30
0.0
 10
-279.5854479900044
 20
1117.926468225951
 30
0.0
 10
-257.5850009947498
 20
1085.98229568387
 30
0.0
  0
SPLINE
  5
5AA
330
1F
100
AcDbEntity
  8
Default
100
AcDbSpline
210
0.0
220
0.0
230
1.0
 70
     8
 71
     3
 72
    19
 73
    15
 74
     0
 42
0.000000001
 43
0.0000000001
 40
-12.0
 40
-12.0
 40
-12.0
 40
-12.0
 40
-11.0
 40
-10.0
 40
-9.0
 40
-8.0
 40
-7.0
 40
-6.0
 40
-5.0
 40
-4.0
 40
-3.0
 40
-2.0
 40
-1.0
 40
0.0
 40
0.0
 40
0.0
 40
0.0
 10
-223.195204846379
 20
1650.971170193856
 30
0.0
 10
-220.00015402598
 20
1656.334890383716
 30
0.0
 10
-207.1784696626055
 20
1660.402453116721
 30
0.0
 10
-189.0630576483818
 20
1664.988937410182
 30
0.0
 10
-170.2782084919272
 20
1668.394498680214
 30
0.0
 10
-151.5575181734639
 20
1671.484442889645
 30
0.0
 10
-132.719896860799
 20
1674.012707918444
 30
0.0
 10
-113.8376903876851
 20
1676.097958349293
 30
0.0
 10
-94.91096382726752
 20
1677.757870845578
 30
0.0
 10
-75.95552833298277
 20
1679.035738823402
 30
0.0
 10
-56.97984227154663
 20
1679.966381836579
 30
0.0
 10
-37.99164488101811
 20
1680.585798998925
 30
0.0
 10
-18.99658889957569
 20
1680.92979735596
 30
0.0
 10
-6.331394639109897
 20
1680.999400107479
 30
0.0
 10
0.0011769193843392
 20
1681.000217640672
 30
0.0
  0
SPLINE
  5
5AB
330
1F
100
AcDbEntity
  8
Default
100
AcDbSpline
210
0.0
220
0.0
230
1.0
 70
    12
 71
     2
 72
     6
 73
     3
 74
     0
 42
0.000000001
 43
0.0000000001
 40
-6.233889429224446
 40
-6.233889429224446
 40
-6.233889429224446
 40
0.0
 40
0.0
 40
0.0
 10
0.0011769193843392
 20
1694.403454747991
 30
0.0
 41
1.0
 10
-79.34262533631406
 20
1694.550839366615
 30
0.0
 41
0.996730330589404
 10
-157.6737666886328
 20
1681.916518038053
 30
0.0
 41
1.0
  0
SPLINE
  5
5AC
330
1F
100
AcDbEntity
  8
Default
100
AcDbSpline
210
0.0
220
0.0
230
1.0
 70
     8
 71
     3
 72
    12
 73
     8
 74
     0
 42
0.000000001
 43
0.0000000001
 40
0.0
 40
0.0
 40
0.0
 40
0.0
 40
0.8495817757806477
 40
1.391422022197968
 40
2.191064820612614
 40
2.689385262996221
 40
3.111933853859593
 40
3.111933853859593
 40
3.111933853859593
 40
3.111933853859593
 10
-157.6737666886328
 20
1681.916518038053
 30
0.0
 10
-164.7803980906537
 20
1680.64461115956
 30
0.0
 10
-176.3737793658074
 20
1678.867644435266
 30
0.0
 10
-194.5825157378058
 20
1675.021606389915
 30
0.0
 10
-209.5828074609526
 20
1670.968379327934
 30
0.0
 10
-222.4219160193352
 20
1663.225313457455
 30
0.0
 10
-224.3447506301854
 20
1654.627697003814
 30
0.0
 10
-223.2334795193055
 20
1651.110765576619
 30
0.0
  0
SPLINE
  5
5AD
330
1F
100
AcDbEntity
  8
Default
100
AcDbSpline
210
0.0
220
0.0
230
1.0
 70
    12
 71
     2
 72
     6
 73
     3
 74
     0
 42
0.000000001
 43
0.0000000001
 40
0.0
 40
0.0
 40
0.0
 40
0.443505275079806
 40
0.443505275079806
 40
0.443505275079806
 10
-223.2334795193055
 20
1651.110765576619
 30
0.0
 41
1.0
 10
-221.6079920386146
 20
1645.48465864533
 30
0.0
 41
0.9799943751373794
 10
-218.0055186562713
 20
1641.055635897597
 30
0.0
 41
1.0
  0
SPLINE
  5
5AE
330
1F
100
AcDbEntity
  8
Default
100
AcDbSpline
210
0.0
220
0.0
230
1.0
 70
    12
 71
     2
 72
     6
 73
     3
 74
     0
 42
0.000000001
 43
0.0000000001
 40
-5.654573080352872
 40
-5.654573080352872
 40
-5.654573080352872
 40
0.0
 40
0.0
 40
0.0
 10
-142.981744615663
 20
1684.284638066971
 30
0.0
 41
1.0
 10
-71.96746715938568
 20
1695.963971868774
 30
0.0
 41
0.9967681786255456
 10
0.0011769193843392
 20
1696.120031277855
 30
0.0
 41
1.0
  0
SPLINE
  5
5AF
330
1F
100
AcDbEntity
  8
Default
100
AcDbSpline
210
0.0
220
0.0
230
1.0
 70
    12
 71
     2
 72
     6
 73
     3
 74
     0
 42
0.000000001
 43
0.0000000001
 40
-1.102413928352738
 40
-1.102413928352738
 40
-1.102413928352738
 40
0.0
 40
0.0
 40
0.0
 10
-311.6269915583615
 20
1280.333464884943
 30
0.0
 41
0.9999999993925147
 10
-325.6358404821148
 20
1280.178232635664
 30
0.0
 41
0.9999999996616539
 10
-339.6457224796722
 20
1280.023160870225
 30
0.0
 41
1.0
  0
SPLINE
  5
5B0
330
1F
100
AcDbEntity
  8
Default
100
AcDbSpline
210
0.0
220
0.0
230
1.0
 70
     8
 71
     3
 72
    14
 73
    10
 74
     0
 42
0.000000001
 43
0.0000000001
 40
0.0
 40
0.0
 40
0.0
 40
0.0
 40
1.0
 40
2.0
 40
3.0
 40
4.0
 40
5.0
 40
6.0
 40
7.0
 40
7.0
 40
7.0
 40
7.0
 10
-339.6457224796722
 20
1280.023160870225
 30
0.0
 10
-341.4314850510163
 20
1279.996493696666
 30
0.0
 10
-344.8004379881094
 20
1279.480948205661
 30
0.0
 10
-349.4328181515848
 20
1277.302012846188
 30
0.0
 10
-352.8570186378346
 20
1273.253380688921
 30
0.0
 10
-352.7712348548629
 20
1267.838419079357
 30
0.0
 10
-349.2667634945537
 20
1263.872047285438
 30
0.0
 10
-344.6086758980854
 20
1261.753163168048
 30
0.0
 10
-341.2346084264281
 20
1261.272899523252
 30
0.0
 10
-339.5471998541142
 20
1261.272141507796
 30
0.0
  0
SPLINE
  5
5B1
330
1F
100
AcDbEntity
  8
Default
100
AcDbSpline
210
0.0
220
0.0
230
1.0
 70
    12
 71
     2
 72
     6
 73
     3
 74
     0
 42
0.000000001
 43
0.0000000001
 40
0.0
 40
0.0
 40
0.0
 40
1.112498698414412
 40
1.112498698414412
 40
1.112498698414412
 10
-339.5471998541142
 20
1261.272141507796
 30
0.0
 41
1.0
 10
-325.4193251677679
 20
1261.116366011074
 30
0.0
 41
0.9999999996585591
 10
-311.2914530989328
 20
1260.960353303026
 30
0.0
 41
0.9999999993875963
  0
SPLINE
  5
5B2
330
1F
100
AcDbEntity
  8
Default
100
AcDbSpline
210
0.0
220
0.0
230
1.0
 70
     8
 71
     3
 72
    47
 73
    43
 74
     0
 42
0.000000001
 43
0.0000000001
 40
36.00001859489052
 40
36.00001859489052
 40
36.00001859489052
 40
36.00001859489052
 40
37.0
 40
38.0
 40
39.0
 40
40.0
 40
41.0
 40
42.0
 40
43.0
 40
44.0
 40
45.0
 40
46.0
 40
47.0
 40
48.0
 40
49.0
 40
50.0
 40
51.0
 40
52.0
 40
53.0
 40
53.0
 40
53.0
 40
54.0
 40
55.0
 40
56.0
 40
57.0
 40
58.0
 40
59.0
 40
60.0
 40
60.0
 40
60.0
 40
61.0
 40
62.0
 40
63.0
 40
64.0
 40
65.0
 40
66.0
 40
67.0
 40
68.0
 40
69.0
 40
70.0
 40
71.0
 40
72.0
 40
72.0
 40
72.0
 40
72.0
 10
0.0000000000000327
 20
963.4610332551302
 30
0.0
 10
-11.18512948279882
 20
963.4421075354426
 30
0.0
 10
-33.55782902624102
 20
964.357620260349
 30
0.0
 10
-66.8723462437483
 20
968.6395937452379
 30
0.0
 10
-99.65983975486958
 20
975.9611527584766
 30
0.0
 10
-131.5635626885814
 20
986.5004847167092
 30
0.0
 10
-162.1598405565418
 20
1000.42440883038
 30
0.0
 10
-190.8141274383815
 20
1017.998402437408
 30
0.0
 10
-217.2322674415772
 20
1038.794767497811
 30
0.0
 10
-240.6928693911286
 20
1062.887184467296
 30
0.0
 10
-260.9058679041445
 20
1089.759231816659
 30
0.0
 10
-277.2436023069749
 20
1119.177864754163
 30
0.0
 10
-288.9176660071425
 20
1150.7301323156
 30
0.0
 10
-296.5891454890479
 20
1183.444414077063
 30
0.0
 10
-301.302604709821
 20
1216.692246537996
 30
0.0
 10
-303.5707799914344
 20
1250.197795906488
 30
0.0
 10
-303.644705839888
 20
1283.752278859416
 30
0.0
 10
-302.270419078115
 20
1317.331484745331
 30
0.0
 10
-297.9122935261293
 20
1339.365314344055
 30
0.0
 10
-294.5055886748487
 20
1350.027299170089
 30
0.0
 10
-291.1810863575883
 20
1360.500987865811
 30
0.0
 10
-284.4289471499359
 20
1381.416047347071
 30
0.0
 10
-273.7768208095876
 20
1412.615189113881
 30
0.0
 10
-262.5198408576179
 20
1443.601528860892
 30
0.0
 10
-250.578927551076
 20
1474.331825973093
 30
0.0
 10
-237.8513592978816
 20
1504.744180764648
 30
0.0
 10
-224.3126728419083
 20
1534.80809344967
 30
0.0
 10
-214.4653812841352
 20
1554.460745859958
 30
0.0
 10
-209.4012806355058
 20
1564.212684439599
 30
0.0
 10
-208.3662273990339
 20
1566.215463127633
 30
0.0
 10
-206.3064929021675
 20
1570.226492172924
 30
0.0
 10
-203.3440034828781
 20
1576.307283299802
 30
0.0
 10
-200.5948721734712
 20
1582.48782460797
 30
0.0
 10
-198.1946521799618
 20
1588.81755932552
 30
0.0
 10
-196.3680323917506
 20
1595.331290046013
 30
0.0
 10
-195.4353499317294
 20
1602.084753100147
 30
0.0
 10
-196.5831776746636
 20
1608.825287716883
 30
0.0
 10
-199.5354174644526
 20
1614.9490678489
 30
0.0
 10
-202.4767069016925
 20
1621.030324538786
 30
0.0
 10
-205.9312424328054
 20
1626.857904874165
 30
0.0
 10
-209.8919010838581
 20
1632.344803203616
 30
0.0
 10
-216.582901658403
 20
1639.30661449587
 30
0.0
 10
-218.0055186562713
 20
1641.055635897597
 30
0.0
  0
SPLINE
  5
5B3
330
1F
100
AcDbEntity
  8
Default
100
AcDbSpline
210
0.0
220
0.0
230
1.0
 70
     8
 71
     3
 72
    12
 73
     8
 74
     0
 42
0.000000001
 43
0.0000000001
 40
0.0
 40
0.0
 40
0.0
 40
0.0
 40
1.918305221504867
 40
3.868777778011241
 40
7.624449324857683
 40
11.42846767657462
 40
15.35241906764609
 40
15.35241906764609
 40
15.35241906764609
 40
15.35241906764609
 10
0.0006503482000298
 20
1466.602778167305
 30
0.0
 10
-16.23942581041771
 20
1466.616257557509
 30
0.0
 10
-49.00167417754706
 20
1463.446076728569
 30
0.0
 10
-111.1282600983104
 20
1444.800317043054
 30
0.0
 10
-179.1979189590165
 20
1398.706775360684
 30
0.0
 10
-232.6517144400277
 20
1315.148503638486
 30
0.0
 10
-244.4745622025075
 20
1249.570609515789
 30
0.0
 10
-244.4740198429535
 20
1216.36308986215
 30
0.0
  0
SPLINE
  5
5B4
330
1F
100
AcDbEntity
  8
Default
100
AcDbSpline
210
0.0
220
0.0
230
1.0
 70
     8
 71
     3
 72
    12
 73
     8
 74
     0
 42
0.000000001
 43
0.0000000001
 40
-14.89017236839833
 40
-14.89017236839833
 40
-14.89017236839833
 40
-14.89017236839833
 40
-11.21816917573749
 40
-7.516682162771167
 40
-3.774519558109396
 40
-1.88935509827327
 40
0.0
 40
0.0
 40
0.0
 40
0.0
 10
-244.4740198429535
 20
1216.36308986215
 30
0.0
 10
-244.4823525904394
 20
1185.26929333669
 30
0.0
 10
-231.6006665251552
 20
1122.856529106777
 30
0.0
 10
-176.9397175158628
 20
1043.943234381675
 30
0.0
 10
-109.2967631917672
 20
1000.334635720099
 30
0.0
 10
-47.95406486354473
 20
982.3590472612977
 30
0.0
 10
-15.99456012847437
 20
979.2853063272833
 30
0.0
 10
0.0006513949302061
 20
979.2835850480132
 30
0.0
  0
SPLINE
  5
5B5
330
1F
100
AcDbEntity
  8
Default
100
AcDbSpline
210
0.0
220
0.0
230
1.0
 70
    12
 71
     2
 72
     6
 73
     3
 74
     0
 42
0.000000001
 43
0.0000000001
 40
0.0
 40
0.0
 40
0.0
 40
0.0853474550214741
 40
0.0853474550214741
 40
0.0853474550214741
 10
351.7949730349996
 20
1280.926526282395
 30
0.0
 41
1.0
 10
352.8766634923872
 20
1281.002405682649
 30
0.0
 41
0.9993970637774639
 10
353.9610119300836
 20
1281.003033889012
 30
0.0
 41
1.0
  0
SPLINE
  5
5B6
330
1F
100
AcDbEntity
  8
Default
100
AcDbSpline
210
0.0
220
0.0
230
1.0
 70
     8
 71
     3
 72
    12
 73
     8
 74
     0
 42
0.000000001
 43
0.0000000001
 40
0.0
 40
0.0
 40
0.0
 40
0.0
 40
0.1510110321465192
 40
0.3037660471064116
 40
0.5900965017365678
 40
0.8249401141264362
 40
1.014583801502342
 40
1.014583801502342
 40
1.014583801502342
 40
1.014583801502342
 10
350.9047939290053
 20
1260.43815735779
 30
0.0
 10
352.1778479342378
 20
1260.313285309852
 30
0.0
 10
354.7508642321904
 20
1260.21600893614
 30
0.0
 10
359.7406388348049
 20
1260.653190794908
 30
0.0
 10
365.2814780124594
 20
1262.188680142311
 30
0.0
 10
370.3831890296337
 20
1265.611274971599
 30
0.0
 10
372.0276999957736
 20
1269.010232774488
 30
0.0
 10
371.9958616116768
 20
1270.644741653706
 30
0.0
  0
SPLINE
  5
5B7
330
1F
100
AcDbEntity
  8
Default
100
AcDbSpline
210
0.0
220
0.0
230
1.0
 70
     8
 71
     3
 72
    12
 73
     8
 74
     0
 42
0.000000001
 43
0.0000000001
 40
-1.014583801502342
 40
-1.014583801502342
 40
-1.014583801502342
 40
-1.014583801502342
 40
-0.8249401141264362
 40
-0.5900965017365678
 40
-0.3037660471064116
 40
-0.1510110321465192
 40
0.0
 40
0.0
 40
0.0
 40
0.0
 10
371.9958616116768
 20
1270.644741653706
 30
0.0
 10
372.0276999957736
 20
1272.279250532929
 30
0.0
 10
370.3831890296337
 20
1275.678208335817
 30
0.0
 10
365.2814780124594
 20
1279.100803165105
 30
0.0
 10
359.7406388348049
 20
1280.636292512508
 30
0.0
 10
354.7508642321904
 20
1281.073474371276
 30
0.0
 10
352.1778479342378
 20
1280.976197997565
 30
0.0
 10
350.9047939290053
 20
1280.851325949627
 30
0.0
  0
SPLINE
  5
5B8
330
1F
100
AcDbEntity
  8
Default
100
AcDbSpline
210
0.0
220
0.0
230
1.0
 70
    12
 71
     2
 72
     6
 73
     3
 74
     0
 42
0.000000001
 43
0.0000000001
 40
0.0
 40
0.0
 40
0.0
 40
0.1369528492222414
 40
0.1369528492222414
 40
0.1369528492222414
 10
341.2691333924872
 20
1261.307427756905
 30
0.0
 41
1.0
 10
343.008025654361
 20
1261.343737961606
 30
0.0
 41
0.9999966913238282
 10
344.7479062331171
 20
1261.324645621908
 30
0.0
 41
0.9999959461296658
  0
ARC
  5
5B9
330
1F
100
AcDbEntity
  8
Default
100
AcDbCircle
 10
344.9567541110177
 20
1248.626362959914
 30
0.0
 40
12.7
100
AcDbArc
 50
78.48715217353202
 51
90.9422552251277
  0
SPLINE
  5
5BA
330
1F
100
AcDbEntity
  8
Default
100
AcDbSpline
210
0.0
220
0.0
230
1.0
 70
     8
 71
     3
 72
    14
 73
    10
 74
     0
 42
0.000000001
 43
0.0000000001
 40
0.2772630823298201
 40
0.2772630823298201
 40
0.2772630823298201
 40
0.2772630823298201
 40
1.0
 40
2.0
 40
3.0
 40
4.0
 40
5.0
 40
6.0
 40
7.0
 40
7.0
 40
7.0
 40
7.0
 10
347.4915174521397
 20
1261.070838634064
 30
0.0
 10
348.5012610588769
 20
1260.865168170696
 30
0.0
 10
350.9301558203028
 20
1260.4824857037
 30
0.0
 10
354.82028156159
 20
1260.362054927917
 30
0.0
 10
359.0817999293308
 20
1260.81962052683
 30
0.0
 10
363.2409431321197
 20
1261.874466373347
 30
0.0
 10
367.1491785192543
 20
1263.664871077444
 30
0.0
 10
370.4755495415251
 20
1266.461540817118
 30
0.0
 10
371.6241427102927
 20
1269.204980726424
 30
0.0
 10
371.6112520653354
 20
1270.644754266335
 30
0.0
  0
SPLINE
  5
5BB
330
1F
100
AcDbEntity
  8
Default
100
AcDbSpline
210
0.0
220
0.0
230
1.0
 70
     8
 71
     3
 72
    14
 73
    10
 74
     0
 42
0.000000001
 43
0.0000000001
 40
-7.0
 40
-7.0
 40
-7.0
 40
-7.0
 40
-6.0
 40
-5.0
 40
-4.0
 40
-3.0
 40
-2.0
 40
-1.0
 40
-0.2482205602640466
 40
-0.2482205602640466
 40
-0.2482205602640466
 40
-0.2482205602640466
 10
371.6112520653354
 20
1270.644754266335
 30
0.0
 10
371.6241427102927
 20
1272.084527806239
 30
0.0
 10
370.4755495415251
 20
1274.827967715549
 30
0.0
 10
367.1491785192543
 20
1277.624637455223
 30
0.0
 10
363.2409431321197
 20
1279.41504215932
 30
0.0
 10
359.0817999293308
 20
1280.469888005837
 30
0.0
 10
354.82028156159
 20
1280.92745360475
 30
0.0
 10
350.8886611529546
 20
1280.80573823425
 30
0.0
 10
348.4193759156864
 20
1280.411350459222
 30
0.0
 10
347.369835603828
 20
1280.193657837344
 30
0.0
  0
ARC
  5
5BC
330
1F
100
AcDbEntity
  8
Default
100
AcDbCircle
 10
344.790537126219
 20
1292.628979279247
 30
0.0
 40
12.7
100
AcDbArc
 50
268.9775798079509
 51
281.7179678781595
  0
SPLINE
  5
5BD
330
1F
100
AcDbEntity
  8
Default
100
AcDbSpline
210
0.0
220
0.0
230
1.0
 70
    12
 71
     2
 72
     6
 73
     3
 74
     0
 42
0.000000001
 43
0.0000000001
 40
-0.1297405451143296
 40
-0.1297405451143296
 40
-0.1297405451143296
 40
0.0
 40
0.0
 40
0.0
 10
344.5639227500964
 20
1279.931001254203
 30
0.0
 41
0.9999960316975588
 10
342.9164796856552
 20
1279.960402335344
 30
0.0
 41
0.999996865512317
 10
341.2691333924872
 20
1279.994800947859
 30
0.0
 41
1.0
  0
SPLINE
  5
5BE
330
1F
100
AcDbEntity
  8
Default
100
AcDbSpline
210
0.0
220
0.0
230
1.0
 70
    12
 71
     2
 72
     6
 73
     3
 74
     0
 42
0.000000001
 43
0.0000000001
 40
-1.102413928352738
 40
-1.102413928352738
 40
-1.102413928352738
 40
0.0
 40
0.0
 40
0.0
 10
311.529284039318
 20
1280.333464884943
 30
0.0
 41
0.9999999993925147
 10
325.5381329630713
 20
1280.178232635664
 30
0.0
 41
0.9999999996616539
 10
339.5480149606287
 20
1280.023160870225
 30
0.0
 41
1.0
  0
SPLINE
  5
5BF
330
1F
100
AcDbEntity
  8
Default
100
AcDbSpline
210
0.0
220
0.0
230
1.0
 70
     8
 71
     3
 72
    14
 73
    10
 74
     0
 42
0.000000001
 43
0.0000000001
 40
0.0
 40
0.0
 40
0.0
 40
0.0
 40
1.0
 40
2.0
 40
3.0
 40
4.0
 40
5.0
 40
6.0
 40
7.0
 40
7.0
 40
7.0
 40
7.0
 10
339.5480149606287
 20
1280.023160870225
 30
0.0
 10
341.3337775319728
 20
1279.996493696666
 30
0.0
 10
344.7027304690659
 20
1279.480948205661
 30
0.0
 10
349.3351106325412
 20
1277.302012846188
 30
0.0
 10
352.7593111187911
 20
1273.253380688921
 30
0.0
 10
352.6735273358194
 20
1267.838419079357
 30
0.0
 10
349.1690559755102
 20
1263.872047285438
 30
0.0
 10
344.5109683790419
 20
1261.753163168048
 30
0.0
 10
341.1369009073846
 20
1261.272899523252
 30
0.0
 10
339.4494923350707
 20
1261.272141507796
 30
0.0
  0
SPLINE
  5
5C0
330
1F
100
AcDbEntity
  8
Default
100
AcDbSpline
210
0.0
220
0.0
230
1.0
 70
    12
 71
     2
 72
     6
 73
     3
 74
     0
 42
0.000000001
 43
0.0000000001
 40
0.0
 40
0.0
 40
0.0
 40
1.112498698414412
 40
1.112498698414412
 40
1.112498698414412
 10
339.4494923350707
 20
1261.272141507796
 30
0.0
 41
1.0
 10
325.3216176487244
 20
1261.116366011074
 30
0.0
 41
0.9999999996585591
 10
311.1937455798893
 20
1260.960353303026
 30
0.0
 41
0.9999999993875963
  0
SPLINE
  5
611
330
1F
100
AcDbEntity
  8
Default
100
AcDbSpline
210
0.0
220
0.0
230
1.0
 70
     8
 71
     3
 72
    12
 73
     8
 74
     0
 42
0.000000001
 43
0.0000000001
 40
0.0
 40
0.0
 40
0.0
 40
0.0
 40
0.1510110321465192
 40
0.3037660471064116
 40
0.5900965017365678
 40
0.8249401141264362
 40
1.014583801502342
 40
1.014583801502342
 40
1.014583801502342
 40
1.014583801502342
 10
-877.7857529323332
 20
274.4780423746874
 30
0.0
 10
-876.61359421
 20
273.96588667742
 30
0.0
 10
-874.1965703459266
 20
273.0782655854488
 30
0.0
 10
-869.3159160712708
 20
271.9521250907265
 30
0.0
 10
-863.5717725625864
 20
271.7002487712812
 30
0.0
 10
-857.6621170883415
 20
273.378814481618
 30
0.0
 10
-855.0477584936196
 20
276.1032336126942
 30
0.0
 10
-854.5729475751512
 20
277.6675825349779
 30
0.0
  0
SPLINE
  5
612
330
1F
100
AcDbEntity
  8
Default
100
AcDbSpline
210
0.0
220
0.0
230
1.0
 70
     8
 71
     3
 72
    12
 73
     8
 74
     0
 42
0.000000001
 43
0.0000000001
 40
-1.014583801502342
 40
-1.014583801502342
 40
-1.014583801502342
 40
-1.014583801502342
 40
-0.8249401141264362
 40
-0.5900965017365678
 40
-0.3037660471064116
 40
-0.1510110321465192
 40
0.0
 40
0.0
 40
0.0
 40
0.0
 10
-854.5729475751512
 20
277.6675825349779
 30
0.0
 10
-854.0375764513479
 20
279.2122542537441
 30
0.0
 10
-854.5512635975581
 20
282.9530370567667
 30
0.0
 10
-858.3456391375833
 20
287.7846335764946
 30
0.0
 10
-863.1407980402093
 20
290.9571841950391
 30
0.0
 10
-867.7512590668817
 20
292.9148940009358
 30
0.0
 10
-870.2284030362111
 20
293.6174844347068
 30
0.0
 10
-871.4777369284162
 20
293.8921193821816
 30
0.0
  0
SPLINE
  5
613
330
1F
100
AcDbEntity
  8
Default
100
AcDbSpline
210
0.0
220
0.0
230
1.0
 70
    12
 71
     2
 72
     6
 73
     3
 74
     0
 42
0.000000001
 43
0.0000000001
 40
0.0
 40
0.0
 40
0.0
 40
0.1369528492222414
 40
0.1369528492222414
 40
0.1369528492222414
 10
-886.6811913483633
 20
278.28235051
 30
0.0
 41
1.0
 10
-885.0161860612477
 20
277.7795363064819
 30
0.0
 41
0.9999966913238282
 10
-883.3673611566823
 20
277.223725745384
 30
0.0
 41
0.9999959461296658
  0
ARC
  5
614
330
1F
100
AcDbEntity
  8
Default
100
AcDbCircle
 10
-887.0927201634232
 20
265.0824037304271
 30
0.0
 40
12.7
100
AcDbArc
 50
60.48715217353162
 51
72.94225522512772
  0
SPLINE
  5
615
330
1F
100
AcDbEntity
  8
Default
100
AcDbSpline
210
0.0
220
0.0
230
1.0
 70
     8
 71
     3
 72
    14
 73
    10
 74
     0
 42
0.000000001
 43
0.0000000001
 40
0.2772630823298201
 40
0.2772630823298201
 40
0.2772630823298201
 40
0.2772630823298201
 40
1.0
 40
2.0
 40
3.0
 40
4.0
 40
5.0
 40
6.0
 40
7.0
 40
7.0
 40
7.0
 40
7.0
 10
-880.8364625011851
 20
276.1345184630791
 30
0.0
 10
-879.9396949326322
 20
275.6268862942395
 30
0.0
 10
-877.7479341281306
 20
274.5123638815012
 30
0.0
 10
-874.085419849038
 20
273.1957124431178
 30
0.0
 10
-869.8910794899775
 20
272.3140015901233
 30
0.0
 10
-865.6095339517412
 20
272.0319736744387
 30
0.0
 10
-861.3393157392199
 20
272.5270385824351
 30
0.0
 10
-857.3115304256573
 20
274.1589243867976
 30
0.0
 10
-855.3713838529063
 20
276.4131559808362
 30
0.0
 10
-854.9387290929095
 20
277.7864454163144
 30
0.0
  0
SPLINE
  5
616
330
1F
100
AcDbEntity
  8
Default
100
AcDbSpline
210
0.0
220
0.0
230
1.0
 70
     8
 71
     3
 72
    14
 73
    10
 74
     0
 42
0.000000001
 43
0.0000000001
 40
-7.0
 40
-7.0
 40
-7.0
 40
-7.0
 40
-6.0
 40
-5.0
 40
-4.0
 40
-3.0
 40
-2.0
 40
-1.0
 40
-0.2482205602640466
 40
-0.2482205602640466
 40
-0.2482205602640466
 40
-0.2482205602640466
 10
-854.9387290929095
 20
277.7864454163144
 30
0.0
 10
-854.4815548691399
 20
279.1517679950755
 30
0.0
 10
-854.726162331846
 20
282.1158692066585
 30
0.0
 10
-857.0255106909824
 20
285.8035653619794
 30
0.0
 10
-860.1891979427536
 20
288.7140525752577
 30
0.0
 10
-863.8188128949513
 20
291.0025165229749
 30
0.0
 10
-867.7303621618003
 20
292.7545688649283
 30
0.0
 10
-871.5071674889932
 20
293.8537481903806
 30
0.0
 10
-873.9774698293425
 20
294.2417142292669
 30
0.0
 10
-875.0429127017637
 20
294.3590020353274
 30
0.0
  0
ARC
  5
617
330
1F
100
AcDbEntity
  8
Default
100
AcDbCircle
 10
-873.653245670294
 20
306.982742588018
 30
0.0
 40
12.7
100
AcDbArc
 50
250.9775798079641
 51
263.7179678781667
  0
SPLINE
  5
618
330
1F
100
AcDbEntity
  8
Default
100
AcDbSpline
210
0.0
220
0.0
230
1.0
 70
    12
 71
     2
 72
     6
 73
     3
 74
     0
 42
0.000000001
 43
0.0000000001
 40
-0.1297405451143296
 40
-0.1297405451143296
 40
-0.1297405451143296
 40
0.0
 40
0.0
 40
0.0
 10
-877.7926597533333
 20
294.9762755369199
 30
0.0
 41
0.9999960316975588
 10
-879.3503857812732
 20
295.513325530904
 30
0.0
 41
0.999996865512317
 10
-880.9064754521315
 20
296.0550985556967
 30
0.0
 41
1.0
  0
SPLINE
  5
619
330
1F
100
AcDbEntity
  8
Default
100
AcDbSpline
210
0.0
220
0.0
230
1.0
 70
    12
 71
     2
 72
     6
 73
     3
 74
     0
 42
0.000000001
 43
0.0000000001
 40
0.0
 40
0.0
 40
0.0
 40
0.0853474550214741
 40
0.0853474550214741
 40
0.0853474550214741
 10
-870.6078881081811
 20
293.6885586769027
 30
0.0
 41
1.0
 10
-869.5556913258702
 20
293.4264635409821
 30
0.0
 41
0.9993970637774639
 10
-868.5242205518227
 20
293.0919789056643
 30
0.0
 41
1.0
  0
SPLINE
  5
61A
330
1F
100
AcDbEntity
  8
Default
100
AcDbSpline
210
0.0
220
0.0
230
1.0
 70
    12
 71
     2
 72
     6
 73
     3
 74
     0
 42
0.000000001
 43
0.0000000001
 40
0.0
 40
0.0
 40
0.0
 40
0.0587632096241838
 40
0.0587632096241838
 40
0.0587632096241838
 10
-854.5993703407177
 20
279.2288098059453
 30
0.0
 41
1.0
 10
-854.6453217074999
 20
278.4799703069491
 30
0.0
 41
0.9921107855315545
 10
-854.8761028399669
 20
277.7660990354515
 30
0.0
 41
1.0
  0
SPLINE
  5
61B
330
1F
100
AcDbEntity
  8
Default
100
AcDbSpline
210
0.0
220
0.0
230
1.0
 70
    24
 71
     2
 72
     6
 73
     3
 74
     0
 42
0.000000001
 43
0.0000000001
 40
0.0
 40
0.0
 40
0.0
 40
0.0114467396849787
 40
0.0114467396849787
 40
0.0114467396849787
 10
-854.8761074055629
 20
277.7660849839206
 30
0.0
 10
-854.7378488814464
 20
277.7211621351586
 30
0.0
 10
-854.5995903573274
 20
277.6762392863921
 30
0.0
  0
SPLINE
  5
61C
330
1F
100
AcDbEntity
  8
Default
100
AcDbSpline
210
0.0
220
0.0
230
1.0
 70
    12
 71
     2
 72
     6
 73
     3
 74
     0
 42
0.000000001
 43
0.0000000001
 40
0.0
 40
0.0
 40
0.0
 40
0.0586712320260919
 40
0.0586712320260919
 40
0.0586712320260919
 10
-854.8761074055629
 20
277.7660849839206
 30
0.0
 41
1.0
 10
-855.1086303687794
 20
277.0540268743449
 30
0.0
 41
0.9921343149382712
 10
-855.5107319418247
 20
276.4220395289096
 30
0.0
 41
1.0
  0
SPLINE
  5
61D
330
1F
100
AcDbEntity
  8
Default
100
AcDbSpline
210
0.0
220
0.0
230
1.0
 70
     8
 71
     3
 72
    22
 73
    18
 74
     0
 42
0.000000001
 43
0.0000000001
 40
0.0
 40
0.0
 40
0.0
 40
0.0
 40
0.2588469591229587
 40
0.6477254461891114
 40
1.024641027840087
 40
1.817983982162573
 40
2.582167143679937
 40
4.062052734317923
 40
7.850412104674
 40
9.497260537102542
 40
10.543391206404
 40
10.8432833113025
 40
12.15829953678302
 40
13.34949093133962
 40
14.77372714428499
 40
17.25709974516987
 40
21.82793658798906
 40
21.82793658798906
 40
21.82793658798906
 40
21.82793658798906
 10
-1467.830356233848
 20
683.6044518144169
 30
0.0
 10
-1465.80296611866
 20
682.7319418277593
 30
0.0
 10
-1460.318345431873
 20
681.9843397559837
 30
0.0
 10
-1451.646044378675
 20
682.4919311107977
 30
0.0
 10
-1438.555850744938
 20
684.2294524950464
 30
0.0
 10
-1422.448642137168
 20
687.2211370256431
 30
0.0
 10
-1396.975838970325
 20
690.7872139954683
 30
0.0
 10
-1346.285405559659
 20
697.0534350625885
 30
0.0
 10
-1287.883950241838
 20
701.5542930927063
 30
0.0
 10
-1233.101686855781
 20
704.5815855705164
 30
0.0
 10
-1207.785461382173
 20
705.7065353020252
 30
0.0
 10
-1185.255024974499
 20
706.4352273462648
 30
0.0
 10
-1161.54703319419
 20
703.4996582336566
 30
0.0
 10
-1129.39744875913
 20
694.892329103291
 30
0.0
 10
-1088.443147067145
 20
681.101591146777
 30
0.0
 10
-1023.356029331106
 20
650.350962524465
 30
0.0
 10
-976.8145975362736
 20
611.3598393155773
 30
0.0
 10
-953.2323960878503
 20
580.564878652586
 30
0.0
  0
SPLINE
  5
61E
330
1F
100
AcDbEntity
  8
Default
100
AcDbSpline
210
0.0
220
0.0
230
1.0
 70
     8
 71
     3
 72
    19
 73
    15
 74
     0
 42
0.000000001
 43
0.0000000001
 40
-12.0
 40
-12.0
 40
-12.0
 40
-12.0
 40
-11.0
 40
-10.0
 40
-9.0
 40
-8.0
 40
-7.0
 40
-6.0
 40
-5.0
 40
-4.0
 40
-3.0
 40
-2.0
 40
-1.0
 40
0.0
 40
0.0
 40
0.0
 40
0.0
 10
-1501.195778267773
 20
722.4494027879757
 30
0.0
 10
-1507.284304307318
 20
721.0682095770798
 30
0.0
 10
-1515.114904714777
 20
710.1310091235977
 30
0.0
 10
-1525.074880661457
 20
694.319530073212
 30
0.0
 10
-1534.118599525078
 20
677.5064531831693
 30
0.0
 10
-1542.842322555281
 20
660.6568639386357
 30
0.0
 10
-1551.067990605055
 20
643.5224982979081
 30
0.0
 10
-1558.886104306911
 20
626.2088306102829
 30
0.0
 10
-1566.313455058039
 20
608.7213851533885
 30
0.0
 10
-1573.386331428825
 20
591.0885776290516
 30
0.0
 10
-1580.135235003759
 20
573.3292122559195
 30
0.0
 10
-1586.592011418533
 20
555.4617738247314
 30
0.0
 10
-1592.788968404955
 20
537.5027033945501
 30
0.0
 10
-1596.768924818883
 20
525.4788962960648
 30
0.0
 10
-1598.726574568824
 20
519.4565154821036
 30
0.0
  0
SPLINE
  5
61F
330
1F
100
AcDbEntity
  8
Default
100
AcDbSpline
210
0.0
220
0.0
230
1.0
 70
    12
 71
     2
 72
     6
 73
     3
 74
     0
 42
0.000000001
 43
0.0000000001
 40
-6.233889429224446
 40
-6.233889429224446
 40
-6.233889429224446
 40
0.0
 40
0.0
 40
0.0
 10
-1611.473810559188
 20
523.598343527902
 30
0.0
 41
1.0
 10
-1587.095398365796
 20
599.1043280426823
 30
0.0
 41
0.996730330589404
 10
-1550.873790870648
 20
669.6974504517225
 30
0.0
 41
1.0
  0
SPLINE
  5
620
330
1F
100
AcDbEntity
  8
Default
100
AcDbSpline
210
0.0
220
0.0
230
1.0
 70
     8
 71
     3
 72
    12
 73
     8
 74
     0
 42
0.000000001
 43
0.0000000001
 40
0.0
 40
0.0
 40
0.0
 40
0.0
 40
0.8495817757806477
 40
1.391422022197968
 40
2.191064820612614
 40
2.689385262996221
 40
3.111933853859593
 40
3.111933853859593
 40
3.111933853859593
 40
3.111933853859593
 10
-1550.873790870648
 20
669.6974504517225
 30
0.0
 10
-1547.468065669753
 20
676.0632177148051
 30
0.0
 10
-1542.195518051083
 20
686.5400656061889
 30
0.0
 10
-1532.910909521092
 20
702.6691118692524
 30
0.0
 10
-1524.420716448738
 20
715.6827210146671
 30
0.0
 10
-1513.08912045935
 20
725.5006999299949
 30
0.0
 10
-1504.318112734384
 20
724.6726147211092
 30
0.0
 10
-1501.316713841807
 20
722.5289415106817
 30
0.0
  0
SPLINE
  5
621
330
1F
100
AcDbEntity
  8
Default
100
AcDbSpline
210
0.0
220
0.0
230
1.0
 70
    12
 71
     2
 72
     6
 73
     3
 74
     0
 42
0.000000001
 43
0.0000000001
 40
0.0
 40
0.0
 40
0.0
 40
0.443505275079806
 40
0.443505275079806
 40
0.443505275079806
 10
-1501.316713841807
 20
722.5289415106817
 30
0.0
 41
1.0
 10
-1496.468271439107
 20
719.2444483960752
 30
0.0
 41
0.9799943751373794
 10
-1493.369245990985
 20
714.4496493134953
 30
0.0
 41
1.0
  0
SPLINE
  5
622
330
1F
100
AcDbEntity
  8
Default
100
AcDbSpline
210
0.0
220
0.0
230
1.0
 70
    12
 71
     2
 72
     6
 73
     3
 74
     0
 42
0.000000001
 43
0.0000000001
 40
-5.654573080352872
 40
-5.654573080352872
 40
-5.654573080352872
 40
0.0
 40
0.0
 40
0.0
 10
-1557.666091357799
 20
656.4562964553275
 30
0.0
 41
1.0
 10
-1590.718416453237
 20
592.5268177582778
 30
0.0
 41
0.9967681786255456
 10
-1613.106371853634
 20
524.1287948477751
 30
0.0
 41
1.0
  0
SPLINE
  5
623
330
1F
100
AcDbEntity
  8
Default
100
AcDbSpline
210
0.0
220
0.0
230
1.0
 70
    12
 71
     2
 72
     6
 73
     3
 74
     0
 42
0.000000001
 43
0.0000000001
 40
-1.281345128275034
 40
-1.281345128275034
 40
-1.281345128275034
 40
0.0
 40
0.0
 40
0.0
 10
-913.395441869475
 20
307.0204847127415
 30
0.0
 41
0.9999999993069707
 10
-897.9657144280631
 20
301.8173175417341
 30
0.0
 41
0.9999999996067375
 10
-882.5345926540961
 20
296.6139252894405
 30
0.0
 41
1.0
  0
SPLINE
  5
624
330
1F
100
AcDbEntity
  8
Default
100
AcDbSpline
210
0.0
220
0.0
230
1.0
 70
     8
 71
     3
 72
    14
 73
    10
 74
     0
 42
0.000000001
 43
0.0000000001
 40
0.0
 40
0.0
 40
0.0
 40
0.0
 40
1.0
 40
2.0
 40
3.0
 40
4.0
 40
5.0
 40
6.0
 40
7.0
 40
7.0
 40
7.0
 40
7.0
 10
-882.5345926540961
 20
296.6139252894405
 30
0.0
 10
-880.8444721338851
 20
296.036732317792
 30
0.0
 10
-877.7997198080695
 20
294.5053557083112
 30
0.0
 10
-874.0673925233569
 20
291.0015808411823
 30
0.0
 10
-872.0618804783766
 20
286.0929667035323
 30
0.0
 10
-873.8167808654072
 20
280.9695408260486
 30
0.0
 10
-878.3754074791248
 20
278.2802382920313
 30
0.0
 10
-883.4602832426089
 20
277.704487973507
 30
0.0
 10
-886.8176217259707
 20
278.2903742934933
 30
0.0
 10
-888.42267688398
 20
278.8110913032532
 30
0.0
  0
SPLINE
  5
625
330
1F
100
AcDbEntity
  8
Default
100
AcDbSpline
210
0.0
220
0.0
230
1.0
 70
    12
 71
     2
 72
     6
 73
     3
 74
     0
 42
0.000000001
 43
0.0000000001
 40
0.0
 40
0.0
 40
0.0
 40
1.278324852146924
 40
1.278324852146924
 40
1.278324852146924
 10
-888.42267688398
 20
278.8110913032532
 30
0.0
 41
1.0
 10
-903.9171924761049
 20
283.657358136727
 30
0.0
 41
0.9999999996076647
 10
-919.4118015644889
 20
288.503326033217
 30
0.0
 41
0.9999999993083845
  0
SPLINE
  5
626
330
1F
100
AcDbEntity
  8
Default
100
AcDbSpline
210
0.0
220
0.0
230
1.0
 70
     8
 71
     3
 72
    47
 73
    43
 74
     0
 42
0.000000001
 43
0.0000000001
 40
36.00001859489052
 40
36.00001859489052
 40
36.00001859489052
 40
36.00001859489052
 40
37.0
 40
38.0
 40
39.0
 40
40.0
 40
41.0
 40
42.0
 40
43.0
 40
44.0
 40
45.0
 40
46.0
 40
47.0
 40
48.0
 40
49.0
 40
50.0
 40
51.0
 40
52.0
 40
53.0
 40
53.0
 40
53.0
 40
54.0
 40
55.0
 40
56.0
 40
57.0
 40
58.0
 40
59.0
 40
60.0
 40
60.0
 40
60.0
 40
61.0
 40
62.0
 40
63.0
 40
64.0
 40
65.0
 40
66.0
 40
67.0
 40
68.0
 40
69.0
 40
70.0
 40
71.0
 40
72.0
 40
72.0
 40
72.0
 40
72.0
 10
-916.3058938737535
 20
297.725832693882
 30
0.0
 10
-912.8314993502499
 20
308.3576746050886
 30
0.0
 10
-906.7886593240551
 20
329.9182852835556
 30
0.0
 10
-900.5663061298553
 20
362.9254765467866
 30
0.0
 10
-897.3976298409406
 20
396.3707220639333
 30
0.0
 10
-897.5623376068687
 20
429.969798338568
 30
0.0
 10
-901.3500065417572
 20
463.3713169587804
 30
0.0
 10
-909.2092060708665
 20
496.053825901153
 30
0.0
 10
-920.824070356052
 20
527.60540032448
 30
0.0
 10
-936.4875958075026
 20
557.3627249639456
 30
0.0
 10
-955.7982714975091
 20
584.8903482182151
 30
0.0
 10
-978.7284164731588
 20
609.5193145124938
 30
0.0
 10
-1005.128922064584
 20
630.3721957537325
 30
0.0
 10
-1033.871435377831
 20
647.7774753276856
 30
0.0
 10
-1064.035464090979
 20
662.5343866904525
 30
0.0
 10
-1095.200230441693
 20
675.0453337328633
 30
0.0
 10
-1127.089595761494
 20
685.484546862677
 30
0.0
 10
-1159.449996295842
 20
694.5540677589977
 30
0.0
 10
-1181.752148373829
 20
697.2180718511167
 30
0.0
 10
-1192.945028213134
 20
697.2728375082243
 30
0.0
 10
-1203.93342581072
 20
697.3475957167263
 30
0.0
 10
-1225.911355182623
 20
697.3890385424287
 30
0.0
 10
-1258.875190328161
 20
696.8993293898988
 30
0.0
 10
-1291.823548771188
 20
695.7686108280764
 30
0.0
 10
-1324.739743227512
 20
693.9083114672357
 30
0.0
 10
-1357.596646315204
 20
691.2016092129945
 30
0.0
 10
-1390.372810576033
 20
687.6158131740407
 30
0.0
 10
-1412.106574153238
 20
684.3234859494851
 30
0.0
 10
-1422.946112047567
 20
682.5207547776411
 30
0.0
 10
-1425.170716809671
 20
682.1552533029569
 30
0.0
 10
-1429.621925083676
 20
681.4358055278002
 30
0.0
 10
-1436.32056068534
 20
680.4973784585795
 30
0.0
 10
-1443.048133065079
 20
679.7926915112772
 30
0.0
 10
-1449.809777282858
 20
679.4659422435163
 30
0.0
 10
-1456.569159886794
 20
679.741577080559
 30
0.0
 10
-1463.280299662488
 20
680.9414782039323
 30
0.0
 10
-1469.336230753867
 20
684.1160670061783
 30
0.0
 10
-1474.247999486265
 20
688.8161660265318
 30
0.0
 10
-1479.122709866962
 20
693.4927101764599
 30
0.0
 10
-1483.597557932372
 20
698.5789900638153
 30
0.0
 10
-1487.591997510751
 20
704.0413451129277
 30
0.0
 10
-1492.14544061856
 20
712.5561828108211
 30
0.0
 10
-1493.369245990985
 20
714.4496493134953
 30
0.0
  0
SPLINE
  5
627
330
1F
100
AcDbEntity
  8
Default
100
AcDbSpline
210
0.0
220
0.0
230
1.0
 70
     8
 71
     3
 72
    12
 73
     8
 74
     0
 42
0.000000001
 43
0.0000000001
 40
0.0
 40
0.0
 40
0.0
 40
0.0
 40
1.918305221504867
 40
3.868777778011241
 40
7.624449324857683
 40
11.42846767657462
 40
15.35241906764609
 40
15.35241906764609
 40
15.35241906764609
 40
15.35241906764609
 10
-1394.822329961238
 20
453.2045639333153
 30
0.0
 10
-1389.81669010017
 20
468.6539595497449
 30
0.0
 10
-1376.677577445597
 20
498.8330695963995
 30
0.0
 10
-1339.746235343404
 20
552.157107355657
 30
0.0
 10
-1274.873990778
 20
602.6515122663372
 30
0.0
 10
-1178.887220748767
 20
627.6681667965024
 30
0.0
 10
-1112.865476337949
 20
618.6476794629402
 30
0.0
 10
-1081.283415979675
 20
608.3854757343378
 30
0.0
  0
SPLINE
  5
628
330
1F
100
AcDbEntity
  8
Default
100
AcDbSpline
210
0.0
220
0.0
230
1.0
 70
     8
 71
     3
 72
    12
 73
     8
 74
     0
 42
0.000000001
 43
0.0000000001
 40
-14.89017236839833
 40
-14.89017236839833
 40
-14.89017236839833
 40
-14.89017236839833
 40
-11.21816917573749
 40
-7.516682162771167
 40
-3.774519558109396
 40
-1.88935509827327
 40
0.0
 40
0.0
 40
0.0
 40
0.0
 10
-1081.283415979675
 20
608.3854757343378
 30
0.0
 10
-1051.708883217198
 20
598.7848891021291
 30
0.0
 10
-996.3314770067217
 20
567.247072815912
 30
0.0
 10
-938.1716360086272
 20
490.875871921572
 30
0.0
 10
-917.6002165209087
 20
413.0678013428818
 30
0.0
 10
-919.4603522471624
 20
349.1726660530383
 30
0.0
 10
-926.413080997408
 20
317.8275326322674
 30
0.0
 10
-931.3542361528961
 20
302.6146505788676
 30
0.0
  0
SPLINE
  5
629
330
1F
100
AcDbEntity
  8
Default
100
AcDbSpline
210
0.0
220
0.0
230
1.0
 70
    12
 71
     2
 72
     6
 73
     3
 74
     0
 42
0.000000001
 43
0.0000000001
 40
0.0
 40
0.0
 40
0.0
 40
0.0853474550214741
 40
0.0853474550214741
 40
0.0853474550214741
 10
-1326.974338203541
 20
61.15823828943661
 30
0.0
 41
1.0
 10
-1327.380764535591
 20
60.1529375555254
 30
0.0
 41
0.9993970637774639
 10
-1327.716444090418
 20
59.1218550343616
 30
0.0
 41
1.0
  0
SPLINE
  5
62A
330
1F
100
AcDbEntity
  8
Default
100
AcDbSpline
210
0.0
220
0.0
230
1.0
 70
     8
 71
     3
 72
    12
 73
     8
 74
     0
 42
0.000000001
 43
0.0000000001
 40
0.0
 40
0.0
 40
0.0
 40
0.0
 40
0.1510110321465192
 40
0.3037660471064116
 40
0.5900965017365678
 40
0.8249401141264362
 40
1.014583801502342
 40
1.014583801502342
 40
1.014583801502342
 40
1.014583801502342
 10
-1307.213660957747
 20
55.67359474413575
 30
0.0
 10
-1307.488295905226
 20
54.42426085192841
 30
0.0
 10
-1308.190886338997
 20
51.94711688259895
 30
0.0
 10
-1310.148596144893
 20
47.33665585593001
 30
0.0
 10
-1313.321146763436
 20
42.5414969533075
 30
0.0
 10
-1318.152743283165
 20
38.74712141327893
 30
0.0
 10
-1321.893526086188
 20
38.23343426706862
 30
0.0
 10
-1323.438197804951
 20
38.7688053908675
 30
0.0
  0
SPLINE
  5
62B
330
1F
100
AcDbEntity
  8
Default
100
AcDbSpline
210
0.0
220
0.0
230
1.0
 70
     8
 71
     3
 72
    12
 73
     8
 74
     0
 42
0.000000001
 43
0.0000000001
 40
-1.014583801502342
 40
-1.014583801502342
 40
-1.014583801502342
 40
-1.014583801502342
 40
-0.8249401141264362
 40
-0.5900965017365678
 40
-0.3037660471064116
 40
-0.1510110321465192
 40
0.0
 40
0.0
 40
0.0
 40
0.0
 10
-1323.438197804951
 20
38.7688053908675
 30
0.0
 10
-1325.002546727237
 20
39.24361630934038
 30
0.0
 10
-1327.726965858314
 20
41.85797490406247
 30
0.0
 10
-1329.405531568649
 20
47.76763037831057
 30
0.0
 10
-1329.153655249205
 20
53.5117738869917
 30
0.0
 10
-1328.027514754484
 20
58.39242816164397
 30
0.0
 10
-1327.139893662513
 20
60.80945202571729
 30
0.0
 10
-1326.627737965244
 20
61.98161074805409
 30
0.0
  0
SPLINE
  5
62C
330
1F
100
AcDbEntity
  8
Default
100
AcDbSpline
210
0.0
220
0.0
230
1.0
 70
    12
 71
     2
 72
     6
 73
     3
 74
     0
 42
0.000000001
 43
0.0000000001
 40
0.0
 40
0.0
 40
0.0
 40
0.1369528492222414
 40
0.1369528492222414
 40
0.1369528492222414
 10
-1305.062803377435
 20
65.10627181223288
 30
0.0
 41
1.0
 10
-1305.63468369453
 20
63.46370746576446
 30
0.0
 41
0.9999966913238282
 10
-1306.154178467467
 20
61.80308284633383
 30
0.0
 41
0.9999959461296658
  0
ARC
  5
62D
330
1F
100
AcDbEntity
  8
Default
100
AcDbCircle
 10
-1294.141931539531
 20
57.68047156920943
 30
0.0
 40
12.7
100
AcDbArc
 50
161.0577447748723
 51
173.512847826468
  0
SPLINE
  5
62E
330
1F
100
AcDbEntity
  8
Default
100
AcDbSpline
210
0.0
220
0.0
230
1.0
 70
     8
 71
     3
 72
    14
 73
    10
 74
     0
 42
0.000000001
 43
0.0000000001
 40
0.2772630823298201
 40
0.2772630823298201
 40
0.2772630823298201
 40
0.2772630823298201
 40
1.0
 40
2.0
 40
3.0
 40
4.0
 40
5.0
 40
6.0
 40
7.0
 40
7.0
 40
7.0
 40
7.0
 10
-1306.760616170434
 20
59.11532284576736
 30
0.0
 10
-1306.877039870481
 20
58.09144394037071
 30
0.0
 10
-1307.263656975401
 20
55.66317236437038
 30
0.0
 10
-1308.351235465643
 20
51.92622777254882
 30
0.0
 10
-1310.103287807595
 20
48.01467850570316
 30
0.0
 10
-1312.391751755313
 20
44.3850635535054
 30
0.0
 10
-1315.302238968592
 20
41.2213763017308
 30
0.0
 10
-1318.989935123912
 20
38.92202794259788
 30
0.0
 10
-1321.954036335495
 20
38.6774204798918
 30
0.0
 10
-1323.319358914256
 20
39.13459470366138
 30
0.0
  0
SPLINE
  5
62F
330
1F
100
AcDbEntity
  8
Default
100
AcDbSpline
210
0.0
220
0.0
230
1.0
 70
     8
 71
     3
 72
    14
 73
    10
 74
     0
 42
0.000000001
 43
0.0000000001
 40
-7.0
 40
-7.0
 40
-7.0
 40
-7.0
 40
-6.0
 40
-5.0
 40
-4.0
 40
-3.0
 40
-2.0
 40
-1.0
 40
-0.2482205602640466
 40
-0.2482205602640466
 40
-0.2482205602640466
 40
-0.2482205602640466
 10
-1323.319358914256
 20
39.13459470366138
 30
0.0
 10
-1324.692648349731
 20
39.5672494636571
 30
0.0
 10
-1326.946879943773
 20
41.50739603640903
 30
0.0
 10
-1328.578765748136
 20
45.53518134996841
 30
0.0
 10
-1329.073830656132
 20
49.80539956249288
 30
0.0
 10
-1328.791802740447
 20
54.08694510072945
 30
0.0
 10
-1327.910091887454
 20
58.28128545978649
 30
0.0
 10
-1326.579396169506
 20
61.98286655105704
 30
0.0
 10
-1325.441260003844
 20
64.20942384169496
 30
0.0
 10
-1324.909896224612
 20
65.14032527469197
 30
0.0
  0
ARC
  5
630
330
1F
100
AcDbEntity
  8
Default
100
AcDbCircle
 10
-1335.939542651011
 20
71.43610955535525
 30
0.0
 40
12.7
100
AcDbArc
 50
330.2820321218404
 51
343.022420192049
  0
SPLINE
  5
631
330
1F
100
AcDbEntity
  8
Default
100
AcDbSpline
210
0.0
220
0.0
230
1.0
 70
    12
 71
     2
 72
     6
 73
     3
 74
     0
 42
0.000000001
 43
0.0000000001
 40
-0.1297405451143296
 40
-0.1297405451143296
 40
-0.1297405451143296
 40
0.0
 40
0.0
 40
0.0
 10
-1323.793020213129
 20
67.72774163051457
 30
0.0
 41
0.9999960316975588
 10
-1323.311894398757
 20
69.30363852590227
 30
0.0
 41
0.999996865512317
 10
-1322.835551423132
 20
70.8809877084646
 30
0.0
 41
1.0
  0
SPLINE
  5
632
330
1F
100
AcDbEntity
  8
Default
100
AcDbSpline
210
0.0
220
0.0
230
1.0
 70
     8
 71
     3
 72
    22
 73
    18
 74
     0
 42
0.000000001
 43
0.0000000001
 40
0.0
 40
0.0
 40
0.0
 40
0.0
 40
0.2588469591229587
 40
0.6477254461891114
 40
1.024641027840087
 40
1.817983982162573
 40
2.582167143679937
 40
4.062052734317923
 40
7.850412104674
 40
9.497260537102542
 40
10.543391206404
 40
10.8432833113025
 40
12.15829953678302
 40
13.34949093133962
 40
14.77372714428499
 40
17.25709974516987
 40
21.82793658798906
 40
21.82793658798906
 40
21.82793658798906
 40
21.82793658798906
 10
-1589.31231823061
 20
309.7214173132301
 30
0.0
 10
-1587.159276670561
 20
309.2356227098471
 30
0.0
 10
-1582.282695854877
 20
306.6166663368317
 30
0.0
 10
-1575.565011635054
 20
301.1085656420793
 30
0.0
 10
-1565.996111970906
 20
292.0086585465683
 30
0.0
 10
-1554.723574521875
 20
280.1207552442619
 30
0.0
 10
-1536.211731316934
 20
262.2632003364046
 30
0.0
 10
-1498.885501566331
 20
227.3986318114912
 30
0.0
 10
-1454.28326969075
 20
189.4298470276239
 30
0.0
 10
-1411.742885493938
 20
154.7805094606057
 30
0.0
 10
-1391.922857714113
 20
138.9899020328999
 30
0.0
 10
-1374.123666206687
 20
125.1573195372998
 30
0.0
 10
-1353.218013722439
 20
113.5970369076254
 30
0.0
 10
-1322.149192427926
 20
101.6634608520097
 30
0.0
 10
-1280.910473977283
 20
88.74806767131572
 30
0.0
 10
-1210.179123611027
 20
75.36860089501141
 30
0.0
 10
-1149.607907153962
 20
79.55671497119038
 30
0.0
 10
-1112.428681694781
 20
90.60909126068507
 30
0.0
  0
SPLINE
  5
633
330
1F
100
AcDbEntity
  8
Default
100
AcDbSpline
210
0.0
220
0.0
230
1.0
 70
     8
 71
     3
 72
    19
 73
    15
 74
     0
 42
0.000000001
 43
0.0000000001
 40
-12.0
 40
-12.0
 40
-12.0
 40
-12.0
 40
-11.0
 40
-10.0
 40
-9.0
 40
-8.0
 40
-7.0
 40
-6.0
 40
-5.0
 40
-4.0
 40
-3.0
 40
-2.0
 40
-1.0
 40
0.0
 40
0.0
 40
0.0
 40
0.0
 10
-1639.13800098883
 20
297.9068948380149
 30
0.0
 10
-1643.251877025586
 20
302.6030494323884
 30
0.0
 10
-1643.158240703456
 20
316.0541419062403
 30
0.0
 10
-1641.922276305138
 20
334.7002241388524
 30
0.0
 10
-1639.35631991653
 20
353.6180536445451
 30
0.0
 10
-1636.510020037062
 20
372.3773334338478
 30
0.0
 10
-1633.093397848409
 20
391.0742527949409
 30
0.0
 10
-1629.241666167287
 20
409.6766761238866
 30
0.0
 10
-1624.971656608302
 20
428.1900039218356
 30
0.0
 10
-1620.329429572064
 20
446.6125772896027
 30
0.0
 10
-1615.350714201183
 20
464.9471116762705
 30
0.0
 10
-1610.072139243518
 20
483.1973709670039
 30
0.0
 10
-1604.529506015202
 20
501.3690440739067
 30
0.0
 10
-1600.681941902042
 20
513.4358680385414
 30
0.0
 10
-1598.725847192642
 20
519.4587541158028
 30
0.0
  0
SPLINE
  5
634
330
1F
100
AcDbEntity
  8
Default
100
AcDbSpline
210
0.0
220
0.0
230
1.0
 70
    12
 71
     2
 72
     6
 73
     3
 74
     0
 42
0.000000001
 43
0.0000000001
 40
-6.233889429224446
 40
-6.233889429224446
 40
-6.233889429224446
 40
0.0
 40
0.0
 40
0.0
 10
-1611.473083183007
 20
523.6005821616013
 30
0.0
 41
1.0
 10
-1636.131837580287
 20
448.1856863505494
 30
0.0
 41
0.996730330589404
 10
-1648.321537818444
 20
369.7841239356704
 30
0.0
 41
1.0
  0
SPLINE
  5
635
330
1F
100
AcDbEntity
  8
Default
100
AcDbSpline
210
0.0
220
0.0
230
1.0
 70
     8
 71
     3
 72
    12
 73
     8
 74
     0
 42
0.000000001
 43
0.0000000001
 40
0.0
 40
0.0
 40
0.0
 40
0.0
 40
0.8495817757806477
 40
1.391422022197968
 40
2.191064820612614
 40
2.689385262996221
 40
3.111933853859593
 40
3.111933853859593
 40
3.111933853859593
 40
3.111933853859593
 10
-1648.321537818444
 20
369.7841239356704
 30
0.0
 10
-1649.307952369515
 20
362.6322749911537
 30
0.0
 10
-1651.200508423427
 20
351.0572012672792
 30
0.0
 10
-1653.169517863518
 20
332.5511727701635
 30
0.0
 10
-1653.950014917231
 20
317.0325315363241
 30
0.0
 10
-1650.553424402174
 20
302.4290747359106
 30
0.0
 10
-1642.970793821458
 20
297.943540754211
 30
0.0
 10
-1639.282591611641
 20
297.9136308065292
 30
0.0
  0
SPLINE
  5
636
330
1F
100
AcDbEntity
  8
Default
100
AcDbSpline
210
0.0
220
0.0
230
1.0
 70
    12
 71
     2
 72
     6
 73
     3
 74
     0
 42
0.000000001
 43
0.0000000001
 40
0.0
 40
0.0
 40
0.0
 40
0.443505275079806
 40
0.443505275079806
 40
0.443505275079806
 10
-1639.282591611641
 20
297.9136308065292
 30
0.0
 41
1.0
 10
-1633.429542697587
 20
297.7209986132573
 30
0.0
 41
0.9799943751373794
 10
-1628.10406625561
 20
299.7785111007923
 30
0.0
 41
1.0
  0
SPLINE
  5
637
330
1F
100
AcDbEntity
  8
Default
100
AcDbSpline
210
0.0
220
0.0
230
1.0
 70
    12
 71
     2
 72
     6
 73
     3
 74
     0
 42
0.000000001
 43
0.0000000001
 40
-5.654573080352872
 40
-5.654573080352872
 40
-5.654573080352872
 40
0.0
 40
0.0
 40
0.0
 10
-1646.033669301035
 20
384.4888565993758
 30
0.0
 41
1.0
 10
-1635.196757241979
 20
455.6365605518953
 30
0.0
 41
0.9967681786255456
 10
-1613.105644477453
 20
524.1310334814743
 30
0.0
 41
1.0
  0
SPLINE
  5
638
330
1F
100
AcDbEntity
  8
Default
100
AcDbSpline
210
0.0
220
0.0
230
1.0
 70
    12
 71
     2
 72
     6
 73
     3
 74
     0
 42
0.000000001
 43
0.0000000001
 40
-1.102413928352738
 40
-1.102413928352738
 40
-1.102413928352738
 40
0.0
 40
0.0
 40
0.0
 10
-1313.967521107049
 20
99.26991814137313
 30
0.0
 41
0.9999999993925147
 10
-1318.148858853904
 20
85.898741683541
 30
0.0
 41
0.9999999996616539
 10
-1322.330668467323
 20
72.52663230636944
 30
0.0
 41
1.0
  0
SPLINE
  5
639
330
1F
100
AcDbEntity
  8
Default
100
AcDbSpline
210
0.0
220
0.0
230
1.0
 70
     8
 71
     3
 72
    14
 73
    10
 74
     0
 42
0.000000001
 43
0.0000000001
 40
0.0
 40
0.0
 40
0.0
 40
0.0
 40
1.0
 40
2.0
 40
3.0
 40
4.0
 40
5.0
 40
6.0
 40
7.0
 40
7.0
 40
7.0
 40
7.0
 10
-1322.330668467323
 20
72.52663230636944
 30
0.0
 10
-1322.857137460603
 20
70.82003056651501
 30
0.0
 10
-1323.407888272747
 20
67.45665360450681
 30
0.0
 10
-1322.767081795453
 20
62.37767020835582
 30
0.0
 10
-1319.9747399426
 20
57.86996588223814
 30
0.0
 10
-1314.798296771556
 20
56.27823594678267
 30
0.0
 10
-1309.943111824265
 20
58.3855099798443
 30
0.0
 10
-1306.488505048551
 20
62.16084334055449
 30
0.0
 10
-1304.989102990718
 20
65.2213625678711
 30
0.0
 10
-1304.46694414988
 20
66.8259492465645
 30
0.0
  0
SPLINE
  5
63A
330
1F
100
AcDbEntity
  8
Default
100
AcDbSpline
210
0.0
220
0.0
230
1.0
 70
    12
 71
     2
 72
     6
 73
     3
 74
     0
 42
0.000000001
 43
0.0000000001
 40
0.0
 40
0.0
 40
0.0
 40
1.112498698414412
 40
1.112498698414412
 40
1.112498698414412
 10
-1304.46694414988
 20
66.8259492465645
 30
0.0
 41
1.0
 10
-1299.953039476164
 20
80.21421925262144
 30
0.0
 41
0.9999999996585591
 10
-1295.438910009924
 20
93.60241346694596
 30
0.0
 41
0.9999999993875963
  0
SPLINE
  5
63B
330
1F
100
AcDbEntity
  8
Default
100
AcDbSpline
210
0.0
220
0.0
230
1.0
 70
     8
 71
     3
 72
    47
 73
    43
 74
     0
 42
0.000000001
 43
0.0000000001
 40
36.00001859489052
 40
36.00001859489052
 40
36.00001859489052
 40
36.00001859489052
 40
37.0
 40
38.0
 40
39.0
 40
40.0
 40
41.0
 40
42.0
 40
43.0
 40
44.0
 40
45.0
 40
46.0
 40
47.0
 40
48.0
 40
49.0
 40
50.0
 40
51.0
 40
52.0
 40
53.0
 40
53.0
 40
53.0
 40
54.0
 40
55.0
 40
56.0
 40
57.0
 40
58.0
 40
59.0
 40
60.0
 40
60.0
 40
60.0
 40
61.0
 40
62.0
 40
63.0
 40
64.0
 40
65.0
 40
66.0
 40
67.0
 40
68.0
 40
69.0
 40
70.0
 40
71.0
 40
72.0
 40
72.0
 40
72.0
 40
72.0
 10
-916.3058938737535
 20
297.725832693882
 30
0.0
 10
-919.7442895391882
 20
287.0822940446469
 30
0.0
 10
-927.5285382509299
 20
266.0875013473052
 30
0.0
 10
-941.8956890159432
 20
235.7267152366614
 30
0.0
 10
-958.9907981228178
 20
206.8064420403342
 30
0.0
 10
-978.8730910294395
 20
179.7210311346053
 30
0.0
 10
-1001.570299615963
 20
154.9249708734158
 30
0.0
 10
-1027.13882236144
 20
133.1037872982597
 30
0.0
 10
-1055.080995088154
 20
114.4050733247127
 30
0.0
 10
-1085.243969940959
 20
99.53768124352322
 30
0.0
 10
-1117.04696572656
 20
88.61789659845669
 30
0.0
 10
-1150.074385862328
 20
82.17064536211273
 30
0.0
 10
-1183.689859607288
 20
80.81813789597317
 30
0.0
 10
-1217.17360798435
 20
83.63139636814464
 30
0.0
 10
-1250.250714700522
 20
89.42277551849622
 30
0.0
 10
-1282.817290467715
 20
97.61939679755109
 30
0.0
 10
-1314.752344474508
 20
107.9179946075758
 30
0.0
 10
-1346.263389079792
 20
119.6015642639812
 30
0.0
 10
-1365.872071439412
 20
130.5552157661971
 30
0.0
 10
-1374.959491890987
 20
137.0899191191142
 30
0.0
 10
-1383.893234060827
 20
143.4882565121538
 30
0.0
 10
-1401.698111905631
 20
156.3730313225958
 30
0.0
 10
-1428.078570920375
 20
176.1448705068409
 30
0.0
 10
-1454.069733142409
 20
196.4262002192679
 30
0.0
 10
-1479.606037318574
 20
217.2788676798314
 30
0.0
 10
-1504.596870631658
 20
238.7814388731743
 30
0.0
 10
-1529.005666499667
 20
260.9477547862809
 30
0.0
 10
-1544.653469197039
 20
276.3860891694821
 30
0.0
 10
-1552.363220768065
 20
284.2158498397452
 30
0.0
 10
-1553.948127449864
 20
285.8191366155788
 30
0.0
 10
-1557.126349797005
 20
289.0175366705878
 30
0.0
 10
-1561.994066246236
 20
293.7140993347082
 30
0.0
 10
-1567.022582037225
 20
298.2385708793308
 30
0.0
 10
-1572.300808718538
 20
302.4773113423079
 30
0.0
 10
-1577.931278208836
 20
306.2273834840945
 30
0.0
 10
-1584.065988523527
 20
309.2013520699426
 30
0.0
 10
-1590.831316173268
 20
310.1926427631848
 30
0.0
 10
-1597.567669438696
 20
309.2772480040489
 30
0.0
 10
-1604.260196662358
 20
308.3591271827828
 30
0.0
 10
-1610.87006510134
 20
306.8744900148621
 30
0.0
 10
-1617.312326343906
 20
304.8032246261656
 30
0.0
 10
-1626.001035225529
 20
300.591022930148
 30
0.0
 10
-1628.10406625561
 20
299.7785111007923
 30
0.0
  0
SPLINE
  5
63C
330
1F
100
AcDbEntity
  8
Default
100
AcDbSpline
210
0.0
220
0.0
230
1.0
 70
     8
 71
     3
 72
    12
 73
     8
 74
     0
 42
0.000000001
 43
0.0000000001
 40
0.0
 40
0.0
 40
0.0
 40
0.0
 40
1.918305221504867
 40
3.868777778011241
 40
7.624449324857683
 40
11.42846767657462
 40
15.35241906764609
 40
15.35241906764609
 40
15.35241906764609
 40
15.35241906764609
 10
-1394.821928023946
 20
453.2058009691022
 30
0.0
 10
-1399.853207208791
 20
437.7647360739659
 30
0.0
 10
-1406.962277592969
 20
405.6263465245432
 30
0.0
 10
-1408.427277194799
 20
340.7785955335754
 30
0.0
 10
-1385.624395407921
 20
261.7968152013302
 30
0.0
 10
-1322.673887813638
 20
185.138308705647
 30
0.0
 10
-1263.959065163848
 20
153.629428560741
 30
0.0
 10
-1232.376669608936
 20
143.3682564613144
 30
0.0
  0
SPLINE
  5
63D
330
1F
100
AcDbEntity
  8
Default
100
AcDbSpline
210
0.0
220
0.0
230
1.0
 70
     8
 71
     3
 72
    12
 73
     8
 74
     0
 42
0.000000001
 43
0.0000000001
 40
-14.89017236839833
 40
-14.89017236839833
 40
-14.89017236839833
 40
-14.89017236839833
 40
-11.21816917573749
 40
-7.516682162771167
 40
-3.774519558109396
 40
-1.88935509827327
 40
0.0
 40
0.0
 40
0.0
 40
0.0
 10
-1232.376669608936
 20
143.3682564613144
 30
0.0
 10
-1202.807286767625
 20
133.7518200015156
 30
0.0
 10
-1139.468560736397
 20
126.7164266618125
 30
0.0
 10
-1047.526395393235
 20
154.3165292518018
 30
0.0
 10
-985.1493310337694
 20
205.1730036558848
 30
0.0
 10
-949.09759423155
 20
257.9586143104088
 30
0.0
 10
-936.2982627919091
 20
287.4040713613469
 30
0.0
 10
-931.3538335686891
 20
302.6158896056537
 30
0.0
  0
SPLINE
  5
63E
330
1F
100
AcDbEntity
  8
Default
100
AcDbSpline
210
0.0
220
0.0
230
1.0
 70
    12
 71
     2
 72
     6
 73
     3
 74
     0
 42
0.000000001
 43
0.0000000001
 40
0.0
 40
0.0
 40
0.0
 40
0.0853474550214741
 40
0.0853474550214741
 40
0.0853474550214741
 10
-1109.522894512697
 20
730.4049666717425
 30
0.0
 41
1.0
 10
-1109.260799376775
 20
731.4571634540567
 30
0.0
 41
0.9993970637774639
 10
-1108.926314741457
 20
732.4886342281042
 30
0.0
 41
1.0
  0
SPLINE
  5
63F
330
1F
100
AcDbEntity
  8
Default
100
AcDbSpline
210
0.0
220
0.0
230
1.0
 70
     8
 71
     3
 72
    12
 73
     8
 74
     0
 42
0.000000001
 43
0.0000000001
 40
0.0
 40
0.0
 40
0.0
 40
0.0
 40
0.1510110321465192
 40
0.3037660471064116
 40
0.5900965017365678
 40
0.8249401141264362
 40
1.014583801502342
 40
1.014583801502342
 40
1.014583801502342
 40
1.014583801502342
 10
-1090.312378210481
 20
723.2271018475902
 30
0.0
 10
-1089.800222513213
 20
724.399260569927
 30
0.0
 10
-1088.912601421242
 20
726.8162844340004
 30
0.0
 10
-1087.786460926521
 20
731.6969387086526
 30
0.0
 10
-1087.534584607076
 20
737.4410822173338
 30
0.0
 10
-1089.213150317412
 20
743.3507376915818
 30
0.0
 10
-1091.937569448488
 20
745.9650962863039
 30
0.0
 10
-1093.501918370771
 20
746.4399072047757
 30
0.0
  0
SPLINE
  5
640
330
1F
100
AcDbEntity
  8
Default
100
AcDbSpline
210
0.0
220
0.0
230
1.0
 70
     8
 71
     3
 72
    12
 73
     8
 74
     0
 42
0.000000001
 43
0.0000000001
 40
-1.014583801502342
 40
-1.014583801502342
 40
-1.014583801502342
 40
-1.014583801502342
 40
-0.8249401141264362
 40
-0.5900965017365678
 40
-0.3037660471064116
 40
-0.1510110321465192
 40
0.0
 40
0.0
 40
0.0
 40
0.0
 10
-1093.501918370771
 20
746.4399072047757
 30
0.0
 10
-1095.046590089538
 20
746.9752783285757
 30
0.0
 10
-1098.787372892561
 20
746.4615911823654
 30
0.0
 10
-1103.61896941229
 20
742.6672156423368
 30
0.0
 10
-1106.791520030833
 20
737.8720567397142
 30
0.0
 10
-1108.749229836728
 20
733.2615957130453
 30
0.0
 10
-1109.4518202705
 20
730.7844517437159
 30
0.0
 10
-1109.726455217979
 20
729.5351178515086
 30
0.0
  0
SPLINE
  5
641
330
1F
100
AcDbEntity
  8
Default
100
AcDbSpline
210
0.0
220
0.0
230
1.0
 70
    12
 71
     2
 72
     6
 73
     3
 74
     0
 42
0.000000001
 43
0.0000000001
 40
0.0
 40
0.0
 40
0.0
 40
0.1369528492222414
 40
0.1369528492222414
 40
0.1369528492222414
 10
-1094.116686345794
 20
714.3316634315602
 30
0.0
 41
1.0
 10
-1093.613872142277
 20
715.9966687186724
 30
0.0
 41
0.9999966913238282
 10
-1093.058061581177
 20
717.6454936232446
 30
0.0
 41
0.9999959461296658
  0
ARC
  5
642
330
1F
100
AcDbEntity
  8
Default
100
AcDbCircle
 10
-1080.91673956622
 20
713.9201346165036
 30
0.0
 40
12.7
100
AcDbArc
 50
150.487152173532
 51
162.9422552251277
  0
SPLINE
  5
643
330
1F
100
AcDbEntity
  8
Default
100
AcDbSpline
210
0.0
220
0.0
230
1.0
 70
     8
 71
     3
 72
    14
 73
    10
 74
     0
 42
0.000000001
 43
0.0000000001
 40
0.2772630823298201
 40
0.2772630823298201
 40
0.2772630823298201
 40
0.2772630823298201
 40
1.0
 40
2.0
 40
3.0
 40
4.0
 40
5.0
 40
6.0
 40
7.0
 40
7.0
 40
7.0
 40
7.0
 10
-1091.968854298872
 20
720.1763922787419
 30
0.0
 10
-1091.461222130032
 20
721.0731598472948
 30
0.0
 10
-1090.346699717295
 20
723.264920651793
 30
0.0
 10
-1089.030048278911
 20
726.9274349308887
 30
0.0
 10
-1088.148337425917
 20
731.1217752899458
 30
0.0
 10
-1087.866309510233
 20
735.4033208281824
 30
0.0
 10
-1088.361374418228
 20
739.6735390407069
 30
0.0
 10
-1089.993260222591
 20
743.7013243542662
 30
0.0
 10
-1092.24749181663
 20
745.641470927017
 30
0.0
 10
-1093.620781252112
 20
746.0741256870151
 30
0.0
  0
SPLINE
  5
644
330
1F
100
AcDbEntity
  8
Default
100
AcDbSpline
210
0.0
220
0.0
230
1.0
 70
     8
 71
     3
 72
    14
 73
    10
 74
     0
 42
0.000000001
 43
0.0000000001
 40
-7.0
 40
-7.0
 40
-7.0
 40
-7.0
 40
-6.0
 40
-5.0
 40
-4.0
 40
-3.0
 40
-2.0
 40
-1.0
 40
-0.2482205602640466
 40
-0.2482205602640466
 40
-0.2482205602640466
 40
-0.2482205602640466
 10
-1093.620781252112
 20
746.0741256870151
 30
0.0
 10
-1094.986103830866
 20
746.5312999107823
 30
0.0
 10
-1097.950205042453
 20
746.2866924480774
 30
0.0
 10
-1101.637901197772
 20
743.9873440889446
 30
0.0
 10
-1104.548388411052
 20
740.8236568371698
 30
0.0
 10
-1106.836852358769
 20
737.1940418849722
 30
0.0
 10
-1108.588904700721
 20
733.2824926181265
 30
0.0
 10
-1109.688084026173
 20
729.5056872909336
 30
0.0
 10
-1110.076050065061
 20
727.0353849505809
 30
0.0
 10
-1110.19333787112
 20
725.969942078163
 30
0.0
  0
ARC
  5
645
330
1F
100
AcDbEntity
  8
Default
100
AcDbCircle
 10
-1122.817078423813
 20
727.359609109626
 30
0.0
 40
12.7
100
AcDbArc
 50
340.9775798079509
 51
353.7179678781595
  0
SPLINE
  5
646
330
1F
100
AcDbEntity
  8
Default
100
AcDbSpline
210
0.0
220
0.0
230
1.0
 70
    12
 71
     2
 72
     6
 73
     3
 74
     0
 42
0.000000001
 43
0.0000000001
 40
-0.1297405451143296
 40
-0.1297405451143296
 40
-0.1297405451143296
 40
0.0
 40
0.0
 40
0.0
 10
-1110.810611372714
 20
723.2201950265902
 30
0.0
 41
0.9999960316975588
 10
-1111.347661366697
 20
721.6624689986538
 30
0.0
 41
0.999996865512317
 10
-1111.889434391491
 20
720.1063793277918
 30
0.0
 41
1.0
  0
SPLINE
  5
647
330
1F
100
AcDbEntity
  8
Default
100
AcDbSpline
210
0.0
220
0.0
230
1.0
 70
    12
 71
     2
 72
     6
 73
     3
 74
     0
 42
0.000000001
 43
0.0000000001
 40
-1.102413928352738
 40
-1.102413928352738
 40
-1.102413928352738
 40
0.0
 40
0.0
 40
0.0
 10
-1121.401641795968
 20
691.926754718765
 30
0.0
 41
0.9999999993925147
 10
-1116.925034764682
 20
705.2019923703926
 30
0.0
 41
0.9999999996616539
 10
-1112.448261125234
 20
718.4782621258273
 30
0.0
 41
1.0
  0
SPLINE
  5
648
330
1F
100
AcDbEntity
  8
Default
100
AcDbSpline
210
0.0
220
0.0
230
1.0
 70
     8
 71
     3
 72
    14
 73
    10
 74
     0
 42
0.000000001
 43
0.0000000001
 40
0.0
 40
0.0
 40
0.0
 40
0.0
 40
1.0
 40
2.0
 40
3.0
 40
4.0
 40
5.0
 40
6.0
 40
7.0
 40
7.0
 40
7.0
 40
7.0
 10
-1112.448261125234
 20
718.4782621258273
 30
0.0
 10
-1111.871068153586
 20
720.1683826460384
 30
0.0
 10
-1110.339691544108
 20
723.2131349718583
 30
0.0
 10
-1106.835916676976
 20
726.9454622565667
 30
0.0
 10
-1101.927302539326
 20
728.9509743015469
 30
0.0
 10
-1096.803876661843
 20
727.1960739145161
 30
0.0
 10
-1094.114574127823
 20
722.6374473007941
 30
0.0
 10
-1093.538823809301
 20
717.5525715373146
 30
0.0
 10
-1094.124710129287
 20
714.1952330539529
 30
0.0
 10
-1094.645427139047
 20
712.5901778959435
 30
0.0
  0
SPLINE
  5
649
330
1F
100
AcDbEntity
  8
Default
100
AcDbSpline
210
0.0
220
0.0
230
1.0
 70
    12
 71
     2
 72
     6
 73
     3
 74
     0
 42
0.000000001
 43
0.0000000001
 40
0.0
 40
0.0
 40
0.0
 40
1.112498698414412
 40
1.112498698414412
 40
1.112498698414412
 10
-1094.645427139047
 20
712.5901778959435
 30
0.0
 41
1.0
 10
-1098.863029210292
 20
699.1056333382982
 30
0.0
 41
0.9999999996585591
 10
-1103.080404871302
 20
685.621017967723
 30
0.0
 41
0.9999999993875963
  0
SPLINE
  5
64A
330
1F
100
AcDbEntity
  8
Default
100
AcDbSpline
210
0.0
220
0.0
230
1.0
 70
     8
 71
     3
 72
    12
 73
     8
 74
     0
 42
0.000000001
 43
0.0000000001
 40
0.0
 40
0.0
 40
0.0
 40
0.0
 40
0.1510110321465192
 40
0.3037660471064116
 40
0.5900965017365678
 40
0.8249401141264362
 40
1.014583801502342
 40
1.014583801502342
 40
1.014583801502342
 40
1.014583801502342
 10
-532.2948458566836
 20
-750.0054805607974
 30
0.0
 10
-531.445539878134
 20
-749.0489561840116
 30
0.0
 10
-529.8544606048053
 20
-747.0245198900286
 30
0.0
 10
-527.2752322344985
 20
-742.7307383892564
 30
0.0
 10
-525.2606456572774
 20
-737.3455673379766
 30
0.0
 10
-525.0308725416803
 20
-731.2064456594679
 30
0.0
 10
-526.8140678742502
 20
-727.8781510707223
 30
0.0
 10
-528.1551274676258
 20
-726.9431686505872
 30
0.0
  0
SPLINE
  5
64B
330
1F
100
AcDbEntity
  8
Default
100
AcDbSpline
210
0.0
220
0.0
230
1.0
 70
     8
 71
     3
 72
    12
 73
     8
 74
     0
 42
0.000000001
 43
0.0000000001
 40
-1.014583801502342
 40
-1.014583801502342
 40
-1.014583801502342
 40
-1.014583801502342
 40
-0.8249401141264362
 40
-0.5900965017365678
 40
-0.3037660471064116
 40
-0.1510110321465192
 40
0.0
 40
0.0
 40
0.0
 40
0.0
 10
-528.1551274676258
 20
-726.9431686505872
 30
0.0
 10
-529.4587587957424
 20
-725.9566706428286
 30
0.0
 10
-533.1751927145729
 20
-725.2892506921694
 30
0.0
 10
-538.9428405936775
 20
-727.4048708402225
 30
0.0
 10
-543.4419011243602
 20
-730.9849659045907
 30
0.0
 10
-546.7285046014183
 20
-734.7648093070557
 30
0.0
 10
-548.162187395779
 20
-736.9036008367673
 30
0.0
 10
-548.8094461565172
 20
-738.0069211099582
 30
0.0
  0
SPLINE
  5
64C
330
1F
100
AcDbEntity
  8
Default
100
AcDbSpline
210
0.0
220
0.0
230
1.0
 70
    12
 71
     2
 72
     6
 73
     3
 74
     0
 42
0.000000001
 43
0.0000000001
 40
0.0
 40
0.0
 40
0.0
 40
0.1369528492222414
 40
0.1369528492222414
 40
0.1369528492222414
 10
-538.6617995417362
 20
-757.2899493660146
 30
0.0
 41
1.0
 10
-537.6690798875519
 20
-755.8618133719375
 30
0.0
 41
0.9999966913238282
 10
-536.6309577153347
 20
-754.4654426112534
 30
0.0
 41
0.9999959461296658
  0
ARC
  5
64D
330
1F
100
AcDbEntity
  8
Default
100
AcDbCircle
 10
-526.2350735398029
 20
-761.7603444069535
 30
0.0
 40
12.7
100
AcDbArc
 50
132.4871521735316
 51
144.9422552251277
  0
SPLINE
  5
64E
330
1F
100
AcDbEntity
  8
Default
100
AcDbSpline
210
0.0
220
0.0
230
1.0
 70
     8
 71
     3
 72
    14
 73
    10
 74
     0
 42
0.000000001
 43
0.0000000001
 40
0.2772630823298201
 40
0.2772630823298201
 40
0.2772630823298201
 40
0.2772630823298201
 40
1.0
 40
2.0
 40
3.0
 40
4.0
 40
5.0
 40
6.0
 40
7.0
 40
7.0
 40
7.0
 40
7.0
 10
-534.812969336313
 20
-752.394998513489
 30
0.0
 10
-534.0530660355701
 20
-751.6989888408776
 30
0.0
 10
-532.3158008961822
 20
-749.9589068117439
 30
0.0
 10
-529.931811811638
 20
-746.8825164107177
 30
0.0
 10
-527.7971325082668
 20
-743.1659253183736
 30
0.0
 10
-526.2058376877726
 20
-739.1810849532539
 30
0.0
 10
-525.3571023971533
 20
-734.966882626344
 30
0.0
 10
-525.664463913657
 20
-730.631950711215
 30
0.0
 10
-527.2088272978476
 20
-728.0901657988176
 30
0.0
 10
-528.3812054906822
 20
-727.2543168962583
 30
0.0
  0
SPLINE
  5
64F
330
1F
100
AcDbEntity
  8
Default
100
AcDbSpline
210
0.0
220
0.0
230
1.0
 70
     8
 71
     3
 72
    14
 73
    10
 74
     0
 42
0.000000001
 43
0.0000000001
 40
-7.0
 40
-7.0
 40
-7.0
 40
-7.0
 40
-6.0
 40
-5.0
 40
-4.0
 40
-3.0
 40
-2.0
 40
-1.0
 40
-0.2482205602640466
 40
-0.2482205602640466
 40
-0.2482205602640466
 40
-0.2482205602640466
 10
-528.3812054906822
 20
-727.2543168962583
 30
0.0
 10
-529.5384298215228
 20
-726.397610492019
 30
0.0
 10
-532.4330454566843
 20
-725.7142883659335
 30
0.0
 10
-536.6507906342802
 20
-726.7615378240375
 30
0.0
 10
-540.3964615897469
 20
-728.8709931895403
 30
0.0
 10
-543.6945328427963
 20
-731.6157878906113
 30
0.0
 10
-546.5695688372926
 20
-734.7944783609597
 30
0.0
 10
-548.7820475278892
 20
-738.0467685867344
 30
0.0
 10
-549.9143905616855
 20
-740.2762776254864
 30
0.0
 10
-550.3551778480352
 20
-741.2533300867372
 30
0.0
  0
ARC
  5
650
330
1F
100
AcDbEntity
  8
Default
100
AcDbCircle
 10
-561.931637831444
 20
-736.0307278376158
 30
0.0
 40
12.7
100
AcDbArc
 50
322.9775798079641
 51
335.7179678781666
  0
SPLINE
  5
651
330
1F
100
AcDbEntity
  8
Default
100
AcDbSpline
210
0.0
220
0.0
230
1.0
 70
    12
 71
     2
 72
     6
 73
     3
 74
     0
 42
0.000000001
 43
0.0000000001
 40
-0.1297405451143296
 40
-0.1297405451143296
 40
-0.1297405451143296
 40
0.0
 40
0.0
 40
0.0
 10
-551.7919584032283
 20
-743.6777469361263
 30
0.0
 41
0.9999960316975588
 10
-552.7840871147969
 20
-744.9932748506311
 30
0.0
 41
0.999996865512317
 10
-553.7802020334453
 20
-746.3057870002858
 30
0.0
 41
1.0
  0
SPLINE
  5
652
330
1F
100
AcDbEntity
  8
Default
100
AcDbSpline
210
0.0
220
0.0
230
1.0
 70
    12
 71
     2
 72
     6
 73
     3
 74
     0
 42
0.000000001
 43
0.0000000001
 40
0.0
 40
0.0
 40
0.0
 40
0.0853474550214741
 40
0.0853474550214741
 40
0.0853474550214741
 10
-548.3470503533105
 20
-737.2425494386002
 30
0.0
 41
1.0
 10
-547.7726363792433
 20
-736.3228426835011
 30
0.0
 41
0.9993970637774639
 10
-547.1357805888419
 20
-735.4452171191456
 30
0.0
 41
1.0
  0
SPLINE
  5
653
330
1F
100
AcDbEntity
  8
Default
100
AcDbSpline
210
0.0
220
0.0
230
1.0
 70
    12
 71
     2
 72
     6
 73
     3
 74
     0
 42
0.000000001
 43
0.0000000001
 40
0.0
 40
0.0
 40
0.0
 40
0.0587632096241838
 40
0.0587632096241838
 40
0.0587632096241838
 10
-529.6481079206955
 20
-726.4858524351471
 30
0.0
 41
1.0
 10
-528.9501189887665
 20
-726.7609589132072
 30
0.0
 41
0.9921107855315545
 10
-528.3425023561261
 20
-727.2010431677666
 30
0.0
 41
1.0
  0
SPLINE
  5
654
330
1F
100
AcDbEntity
  8
Default
100
AcDbSpline
210
0.0
220
0.0
230
1.0
 70
    24
 71
     2
 72
     6
 73
     3
 74
     0
 42
0.000000001
 43
0.0000000001
 40
0.0
 40
0.0
 40
0.0
 40
0.0114467396849787
 40
0.0114467396849787
 40
0.0114467396849787
 10
-528.3424904031729
 20
-727.2010518520684
 30
0.0
 10
-528.257042001558
 20
-727.0834421054772
 30
0.0
 10
-528.1715935999382
 20
-726.9658323588849
 30
0.0
  0
SPLINE
  5
655
330
1F
100
AcDbEntity
  8
Default
100
AcDbSpline
210
0.0
220
0.0
230
1.0
 70
    12
 71
     2
 72
     6
 73
     3
 74
     0
 42
0.000000001
 43
0.0000000001
 40
0.0
 40
0.0
 40
0.0
 40
0.0586712320260919
 40
0.0586712320260919
 40
0.0586712320260919
 10
-528.3424904031729
 20
-727.2010518520684
 30
0.0
 41
1.0
 10
-527.7371364452964
 20
-727.6422323882651
 30
0.0
 41
0.9921343149382712
 10
-527.2603369817401
 20
-728.2199485394919
 30
0.0
 41
1.0
  0
SPLINE
  5
656
330
1F
100
AcDbEntity
  8
Default
100
AcDbSpline
210
0.0
220
0.0
230
1.0
 70
     8
 71
     3
 72
    22
 73
    18
 74
     0
 42
0.000000001
 43
0.0000000001
 40
0.0
 40
0.0
 40
0.0
 40
0.0
 40
0.2588469591229587
 40
0.6477254461891114
 40
1.024641027840087
 40
1.817983982162573
 40
2.582167143679937
 40
4.062052734317923
 40
7.850412104674
 40
9.497260537102542
 40
10.543391206404
 40
10.8432833113025
 40
12.15829953678302
 40
13.34949093133962
 40
14.77372714428499
 40
17.25709974516987
 40
21.82793658798906
 40
21.82793658798906
 40
21.82793658798906
 40
21.82793658798906
 10
-1103.730993402169
 20
-1184.744232071012
 30
0.0
 10
-1102.274689094006
 20
-1183.08568990453
 30
0.0
 10
-1099.86883627213
 20
-1178.100527406162
 30
0.0
 10
-1097.671695931967
 20
-1169.69582462341
 30
0.0
 10
-1095.279084674175
 20
-1156.709387032655
 30
0.0
 10
-1093.146944549955
 20
-1140.466039965148
 30
0.0
 10
-1088.666956216795
 20
-1115.137986138093
 30
0.0
 10
-1078.962281219098
 20
-1064.992150328803
 30
0.0
 10
-1065.195809388125
 20
-1008.058224067094
 30
0.0
 10
-1051.146285249262
 20
-955.0217106738003
 30
0.0
 10
-1044.393032117145
 20
-930.5969208842746
 30
0.0
 10
-1038.123771693536
 20
-908.9440242984462
 30
0.0
 10
-1028.005707197338
 20
-887.3035249714696
 30
0.0
 10
-1009.884882787481
 20
-859.387264175786
 30
0.0
 10
-984.1135363738375
 20
-824.6989810748404
 30
0.0
 10
-934.7549251470969
 20
-772.2999204571181
 30
0.0
 10
-883.290069974471
 20
-740.0853081722498
 30
0.0
 10
-846.715020954544
 20
-727.1734680021142
 30
0.0
  0
SPLINE
  5
657
330
1F
100
AcDbEntity
  8
Default
100
AcDbSpline
210
0.0
220
0.0
230
1.0
 70
     8
 71
     3
 72
    19
 73
    15
 74
     0
 42
0.000000001
 43
0.0000000001
 40
-12.0
 40
-12.0
 40
-12.0
 40
-12.0
 40
-11.0
 40
-10.0
 40
-9.0
 40
-8.0
 40
-7.0
 40
-6.0
 40
-5.0
 40
-4.0
 40
-3.0
 40
-2.0
 40
-1.0
 40
0.0
 40
0.0
 40
0.0
 40
0.0
 10
-1150.985219583714
 20
-1204.472884118824
 30
0.0
 10
-1151.553084797142
 20
-1210.690228658048
 30
0.0
 10
-1143.570977637896
 20
-1221.517353013076
 30
0.0
 10
-1131.611169285852
 20
-1235.875868772082
 30
0.0
 10
-1118.415645771814
 20
-1249.672483015626
 30
0.0
 10
-1105.086512794456
 20
-1263.176046074653
 30
0.0
 10
-1091.332633916725
 20
-1276.29393144509
 30
0.0
 10
-1077.28228743927
 20
-1289.079616976813
 30
0.0
 10
-1062.945916089416
 20
-1301.547365141868
 30
0.0
 10
-1048.361758590504
 20
-1313.722907486817
 30
0.0
 10
-1033.557124325172
 20
-1325.629441919218
 30
0.0
 10
-1018.559434216733
 20
-1337.291543323934
 30
0.0
 10
-1003.39430827972
 20
-1348.734857613175
 30
0.0
 10
-993.1888623568053
 20
-1356.23558182573
 30
0.0
 10
-988.0661848818421
 20
-1359.958435395146
 30
0.0
  0
SPLINE
  5
658
330
1F
100
AcDbEntity
  8
Default
100
AcDbSpline
210
0.0
220
0.0
230
1.0
 70
    12
 71
     2
 72
     6
 73
     3
 74
     0
 42
0.000000001
 43
0.0000000001
 40
-6.233889429224446
 40
-6.233889429224446
 40
-6.233889429224446
 40
0.0
 40
0.0
 40
0.0
 10
-995.9444099865034
 20
-1370.801881994604
 30
0.0
 41
1.0
 10
-1060.22152491493
 20
-1324.28400182907
 30
0.0
 41
0.996730330589404
 10
-1116.16648170809
 20
-1268.02073147974
 30
0.0
 41
1.0
  0
SPLINE
  5
659
330
1F
100
AcDbEntity
  8
Default
100
AcDbSpline
210
0.0
220
0.0
230
1.0
 70
     8
 71
     3
 72
    12
 73
     8
 74
     0
 42
0.000000001
 43
0.0000000001
 40
0.0
 40
0.0
 40
0.0
 40
0.0
 40
0.8495817757806477
 40
1.391422022197968
 40
2.191064820612614
 40
2.689385262996221
 40
3.111933853859593
 40
3.111933853859593
 40
3.111933853859593
 40
3.111933853859593
 10
-1116.16648170809
 20
-1268.02073147974
 30
0.0
 10
-1121.168259179615
 20
-1262.81456406819
 30
0.0
 10
-1129.503026819129
 20
-1254.562549252058
 30
0.0
 10
-1141.973559547356
 20
-1240.748212410015
 30
0.0
 10
-1151.726623380738
 20
-1228.652132579862
 30
0.0
 10
-1157.562420470897
 20
-1214.841222038879
 30
0.0
 10
-1154.064474192131
 20
-1206.755390389911
 30
0.0
 10
-1151.098236551841
 20
-1204.563321867533
 30
0.0
  0
SPLINE
  5
65A
330
1F
100
AcDbEntity
  8
Default
100
AcDbSpline
210
0.0
220
0.0
230
1.0
 70
    12
 71
     2
 72
     6
 73
     3
 74
     0
 42
0.000000001
 43
0.0000000001
 40
0.0
 40
0.0
 40
0.0
 40
0.443505275079806
 40
0.443505275079806
 40
0.443505275079806
 10
-1151.098236551841
 20
-1204.563321867533
 30
0.0
 41
1.0
 10
-1146.476246873787
 20
-1200.967143316885
 30
0.0
 41
0.9799943751373794
 10
-1140.958470432502
 20
-1199.501469371414
 30
0.0
 41
1.0
  0
SPLINE
  5
65B
330
1F
100
AcDbEntity
  8
Default
100
AcDbSpline
210
0.0
220
0.0
230
1.0
 70
    12
 71
     2
 72
     6
 73
     3
 74
     0
 42
0.000000001
 43
0.0000000001
 40
-5.654573080352872
 40
-5.654573080352872
 40
-5.654573080352872
 40
0.0
 40
0.0
 40
0.0
 10
-1105.672332197981
 20
-1278.572334728701
 30
0.0
 41
1.0
 10
-1055.085515057896
 20
-1329.762259248343
 30
0.0
 41
0.9967681786255456
 10
-996.9533883551886
 20
-1372.190621579409
 30
0.0
 41
1.0
  0
SPLINE
  5
65C
330
1F
100
AcDbEntity
  8
Default
100
AcDbSpline
210
0.0
220
0.0
230
1.0
 70
    12
 71
     2
 72
     6
 73
     3
 74
     0
 42
0.000000001
 43
0.0000000001
 40
-1.281345128275034
 40
-1.281345128275034
 40
-1.281345128275034
 40
0.0
 40
0.0
 40
0.0
 10
-574.2485467444317
 20
-773.816139546784
 30
0.0
 41
0.9999999993069707
 10
-564.5319927031022
 20
-760.7494637993863
 30
0.0
 41
0.9999999996067375
 10
-554.8147937242936
 20
-747.6815315168685
 30
0.0
 41
1.0
  0
SPLINE
  5
65D
330
1F
100
AcDbEntity
  8
Default
100
AcDbSpline
210
0.0
220
0.0
230
1.0
 70
     8
 71
     3
 72
    14
 73
    10
 74
     0
 42
0.000000001
 43
0.0000000001
 40
0.0
 40
0.0
 40
0.0
 40
0.0
 40
1.0
 40
2.0
 40
3.0
 40
4.0
 40
5.0
 40
6.0
 40
7.0
 40
7.0
 40
7.0
 40
7.0
 10
-554.8147937242936
 20
-747.6815315168685
 30
0.0
 10
-553.7435746241604
 20
-746.2524938200707
 30
0.0
 10
-551.3462687084722
 20
-743.829983677217
 30
0.0
 10
-546.8606282299124
 20
-741.3630554705514
 30
0.0
 10
-541.5725214639992
 20
-740.9725453590274
 30
0.0
 10
-537.242147940491
 20
-744.2247804731248
 30
0.0
 10
-536.0931623358734
 20
-749.3913322054842
 30
0.0
 10
-537.1169042688835
 20
-754.4052530678378
 30
0.0
 10
-538.7115899185426
 20
-757.4172228802
 30
0.0
 10
-539.7028105445547
 20
-758.7828106419619
 30
0.0
  0
SPLINE
  5
65E
330
1F
100
AcDbEntity
  8
Default
100
AcDbSpline
210
0.0
220
0.0
230
1.0
 70
    12
 71
     2
 72
     6
 73
     3
 74
     0
 42
0.000000001
 43
0.0000000001
 40
0.0
 40
0.0
 40
0.0
 40
1.278324852146924
 40
1.278324852146924
 40
1.278324852146924
 10
-539.7028105445547
 20
-758.7828106419619
 30
0.0
 41
1.0
 10
-549.0999528338091
 20
-772.0213918518703
 30
0.0
 41
0.9999999996076647
 10
-558.4968397090302
 20
-785.2601543586131
 30
0.0
 41
0.9999999993083845
  0
SPLINE
  5
65F
330
1F
100
AcDbEntity
  8
Default
100
AcDbSpline
210
0.0
220
0.0
230
1.0
 70
     8
 71
     3
 72
    47
 73
    43
 74
     0
 42
0.000000001
 43
0.0000000001
 40
36.00001859489052
 40
36.00001859489052
 40
36.00001859489052
 40
36.00001859489052
 40
37.0
 40
38.0
 40
39.0
 40
40.0
 40
41.0
 40
42.0
 40
43.0
 40
44.0
 40
45.0
 40
46.0
 40
47.0
 40
48.0
 40
49.0
 40
50.0
 40
51.0
 40
52.0
 40
53.0
 40
53.0
 40
53.0
 40
54.0
 40
55.0
 40
56.0
 40
57.0
 40
58.0
 40
59.0
 40
60.0
 40
60.0
 40
60.0
 40
61.0
 40
62.0
 40
63.0
 40
64.0
 40
65.0
 40
66.0
 40
67.0
 40
68.0
 40
69.0
 40
70.0
 40
71.0
 40
72.0
 40
72.0
 40
72.0
 40
72.0
 10
-566.3081865058339
 20
-779.4563493214463
 30
0.0
 10
-575.3460220827812
 20
-772.8665839376174
 30
0.0
 10
-593.9840411014566
 20
-760.4569064450274
 30
0.0
 10
-623.4529325549419
 20
-744.339313856071
 30
0.0
 10
-654.2820764201681
 20
-730.9905743776278
 30
0.0
 10
-686.2875943514346
 20
-720.7645352075361
 30
0.0
 10
-719.2247803592882
 20
-714.0451855380534
 30
0.0
 10
-752.7363196744846
 20
-711.4202777810724
 30
0.0
 10
-786.3328405806421
 20
-712.716697449288
 30
0.0
 10
-819.474033642839
 20
-718.4180763773179
 30
0.0
 10
-851.6216860780051
 20
-728.2771169260404
 30
0.0
 10
-882.1310294427499
 20
-742.4742115859049
 30
0.0
 10
-910.1215029186002
 20
-761.1386897768918
 30
0.0
 10
-935.5568325501886
 20
-783.0959171779568
 30
0.0
 10
-958.9126867533146
 20
-807.2234768477303
 30
0.0
 10
-980.441746891118
 20
-832.9968357125625
 30
0.0
 10
-1000.224384386871
 20
-860.0995301354615
 30
0.0
 10
-1018.849925044885
 20
-888.0734638457731
 30
0.0
 10
-1028.275287499365
 20
-908.4608483693987
 30
0.0
 10
-1031.786162820768
 20
-919.0889861579243
 30
0.0
 10
-1035.252863700713
 20
-929.5164717398536
 30
0.0
 10
-1042.083831847241
 20
-950.4059181462396
 30
0.0
 10
-1051.804476026384
 20
-981.9077168139155
 30
0.0
 10
-1060.910701465719
 20
-1013.592879063843
 30
0.0
 10
-1069.313115113486
 20
-1045.472904410293
 30
0.0
 10
-1076.892229733547
 20
-1077.558093192395
 30
0.0
 10
-1083.610326811616
 20
-1109.838149706215
 30
0.0
 10
-1087.19523984801
 20
-1131.525572243365
 30
0.0
 10
-1088.830342040418
 20
-1142.391659959784
 30
0.0
 10
-1089.170170158462
 20
-1144.620330982112
 30
0.0
 10
-1089.861433665935
 20
-1149.076003205579
 30
0.0
 10
-1091.038928726724
 20
-1155.736774157199
 30
0.0
 10
-1092.447665809771
 20
-1162.352835950228
 30
0.0
 10
-1094.226371762683
 20
-1168.884512821054
 30
0.0
 10
-1096.577280166669
 20
-1175.227891843771
 30
0.0
 10
-1099.792310191278
 20
-1181.239775220521
 30
0.0
 10
-1104.682909182212
 20
-1186.018306057165
 30
0.0
 10
-1110.670788993502
 20
-1189.237265244113
 30
0.0
 10
-1116.624815131324
 20
-1192.428258699453
 30
0.0
 10
-1122.844958861352
 20
-1195.112345188152
 30
0.0
 10
-1129.274316937851
 20
-1197.223322438632
 30
0.0
 10
-1138.779500118861
 20
-1198.922674624899
 30
0.0
 10
-1140.958470432502
 20
-1199.501469371414
 30
0.0
  0
SPLINE
  5
660
330
1F
100
AcDbEntity
  8
Default
100
AcDbSpline
210
0.0
220
0.0
230
1.0
 70
     8
 71
     3
 72
    12
 73
     8
 74
     0
 42
0.000000001
 43
0.0000000001
 40
0.0
 40
0.0
 40
0.0
 40
0.0
 40
1.918305221504867
 40
3.868777778011241
 40
7.624449324857683
 40
11.42846767657462
 40
15.35241906764609
 40
15.35241906764609
 40
15.35241906764609
 40
15.35241906764609
 10
-862.0469578351659
 20
-1186.506953799941
 30
0.0
 10
-875.1933784242025
 20
-1176.972181593548
 30
0.0
 10
-899.8352085887919
 20
-1155.150285005552
 30
0.0
 10
-939.1369698402499
 20
-1103.548457567434
 30
0.0
 10
-967.1133766330408
 20
-1026.247657408563
 30
0.0
 10
-961.2440857656659
 20
-927.2282429019089
 30
0.0
 10
-932.2632514857017
 20
-867.225316546442
 30
0.0
 10
-912.7439223899843
 20
-840.3601875965552
 30
0.0
  0
SPLINE
  5
661
330
1F
100
AcDbEntity
  8
Default
100
AcDbSpline
210
0.0
220
0.0
230
1.0
 70
     8
 71
     3
 72
    12
 73
     8
 74
     0
 42
0.000000001
 43
0.0000000001
 40
-14.89017236839833
 40
-14.89017236839833
 40
-14.89017236839833
 40
-14.89017236839833
 40
-11.21816917573749
 40
-7.516682162771167
 40
-3.774519558109396
 40
-1.88935509827327
 40
0.0
 40
0.0
 40
0.0
 40
0.0
 10
-912.7439223899843
 20
-840.3601875965552
 30
0.0
 10
-894.4741886888619
 20
-815.1998799217382
 30
0.0
 10
-847.3673833766937
 20
-772.2785580876569
 30
0.0
 10
-756.7616758502895
 20
-740.5652612769034
 30
0.0
 10
-676.4048850859519
 20
-745.0446948320085
 30
0.0
 10
-616.2118138602423
 20
-766.5584716981034
 30
0.0
 10
-588.5493318073822
 20
-782.8570886000256
 30
0.0
 10
-575.607922113756
 20
-792.2574454965999
 30
0.0
  0
SPLINE
  5
662
330
1F
100
AcDbEntity
  8
Default
100
AcDbSpline
210
0.0
220
0.0
230
1.0
 70
    12
 71
     2
 72
     6
 73
     3
 74
     0
 42
0.000000001
 43
0.0000000001
 40
0.0
 40
0.0
 40
0.0
 40
0.0853474550214741
 40
0.0853474550214741
 40
0.0853474550214741
 10
-468.2225626546438
 20
-1243.128656327458
 30
0.0
 41
1.0
 10
-467.3920574843862
 20
-1243.825845750184
 30
0.0
 41
0.9993970637774639
 10
-466.515170420901
 20
-1244.463717999832
 30
0.0
 41
1.0
  0
SPLINE
  5
663
330
1F
100
AcDbEntity
  8
Default
100
AcDbSpline
210
0.0
220
0.0
230
1.0
 70
     8
 71
     3
 72
    12
 73
     8
 74
     0
 42
0.000000001
 43
0.0000000001
 40
0.0
 40
0.0
 40
0.0
 40
0.0
 40
0.1510110321465192
 40
0.3037660471064116
 40
0.5900965017365678
 40
0.8249401141264362
 40
1.014583801502342
 40
1.014583801502342
 40
1.014583801502342
 40
1.014583801502342
 10
-456.8999715820204
 20
-1226.029983530027
 30
0.0
 10
-455.7966513088286
 20
-1226.67724229077
 30
0.0
 10
-453.657859779117
 20
-1228.11092508513
 30
0.0
 10
-449.878016376655
 20
-1231.397528562186
 30
0.0
 10
-446.2979213122897
 20
-1235.896589092867
 30
0.0
 10
-444.1823011642337
 20
-1241.664236971974
 30
0.0
 10
-444.849721114893
 20
-1245.380670890805
 30
0.0
 10
-445.8362191226465
 20
-1246.68430221892
 30
0.0
  0
SPLINE
  5
664
330
1F
100
AcDbEntity
  8
Default
100
AcDbSpline
210
0.0
220
0.0
230
1.0
 70
     8
 71
     3
 72
    12
 73
     8
 74
     0
 42
0.000000001
 43
0.0000000001
 40
-1.014583801502342
 40
-1.014583801502342
 40
-1.014583801502342
 40
-1.014583801502342
 40
-0.8249401141264362
 40
-0.5900965017365678
 40
-0.3037660471064116
 40
-0.1510110321465192
 40
0.0
 40
0.0
 40
0.0
 40
0.0
 10
-445.8362191226465
 20
-1246.68430221892
 30
0.0
 10
-446.7712015427866
 20
-1248.025361812296
 30
0.0
 10
-450.0994961315322
 20
-1249.808557144867
 30
0.0
 10
-456.2386178100439
 20
-1249.578784029267
 30
0.0
 10
-461.6237888613207
 20
-1247.564197452048
 30
0.0
 10
-465.9175703620899
 20
-1244.984969081744
 30
0.0
 10
-467.942006656073
 20
-1243.393889808415
 30
0.0
 10
-468.8985310328617
 20
-1242.544583829863
 30
0.0
  0
SPLINE
  5
665
330
1F
100
AcDbEntity
  8
Default
100
AcDbSpline
210
0.0
220
0.0
230
1.0
 70
    12
 71
     2
 72
     6
 73
     3
 74
     0
 42
0.000000001
 43
0.0000000001
 40
0.0
 40
0.0
 40
0.0
 40
0.1369528492222414
 40
0.1369528492222414
 40
0.1369528492222414
 10
-465.2063290289455
 20
-1221.069538896155
 30
0.0
 41
1.0
 10
-463.8208782405336
 20
-1222.121009695683
 30
0.0
 41
0.9999966913238282
 10
-462.4020630884303
 20
-1223.128239813347
 30
0.0
 41
0.9999959461296658
  0
ARC
  5
666
330
1F
100
AcDbEntity
  8
Default
100
AcDbCircle
 10
-454.7692383278088
 20
-1212.97787104302
 30
0.0
 40
12.7
100
AcDbArc
 50
233.0577447748723
 51
245.512847826468
  0
SPLINE
  5
667
330
1F
100
AcDbEntity
  8
Default
100
AcDbSpline
210
0.0
220
0.0
230
1.0
 70
     8
 71
     3
 72
    14
 73
    10
 74
     0
 42
0.000000001
 43
0.0000000001
 40
0.2772630823298201
 40
0.2772630823298201
 40
0.2772630823298201
 40
0.2772630823298201
 40
1.0
 40
2.0
 40
3.0
 40
4.0
 40
5.0
 40
6.0
 40
7.0
 40
7.0
 40
7.0
 40
7.0
 10
-460.0332509819006
 20
-1224.535559859457
 30
0.0
 10
-459.0954611788885
 20
-1224.962681359987
 30
0.0
 10
-456.9055089289355
 20
-1226.080753260875
 30
0.0
 10
-453.687543660051
 20
-1228.269881256912
 30
0.0
 10
-450.5088531897057
 20
-1231.144917251407
 30
0.0
 10
-447.7640584886346
 20
-1234.442988504456
 30
0.0
 10
-445.6546031231289
 20
-1238.188659459925
 30
0.0
 10
-444.6073536650279
 20
-1242.406404637519
 30
0.0
 10
-445.2906757911134
 20
-1245.30102027268
 30
0.0
 10
-446.1473821953527
 20
-1246.458244603521
 30
0.0
  0
SPLINE
  5
668
330
1F
100
AcDbEntity
  8
Default
100
AcDbSpline
210
0.0
220
0.0
230
1.0
 70
     8
 71
     3
 72
    14
 73
    10
 74
     0
 42
0.000000001
 43
0.0000000001
 40
-7.0
 40
-7.0
 40
-7.0
 40
-7.0
 40
-6.0
 40
-5.0
 40
-4.0
 40
-3.0
 40
-2.0
 40
-1.0
 40
-0.2482205602640466
 40
-0.2482205602640466
 40
-0.2482205602640466
 40
-0.2482205602640466
 10
-446.1473821953527
 20
-1246.458244603521
 30
0.0
 10
-446.9832310979099
 20
-1247.630622796352
 30
0.0
 10
-449.5250160103093
 20
-1249.174986180546
 30
0.0
 10
-453.8599479254354
 20
-1249.482347697052
 30
0.0
 10
-458.0741502523482
 20
-1248.63361240643
 30
0.0
 10
-462.058990617468
 20
-1247.042317585936
 30
0.0
 10
-465.7755817098091
 20
-1244.907638282567
 30
0.0
 10
-468.8847869360692
 20
-1242.498219985548
 30
0.0
 10
-470.6506653391324
 20
-1240.727744127007
 30
0.0
 10
-471.3718047750347
 20
-1239.93472277936
 30
0.0
  0
ARC
  5
669
330
1F
100
AcDbEntity
  8
Default
100
AcDbCircle
 10
-480.7677996280524
 20
-1248.479035549976
 30
0.0
 40
12.7
100
AcDbArc
 50
42.2820321218404
 51
55.02242019204903
  0
SPLINE
  5
66A
330
1F
100
AcDbEntity
  8
Default
100
AcDbSpline
210
0.0
220
0.0
230
1.0
 70
    12
 71
     2
 72
     6
 73
     3
 74
     0
 42
0.000000001
 43
0.0000000001
 40
-0.1297405451143296
 40
-0.1297405451143296
 40
-0.1297405451143296
 40
0.0
 40
0.0
 40
0.0
 10
-473.4874502924506
 20
-1238.072954945273
 30
0.0
 41
0.9999960316975588
 10
-474.8375412507449
 20
-1237.1283981823
 30
0.0
 41
0.999996865512317
 10
-476.1904913946743
 20
-1236.187941387864
 30
0.0
 41
1.0
  0
SPLINE
  5
66B
330
1F
100
AcDbEntity
  8
Default
100
AcDbSpline
210
0.0
220
0.0
230
1.0
 70
     8
 71
     3
 72
    22
 73
    18
 74
     0
 42
0.000000001
 43
0.0000000001
 40
0.0
 40
0.0
 40
0.0
 40
0.0
 40
0.2588469591229587
 40
0.6477254461891114
 40
1.024641027840087
 40
1.817983982162573
 40
2.582167143679937
 40
4.062052734317923
 40
7.850412104674
 40
9.497260537102542
 40
10.543391206404
 40
10.8432833113025
 40
12.15829953678302
 40
13.34949093133962
 40
14.77372714428499
 40
17.25709974516987
 40
21.82793658798906
 40
21.82793658798906
 40
21.82793658798906
 40
21.82793658798906
 10
-785.6870878746211
 20
-1415.816655209695
 30
0.0
 10
-784.559743319842
 20
-1413.919109792377
 30
0.0
 10
-780.5620214489037
 20
-1410.090507857169
 30
0.0
 10
-773.2476278039801
 20
-1405.403707226901
 30
0.0
 10
-761.6361492494234
 20
-1399.115168787284
 30
0.0
 10
-746.8466757071994
 20
-1392.0679127391
 30
0.0
 10
-724.142657599452
 20
-1379.980391574918
 30
0.0
 10
-679.4500431871342
 20
-1355.254781717626
 30
0.0
 10
-629.5567353660223
 20
-1324.568538205027
 30
0.0
 10
-583.4575554235449
 20
-1294.817462760992
 30
0.0
 10
-562.3150699202171
 20
-1280.847062234503
 30
0.0
 10
-543.6592495386575
 20
-1268.193528233814
 30
0.0
 10
-526.2045655173626
 20
-1251.883395003615
 30
0.0
 10
-505.2542664717629
 20
-1226.022867862711
 30
0.0
 10
-480.2275327992573
 20
-1190.793591938434
 30
0.0
 10
-445.6457144388369
 20
-1127.658562875804
 30
0.0
 10
-430.9113123667777
 20
-1068.757714340467
 30
0.0
 10
-429.9337343528631
 20
-1029.982797595026
 30
0.0
  0
SPLINE
  5
66C
330
1F
100
AcDbEntity
  8
Default
100
AcDbSpline
210
0.0
220
0.0
230
1.0
 70
     8
 71
     3
 72
    19
 73
    15
 74
     0
 42
0.000000001
 43
0.0000000001
 40
-12.0
 40
-12.0
 40
-12.0
 40
-12.0
 40
-11.0
 40
-10.0
 40
-9.0
 40
-8.0
 40
-7.0
 40
-6.0
 40
-5.0
 40
-4.0
 40
-3.0
 40
-2.0
 40
-1.0
 40
0.0
 40
0.0
 40
0.0
 40
0.0
 10
-789.847792016277
 20
-1466.854583701022
 30
0.0
 10
-795.5853580528946
 20
-1469.315920735135
 30
0.0
 10
-808.3491719866113
 20
-1465.070251133482
 30
0.0
 10
-825.7007159937895
 20
-1458.132822850163
 30
0.0
 10
-842.8997168884345
 20
-1449.846522492302
 30
0.0
 10
-859.8612971392117
 20
-1441.342594187474
 30
0.0
 10
-876.5873298125724
 20
-1432.315527566202
 30
0.0
 10
-893.0890351912079
 20
-1422.903848106649
 30
0.0
 10
-909.3767507118856
 20
-1413.121894778933
 30
0.0
 10
-925.4631321142818
 20
-1403.013986255238
 30
0.0
 10
-941.3618028562018
 20
-1392.61326384955
 30
0.0
 10
-957.0876615107293
 20
-1381.953400466725
 30
0.0
 10
-972.657181769898
 20
-1371.066687211242
 30
0.0
 10
-982.9444506345364
 20
-1363.678582616355
 30
0.0
 10
-988.068089177408
 20
-1359.957051843432
 30
0.0
  0
SPLINE
  5
66D
330
1F
100
AcDbEntity
  8
Default
100
AcDbSpline
210
0.0
220
0.0
230
1.0
 70
    12
 71
     2
 72
     6
 73
     3
 74
     0
 42
0.000000001
 43
0.0000000001
 40
-6.233889429224446
 40
-6.233889429224446
 40
-6.233889429224446
 40
0.0
 40
0.0
 40
0.0
 10
-995.9463142820693
 20
-1370.80049844289
 30
0.0
 41
1.0
 10
-931.8424603641258
 20
-1417.556851930775
 30
0.0
 41
0.996730330589404
 10
-861.0449680716607
 20
-1453.377360945705
 30
0.0
 41
1.0
  0
SPLINE
  5
66E
330
1F
100
AcDbEntity
  8
Default
100
AcDbSpline
210
0.0
220
0.0
230
1.0
 70
     8
 71
     3
 72
    12
 73
     8
 74
     0
 42
0.000000001
 43
0.0000000001
 40
0.0
 40
0.0
 40
0.0
 40
0.0
 40
0.8495817757806477
 40
1.391422022197968
 40
2.191064820612614
 40
2.689385262996221
 40
3.111933853859593
 40
3.111933853859593
 40
3.111933853859593
 40
3.111933853859593
 10
-861.0449680716607
 20
-1453.377360945705
 30
0.0
 10
-854.5479743891991
 20
-1456.525539797327
 30
0.0
 10
-844.1242570809773
 20
-1461.902362056674
 30
0.0
 10
-827.1324354671245
 20
-1469.493678619315
 30
0.0
 10
-812.6145174512918
 20
-1475.031499299063
 30
0.0
 10
-797.6762005087384
 20
-1476.31386608448
 30
0.0
 10
-791.0670424748712
 20
-1470.488462089222
 30
0.0
 10
-789.8988792627017
 20
-1466.990016026296
 30
0.0
  0
SPLINE
  5
66F
330
1F
100
AcDbEntity
  8
Default
100
AcDbSpline
210
0.0
220
0.0
230
1.0
 70
    12
 71
     2
 72
     6
 73
     3
 74
     0
 42
0.000000001
 43
0.0000000001
 40
0.0
 40
0.0
 40
0.0
 40
0.443505275079806
 40
0.443505275079806
 40
0.443505275079806
 10
-789.8988792627017
 20
-1466.990016026296
 30
0.0
 41
1.0
 10
-787.906983576692
 20
-1461.482962337776
 30
0.0
 41
0.9799943751373794
 10
-788.2181315116061
 20
-1455.78232694047
 30
0.0
 41
1.0
  0
SPLINE
  5
670
330
1F
100
AcDbEntity
  8
Default
100
AcDbSpline
210
0.0
220
0.0
230
1.0
 70
    12
 71
     2
 72
     6
 73
     3
 74
     0
 42
0.000000001
 43
0.0000000001
 40
-5.654573080352872
 40
-5.654573080352872
 40
-5.654573080352872
 40
0.0
 40
0.0
 40
0.0
 10
-874.3230096390814
 20
-1446.657456392972
 30
0.0
 41
1.0
 10
-938.6397071097684
 20
-1414.365090930603
 30
0.0
 41
0.9967681786255456
 10
-996.9552926507544
 20
-1372.189238027694
 30
0.0
 41
1.0
  0
SPLINE
  5
671
330
1F
100
AcDbEntity
  8
Default
100
AcDbSpline
210
0.0
220
0.0
230
1.0
 70
    12
 71
     2
 72
     6
 73
     3
 74
     0
 42
0.000000001
 43
0.0000000001
 40
-1.102413928352738
 40
-1.102413928352738
 40
-1.102413928352738
 40
0.0
 40
0.0
 40
0.0
 10
-500.4495965992401
 20
-1218.981281413154
 30
0.0
 41
0.9999999993925147
 10
-489.0249565214862
 20
-1227.089890684388
 30
0.0
 41
0.9999999996616539
 10
-477.5995749995025
 20
-1235.199237015322
 30
0.0
 41
1.0
  0
SPLINE
  5
672
330
1F
100
AcDbEntity
  8
Default
100
AcDbSpline
210
0.0
220
0.0
230
1.0
 70
     8
 71
     3
 72
    14
 73
    10
 74
     0
 42
0.000000001
 43
0.0000000001
 40
0.0
 40
0.0
 40
0.0
 40
0.0
 40
1.0
 40
2.0
 40
3.0
 40
4.0
 40
5.0
 40
6.0
 40
7.0
 40
7.0
 40
7.0
 40
7.0
 10
-477.5995749995025
 20
-1235.199237015322
 30
0.0
 10
-476.1391881600282
 20
-1236.227307722253
 30
0.0
 10
-473.1106179441716
 20
-1237.790443510747
 30
0.0
 10
-468.0821975975183
 20
-1238.750492518392
 30
0.0
 10
-462.9322349379959
 20
-1237.4877748459
 30
0.0
 10
-459.8188009004304
 20
-1233.056556437359
 30
0.0
 10
-460.3226029416468
 20
-1227.787817667398
 30
0.0
 10
-462.8456261329581
 20
-1223.335649214228
 30
0.0
 10
-465.2930121700729
 20
-1220.963880663727
 30
0.0
 10
-466.6577088312227
 20
-1219.971433542943
 30
0.0
  0
SPLINE
  5
673
330
1F
100
AcDbEntity
  8
Default
100
AcDbSpline
210
0.0
220
0.0
230
1.0
 70
    12
 71
     2
 72
     6
 73
     3
 74
     0
 42
0.000000001
 43
0.0000000001
 40
0.0
 40
0.0
 40
0.0
 40
1.112498698414412
 40
1.112498698414412
 40
1.112498698414412
 10
-466.6577088312227
 20
-1219.971433542943
 30
0.0
 41
1.0
 10
-477.9958370072352
 20
-1211.541252131917
 30
0.0
 41
0.9999999996585591
 10
-489.3338236363169
 20
-1203.110880351432
 30
0.0
 41
0.9999999993875963
  0
SPLINE
  5
674
330
1F
100
AcDbEntity
  8
Default
100
AcDbSpline
210
0.0
220
0.0
230
1.0
 70
     8
 71
     3
 72
    47
 73
    43
 74
     0
 42
0.000000001
 43
0.0000000001
 40
36.00001859489052
 40
36.00001859489052
 40
36.00001859489052
 40
36.00001859489052
 40
37.0
 40
38.0
 40
39.0
 40
40.0
 40
41.0
 40
42.0
 40
43.0
 40
44.0
 40
45.0
 40
46.0
 40
47.0
 40
48.0
 40
49.0
 40
50.0
 40
51.0
 40
52.0
 40
53.0
 40
53.0
 40
53.0
 40
54.0
 40
55.0
 40
56.0
 40
57.0
 40
58.0
 40
59.0
 40
60.0
 40
60.0
 40
60.0
 40
61.0
 40
62.0
 40
63.0
 40
64.0
 40
65.0
 40
66.0
 40
67.0
 40
68.0
 40
69.0
 40
70.0
 40
71.0
 40
72.0
 40
72.0
 40
72.0
 40
72.0
 10
-566.3081865058339
 20
-779.4563493214463
 30
0.0
 10
-557.2481024110441
 20
-786.0154922475592
 30
0.0
 10
-539.6863331483408
 20
-799.9065004461808
 30
0.0
 10
-515.2512034251058
 20
-822.9524716726134
 30
0.0
 10
-493.0290683834209
 20
-848.1477424851146
 30
0.0
 10
-473.4132782402823
 20
-875.4267789823449
 30
0.0
 10
-456.8446467285395
 20
-904.6755111245216
 30
0.0
 10
-443.9925759455292
 20
-935.7357378557468
 30
0.0
 10
-434.8436484069628
 20
-968.0885436977147
 30
0.0
 10
-430.0247901182536
 20
-1001.369514297445
 30
0.0
 10
-429.4671239448089
 20
-1034.990359707289
 30
0.0
 10
-433.5414577466054
 20
-1068.393613042863
 30
0.0
 10
-442.6428993687533
 20
-1100.781776188413
 30
0.0
 10
-455.6655144546213
 20
-1131.757368594934
 30
0.0
 10
-471.3948314339498
 20
-1161.425931899213
 30
0.0
 10
-489.2539068736605
 20
-1189.865690724338
 30
0.0
 10
-508.9169298339682
 20
-1217.055290194206
 30
0.0
 10
-529.7661131828204
 20
-1243.413652922536
 30
0.0
 10
-546.243070907652
 20
-1258.677753591969
 30
0.0
 10
-555.2661104680667
 20
-1265.301069639503
 30
0.0
 10
-564.1119690930168
 20
-1271.820368354836
 30
0.0
 10
-581.8681279742975
 20
-1284.772199065854
 30
0.0
 10
-608.8242746245817
 20
-1303.751672196705
 30
0.0
 10
-636.1446762368801
 20
-1322.203460844392
 30
0.0
 10
-663.8678934713482
 20
-1340.046100709866
 30
0.0
 10
-692.0406461192119
 20
-1357.169135658421
 30
0.0
 10
-720.6647980460726
 20
-1373.533511703775
 30
0.0
 10
-740.1829635200737
 20
-1383.644748735559
 30
0.0
 10
-750.0119526844145
 20
-1388.557629097199
 30
0.0
 10
-752.0265321192355
 20
-1389.569522064056
 30
0.0
 10
-756.0505160504393
 20
-1391.603831165731
 30
0.0
 10
-762.0214196829504
 20
-1394.781986935889
 30
0.0
 10
-767.8783446641541
 20
-1398.166251048348
 30
0.0
 10
-773.5406881470415
 20
-1401.876300090289
 30
0.0
 10
-778.8471294528762
 20
-1406.072358766894
 30
0.0
 10
-783.5712713985109
 20
-1410.9878081535
 30
0.0
 10
-786.6046460881465
 20
-1417.115691429081
 30
0.0
 10
-787.8157015766182
 20
-1423.805216635367
 30
0.0
 10
-789.0106214342355
 20
-1430.453903198574
 30
0.0
 10
-789.6412092595785
 20
-1437.19903976469
 30
0.0
 10
-789.6620870208383
 20
-1443.966050504076
 30
0.0
 10
-788.3410038534891
 20
-1453.531145611939
 30
0.0
 10
-788.2181315116061
 20
-1455.78232694047
 30
0.0
  0
SPLINE
  5
675
330
1F
100
AcDbEntity
  8
Default
100
AcDbSpline
210
0.0
220
0.0
230
1.0
 70
     8
 71
     3
 72
    12
 73
     8
 74
     0
 42
0.000000001
 43
0.0000000001
 40
0.0
 40
0.0
 40
0.0
 40
0.0
 40
1.918305221504867
 40
3.868777778011241
 40
7.624449324857683
 40
11.42846767657462
 40
15.35241906764609
 40
15.35241906764609
 40
15.35241906764609
 40
15.35241906764609
 10
-862.0480101206581
 20
-1186.50618926978
 30
0.0
 10
-848.9174355051643
 20
-1196.062771587671
 30
0.0
 10
-820.5488342638727
 20
-1212.755207843958
 30
0.0
 10
-759.3276678905448
 20
-1234.187562364852
 30
0.0
 10
-677.1650530441027
 20
-1236.907445419787
 30
0.0
 10
-584.8057042607663
 20
-1200.726736238725
 30
0.0
 10
-536.6951004572942
 20
-1154.622400993027
 30
0.0
 10
-517.1766489177691
 20
-1127.756634461246
 30
0.0
  0
SPLINE
  5
676
330
1F
100
AcDbEntity
  8
Default
100
AcDbSpline
210
0.0
220
0.0
230
1.0
 70
     8
 71
     3
 72
    12
 73
     8
 74
     0
 42
0.000000001
 43
0.0000000001
 40
-14.89017236839833
 40
-14.89017236839833
 40
-14.89017236839833
 40
-14.89017236839833
 40
-11.21816917573749
 40
-7.516682162771167
 40
-3.774519558109396
 40
-1.88935509827327
 40
0.0
 40
0.0
 40
0.0
 40
0.0
 10
-517.1766489177691
 20
-1127.756634461246
 30
0.0
 10
-498.893432547995
 20
-1102.606122518596
 30
0.0
 10
-472.6296331218624
 20
-1044.541470496843
 30
0.0
 10
-470.4671989498181
 20
-948.570374278144
 30
0.0
 10
-499.5590073813241
 20
-873.5307458868557
 30
0.0
 10
-538.6205070123097
 20
-822.9318559266399
 30
0.0
 10
-562.6695898844068
 20
-801.6598217208704
 30
0.0
 10
-575.6089760928931
 20
-792.2566797359332
 30
0.0
  0
SPLINE
  5
677
330
1F
100
AcDbEntity
  8
Default
100
AcDbSpline
210
0.0
220
0.0
230
1.0
 70
    12
 71
     2
 72
     6
 73
     3
 74
     0
 42
0.000000001
 43
0.0000000001
 40
0.0
 40
0.0
 40
0.0
 40
0.0853474550214741
 40
0.0853474550214741
 40
0.0853474550214741
 10
-1037.517833140011
 20
-829.5114313275245
 30
0.0
 41
1.0
 10
-1038.437539895112
 20
-828.9370173534553
 30
0.0
 41
0.9993970637774639
 10
-1039.315165459468
 20
-828.3001615630539
 30
0.0
 41
1.0
  0
SPLINE
  5
678
330
1F
100
AcDbEntity
  8
Default
100
AcDbSpline
210
0.0
220
0.0
230
1.0
 70
     8
 71
     3
 72
    12
 73
     8
 74
     0
 42
0.000000001
 43
0.0000000001
 40
0.0
 40
0.0
 40
0.0
 40
0.0
 40
0.1510110321465192
 40
0.3037660471064116
 40
0.5900965017365678
 40
0.8249401141264362
 40
1.014583801502342
 40
1.014583801502342
 40
1.014583801502342
 40
1.014583801502342
 10
-1024.754902017813
 20
-813.4592268308976
 30
0.0
 10
-1025.711426394602
 20
-812.6099208523459
 30
0.0
 10
-1027.735862688585
 20
-811.0188415790171
 30
0.0
 10
-1032.029644189354
 20
-808.4396132087125
 30
0.0
 10
-1037.414815240631
 20
-806.4250266314937
 30
0.0
 10
-1043.553936919143
 20
-806.1952535158944
 30
0.0
 10
-1046.882231507888
 20
-807.9784488484643
 30
0.0
 10
-1047.817213928026
 20
-809.3195084418377
 30
0.0
  0
SPLINE
  5
679
330
1F
100
AcDbEntity
  8
Default
100
AcDbSpline
210
0.0
220
0.0
230
1.0
 70
     8
 71
     3
 72
    12
 73
     8
 74
     0
 42
0.000000001
 43
0.0000000001
 40
-1.014583801502342
 40
-1.014583801502342
 40
-1.014583801502342
 40
-1.014583801502342
 40
-0.8249401141264362
 40
-0.5900965017365678
 40
-0.3037660471064116
 40
-0.1510110321465192
 40
0.0
 40
0.0
 40
0.0
 40
0.0
 10
-1047.817213928026
 20
-809.3195084418377
 30
0.0
 10
-1048.803711935782
 20
-810.6231397699565
 30
0.0
 10
-1049.471131886441
 20
-814.3395736887871
 30
0.0
 10
-1047.355511738385
 20
-820.1072215678937
 30
0.0
 10
-1043.77541667402
 20
-824.6062820985741
 30
0.0
 10
-1039.995573271558
 20
-827.8928855756303
 30
0.0
 10
-1037.856781741846
 20
-829.3265683699909
 30
0.0
 10
-1036.753461468654
 20
-829.9738271307344
 30
0.0
  0
SPLINE
  5
67A
330
1F
100
AcDbEntity
  8
Default
100
AcDbSpline
210
0.0
220
0.0
230
1.0
 70
    12
 71
     2
 72
     6
 73
     3
 74
     0
 42
0.000000001
 43
0.0000000001
 40
0.0
 40
0.0
 40
0.0
 40
0.1369528492222414
 40
0.1369528492222414
 40
0.1369528492222414
 10
-1017.470433212596
 20
-819.8261805159503
 30
0.0
 41
1.0
 10
-1018.89856920667
 20
-818.8334608617681
 30
0.0
 41
0.9999966913238282
 10
-1020.29493996736
 20
-817.7953386895465
 30
0.0
 41
0.9999959461296658
  0
ARC
  5
67B
330
1F
100
AcDbEntity
  8
Default
100
AcDbCircle
 10
-1013.00003817166
 20
-807.3994545140148
 30
0.0
 40
12.7
100
AcDbArc
 50
222.487152173532
 51
234.9422552251277
  0
SPLINE
  5
67C
330
1F
100
AcDbEntity
  8
Default
100
AcDbSpline
210
0.0
220
0.0
230
1.0
 70
     8
 71
     3
 72
    14
 73
    10
 74
     0
 42
0.000000001
 43
0.0000000001
 40
0.2772630823298201
 40
0.2772630823298201
 40
0.2772630823298201
 40
0.2772630823298201
 40
1.0
 40
2.0
 40
3.0
 40
4.0
 40
5.0
 40
6.0
 40
7.0
 40
7.0
 40
7.0
 40
7.0
 10
-1022.365384065124
 20
-815.9773503105251
 30
0.0
 10
-1023.061393737736
 20
-815.217447009782
 30
0.0
 10
-1024.801475766867
 20
-813.4801818703964
 30
0.0
 10
-1027.877866167896
 20
-811.0961927858499
 30
0.0
 10
-1031.594457260237
 20
-808.9615134824809
 30
0.0
 10
-1035.579297625357
 20
-807.3702186619867
 30
0.0
 10
-1039.793499952269
 20
-806.5214833713653
 30
0.0
 10
-1044.128431867395
 20
-806.828844887871
 30
0.0
 10
-1046.670216779793
 20
-808.3732082720617
 30
0.0
 10
-1047.506065682354
 20
-809.5455864648991
 30
0.0
  0
SPLINE
  5
67D
330
1F
100
AcDbEntity
  8
Default
100
AcDbSpline
210
0.0
220
0.0
230
1.0
 70
     8
 71
     3
 72
    14
 73
    10
 74
     0
 42
0.000000001
 43
0.0000000001
 40
-7.0
 40
-7.0
 40
-7.0
 40
-7.0
 40
-6.0
 40
-5.0
 40
-4.0
 40
-3.0
 40
-2.0
 40
-1.0
 40
-0.2482205602640466
 40
-0.2482205602640466
 40
-0.2482205602640466
 40
-0.2482205602640466
 10
-1047.506065682354
 20
-809.5455864648991
 30
0.0
 10
-1048.362772086589
 20
-810.702810795734
 30
0.0
 10
-1049.046094212677
 20
-813.5974264308984
 30
0.0
 10
-1047.998844754576
 20
-817.8151716084922
 30
0.0
 10
-1045.88938938907
 20
-821.560842563961
 30
0.0
 10
-1043.144594687999
 20
-824.8589138170103
 30
0.0
 10
-1039.965904217654
 20
-827.7339498115045
 30
0.0
 10
-1036.713613991879
 20
-829.9464285021013
 30
0.0
 10
-1034.484104953124
 20
-831.0787715358996
 30
0.0
 10
-1033.507052491876
 20
-831.5195588222472
 30
0.0
  0
ARC
  5
67E
330
1F
100
AcDbEntity
  8
Default
100
AcDbCircle
 10
-1038.729654740992
 20
-843.0960188056602
 30
0.0
 40
12.7
100
AcDbArc
 50
52.97757980795096
 51
65.71796787815957
  0
SPLINE
  5
67F
330
1F
100
AcDbEntity
  8
Default
100
AcDbSpline
210
0.0
220
0.0
230
1.0
 70
    12
 71
     2
 72
     6
 73
     3
 74
     0
 42
0.000000001
 43
0.0000000001
 40
-0.1297405451143296
 40
-0.1297405451143296
 40
-0.1297405451143296
 40
0.0
 40
0.0
 40
0.0
 10
-1031.082635642484
 20
-832.9563393774424
 30
0.0
 41
0.9999960316975588
 10
-1029.767107727982
 20
-833.9484680890089
 30
0.0
 41
0.999996865512317
 10
-1028.454595578325
 20
-834.9445830076593
 30
0.0
 41
1.0
  0
SPLINE
  5
680
330
1F
100
AcDbEntity
  8
Default
100
AcDbSpline
210
0.0
220
0.0
230
1.0
 70
    12
 71
     2
 72
     6
 73
     3
 74
     0
 42
0.000000001
 43
0.0000000001
 40
-1.102413928352738
 40
-1.102413928352738
 40
-1.102413928352738
 40
0.0
 40
0.0
 40
0.0
 10
-1004.593613709161
 20
-852.6992127433347
 30
0.0
 41
0.9999999993925147
 10
-1015.835767333302
 20
-844.3394324166176
 30
0.0
 41
0.9999999996616539
 10
-1027.078851061742
 20
-835.9791746985077
 30
0.0
 41
1.0
  0
SPLINE
  5
681
330
1F
100
AcDbEntity
  8
Default
100
AcDbSpline
210
0.0
220
0.0
230
1.0
 70
     8
 71
     3
 72
    14
 73
    10
 74
     0
 42
0.000000001
 43
0.0000000001
 40
0.0
 40
0.0
 40
0.0
 40
0.0
 40
1.0
 40
2.0
 40
3.0
 40
4.0
 40
5.0
 40
6.0
 40
7.0
 40
7.0
 40
7.0
 40
7.0
 10
-1027.078851061742
 20
-835.9791746985077
 30
0.0
 10
-1028.50788875854
 20
-834.9079555983745
 30
0.0
 10
-1030.930398901399
 20
-832.5106496826871
 30
0.0
 10
-1033.397327108059
 20
-828.0250092041265
 30
0.0
 10
-1033.787837219583
 20
-822.7369024382133
 30
0.0
 10
-1030.535602105486
 20
-818.4065289147051
 30
0.0
 10
-1025.369050373121
 20
-817.2575433100867
 30
0.0
 10
-1020.355129510773
 20
-818.2812852430977
 30
0.0
 10
-1017.343159698411
 20
-819.8759708927568
 30
0.0
 10
-1015.977571936649
 20
-820.8671915187688
 30
0.0
  0
SPLINE
  5
682
330
1F
100
AcDbEntity
  8
Default
100
AcDbSpline
210
0.0
220
0.0
230
1.0
 70
    12
 71
     2
 72
     6
 73
     3
 74
     0
 42
0.000000001
 43
0.0000000001
 40
0.0
 40
0.0
 40
0.0
 40
1.112498698414412
 40
1.112498698414412
 40
1.112498698414412
 10
-1015.977571936649
 20
-820.8671915187688
 30
0.0
 41
1.0
 10
-1004.456318681353
 20
-829.0453228814842
 30
0.0
 41
0.9999999996585591
 10
-992.9349281143496
 20
-837.2232607976707
 30
0.0
 41
0.9999999993875963
  0
SPLINE
  5
683
330
1F
100
AcDbEntity
  8
Default
100
AcDbSpline
210
0.0
220
0.0
230
1.0
 70
     8
 71
     3
 72
    12
 73
     8
 74
     0
 42
0.000000001
 43
0.0000000001
 40
0.0
 40
0.0
 40
0.0
 40
0.0
 40
0.1510110321465192
 40
0.3037660471064116
 40
0.5900965017365678
 40
0.8249401141264362
 40
1.014583801502342
 40
1.014583801502342
 40
1.014583801502342
 40
1.014583801502342
 10
548.8094461565172
 20
-738.0069211099585
 30
0.0
 10
548.162187395776
 20
-736.9036008367697
 30
0.0
 10
546.7285046014152
 20
-734.7648093070581
 30
0.0
 10
543.4419011243571
 20
-730.984965904593
 30
0.0
 10
538.9428405936745
 20
-727.4048708402249
 30
0.0
 10
533.1751927145699
 20
-725.2892506921718
 30
0.0
 10
529.4587587957392
 20
-725.956670642831
 30
0.0
 10
528.1551274676258
 20
-726.9431686505875
 30
0.0
  0
SPLINE
  5
684
330
1F
100
AcDbEntity
  8
Default
100
AcDbSpline
210
0.0
220
0.0
230
1.0
 70
     8
 71
     3
 72
    12
 73
     8
 74
     0
 42
0.000000001
 43
0.0000000001
 40
-1.014583801502342
 40
-1.014583801502342
 40
-1.014583801502342
 40
-1.014583801502342
 40
-0.8249401141264362
 40
-0.5900965017365678
 40
-0.3037660471064116
 40
-0.1510110321465192
 40
0.0
 40
0.0
 40
0.0
 40
0.0
 10
528.1551274676258
 20
-726.9431686505875
 30
0.0
 10
526.8140678742471
 20
-727.8781510707248
 30
0.0
 10
525.0308725416773
 20
-731.2064456594703
 30
0.0
 10
525.2606456572745
 20
-737.345567337979
 30
0.0
 10
527.2752322344954
 20
-742.7307383892588
 30
0.0
 10
529.8544606048022
 20
-747.0245198900311
 30
0.0
 10
531.4455398781309
 20
-749.048956184014
 30
0.0
 10
532.2948458566835
 20
-750.0054805607978
 30
0.0
  0
SPLINE
  5
685
330
1F
100
AcDbEntity
  8
Default
100
AcDbSpline
210
0.0
220
0.0
230
1.0
 70
    12
 71
     2
 72
     6
 73
     3
 74
     0
 42
0.000000001
 43
0.0000000001
 40
0.0
 40
0.0
 40
0.0
 40
0.1369528492222414
 40
0.1369528492222414
 40
0.1369528492222414
 10
553.7698907903883
 20
-746.3132785568835
 30
0.0
 41
1.0
 10
552.7184199908587
 20
-744.9278277684688
 30
0.0
 41
0.9999966913238282
 10
551.7111898731984
 20
-743.5090126163714
 30
0.0
 41
0.9999959461296658
  0
ARC
  5
686
330
1F
100
AcDbEntity
  8
Default
100
AcDbCircle
 10
561.8615586435253
 20
-735.8761878557499
 30
0.0
 40
12.69999999999999
100
AcDbArc
 50
204.4871521735316
 51
216.9422552251278
  0
SPLINE
  5
687
330
1F
100
AcDbEntity
  8
Default
100
AcDbSpline
210
0.0
220
0.0
230
1.0
 70
     8
 71
     3
 72
    14
 73
    10
 74
     0
 42
0.000000001
 43
0.0000000001
 40
0.2772630823298201
 40
0.2772630823298201
 40
0.2772630823298201
 40
0.2772630823298201
 40
1.0
 40
2.0
 40
3.0
 40
4.0
 40
5.0
 40
6.0
 40
7.0
 40
7.0
 40
7.0
 40
7.0
 10
550.3038698270887
 20
-741.1402005098416
 30
0.0
 10
549.8767483265583
 20
-740.2024107068294
 30
0.0
 10
548.7586764256686
 20
-738.0124584568736
 30
0.0
 10
546.5695484296333
 20
-734.7944931879922
 30
0.0
 10
543.6945124351372
 20
-731.6158027176438
 30
0.0
 10
540.3964411820878
 20
-728.8710080165729
 30
0.0
 10
536.6507702266209
 20
-726.76155265107
 30
0.0
 10
532.4330250490251
 20
-725.714303192966
 30
0.0
 10
529.5384094138637
 20
-726.3976253190515
 30
0.0
 10
528.3811850830259
 20
-727.2543317232885
 30
0.0
  0
SPLINE
  5
688
330
1F
100
AcDbEntity
  8
Default
100
AcDbSpline
210
0.0
220
0.0
230
1.0
 70
     8
 71
     3
 72
    14
 73
    10
 74
     0
 42
0.000000001
 43
0.0000000001
 40
-7.0
 40
-7.0
 40
-7.0
 40
-7.0
 40
-6.0
 40
-5.0
 40
-4.0
 40
-3.0
 40
-2.0
 40
-1.0
 40
-0.2482205602640466
 40
-0.2482205602640466
 40
-0.2482205602640466
 40
-0.2482205602640466
 10
528.3811850830259
 20
-727.2543317232885
 30
0.0
 10
527.2088068901885
 20
-728.0901806258501
 30
0.0
 10
525.6644435059978
 20
-730.6319655382475
 30
0.0
 10
525.3570819894941
 20
-734.9668974533765
 30
0.0
 10
526.2058172801134
 20
-739.1810997802865
 30
0.0
 10
527.7971121006077
 20
-743.1659401454061
 30
0.0
 10
529.9317914039788
 20
-746.8825312377503
 30
0.0
 10
532.3412097009979
 20
-749.9917364640102
 30
0.0
 10
534.111685559537
 20
-751.7576148670706
 30
0.0
 10
534.9047069071854
 20
-752.4787543029757
 30
0.0
  0
ARC
  5
689
330
1F
100
AcDbEntity
  8
Default
100
AcDbCircle
 10
526.3603941365659
 20
-761.8747491559877
 30
0.0
 40
12.69999999999999
100
AcDbArc
 50
34.97757980796412
 51
47.71796787816663
  0
SPLINE
  5
68A
330
1F
100
AcDbEntity
  8
Default
100
AcDbSpline
210
0.0
220
0.0
230
1.0
 70
    12
 71
     2
 72
     6
 73
     3
 74
     0
 42
0.000000001
 43
0.0000000001
 40
-0.1297405451143296
 40
-0.1297405451143296
 40
-0.1297405451143296
 40
0.0
 40
0.0
 40
0.0
 10
536.7664747412704
 20
-754.5943998203886
 30
0.0
 41
0.9999960316975588
 10
537.7110315042465
 20
-755.9444907786859
 30
0.0
 41
0.999996865512317
 10
538.6514882986793
 20
-757.2974409226124
 30
0.0
 41
1.0
  0
SPLINE
  5
68B
330
1F
100
AcDbEntity
  8
Default
100
AcDbSpline
210
0.0
220
0.0
230
1.0
 70
    12
 71
     2
 72
     6
 73
     3
 74
     0
 42
0.000000001
 43
0.0000000001
 40
0.0
 40
0.0
 40
0.0
 40
0.0853474550214741
 40
0.0853474550214741
 40
0.0853474550214741
 10
531.7107733590855
 20
-749.329512182582
 30
0.0
 41
1.0
 10
531.0135839363613
 20
-748.4990070123273
 30
0.0
 41
0.9993970637774639
 10
530.3757116867139
 20
-747.6221199488421
 30
0.0
 41
1.0
  0
SPLINE
  5
68C
330
1F
100
AcDbEntity
  8
Default
100
AcDbSpline
210
0.0
220
0.0
230
1.0
 70
    12
 71
     2
 72
     6
 73
     3
 74
     0
 42
0.000000001
 43
0.0000000001
 40
0.0
 40
0.0
 40
0.0
 40
0.0587632096241838
 40
0.0587632096241838
 40
0.0587632096241838
 10
527.2588375686559
 20
-728.2217589568066
 30
0.0
 41
1.0
 10
527.7361698191416
 20
-727.6429446117766
 30
0.0
 41
0.9921107855315545
 10
528.3424786827099
 20
-727.2010603675104
 30
0.0
 41
1.0
  0
SPLINE
  5
68D
330
1F
100
AcDbEntity
  8
Default
100
AcDbSpline
210
0.0
220
0.0
230
1.0
 70
    24
 71
     2
 72
     6
 73
     3
 74
     0
 42
0.000000001
 43
0.0000000001
 40
0.0
 40
0.0
 40
0.0
 40
0.0114467396849787
 40
0.0114467396849787
 40
0.0114467396849787
 10
528.3424906356375
 20
-727.2010516831733
 30
0.0
 10
528.2570421280032
 20
-727.0834420136097
 30
0.0
 10
528.1715936203696
 20
-726.965832344041
 30
0.0
  0
SPLINE
  5
68E
330
1F
100
AcDbEntity
  8
Default
100
AcDbSpline
210
0.0
220
0.0
230
1.0
 70
    12
 71
     2
 72
     6
 73
     3
 74
     0
 42
0.000000001
 43
0.0000000001
 40
0.0
 40
0.0
 40
0.0
 40
0.0586712320260919
 40
0.0586712320260919
 40
0.0586712320260919
 10
528.3424906356375
 20
-727.2010516831733
 30
0.0
 41
1.0
 10
528.949142920046
 20
-726.7616581401419
 30
0.0
 41
0.9921343149382712
 10
529.6459227673868
 20
-726.4867190120146
 30
0.0
 41
1.0
  0
SPLINE
  5
68F
330
1F
100
AcDbEntity
  8
Default
100
AcDbSpline
210
0.0
220
0.0
230
1.0
 70
     8
 71
     3
 72
    22
 73
    18
 74
     0
 42
0.000000001
 43
0.0000000001
 40
0.0
 40
0.0
 40
0.0
 40
0.0
 40
0.2588469591229587
 40
0.6477254461891114
 40
1.024641027840087
 40
1.817983982162573
 40
2.582167143679937
 40
4.062052734317923
 40
7.850412104674
 40
9.497260537102542
 40
10.543391206404
 40
10.8432833113025
 40
12.15829953678302
 40
13.34949093133962
 40
14.77372714428499
 40
17.25709974516987
 40
21.82793658798906
 40
21.82793658798906
 40
21.82793658798906
 40
21.82793658798906
 10
785.6870878746222
 20
-1415.816655209695
 30
0.0
 10
784.5597433198429
 20
-1413.919109792377
 30
0.0
 10
780.5620214489047
 20
-1410.090507857169
 30
0.0
 10
773.2476278039811
 20
-1405.4037072269
 30
0.0
 10
761.6361492494243
 20
-1399.115168787284
 30
0.0
 10
746.8466757072004
 20
-1392.0679127391
 30
0.0
 10
724.1426575994529
 20
-1379.980391574918
 30
0.0
 10
679.4500431871352
 20
-1355.254781717626
 30
0.0
 10
629.5567353660232
 20
-1324.568538205027
 30
0.0
 10
583.4575554235457
 20
-1294.817462760993
 30
0.0
 10
562.3150699202179
 20
-1280.847062234503
 30
0.0
 10
543.6592495386583
 20
-1268.193528233814
 30
0.0
 10
526.2045655173634
 20
-1251.883395003616
 30
0.0
 10
505.2542664717636
 20
-1226.022867862711
 30
0.0
 10
480.227532799258
 20
-1190.793591938434
 30
0.0
 10
445.6457144388375
 20
-1127.658562875804
 30
0.0
 10
430.9113123667782
 20
-1068.757714340468
 30
0.0
 10
429.9337343528635
 20
-1029.982797595026
 30
0.0
  0
SPLINE
  5
690
330
1F
100
AcDbEntity
  8
Default
100
AcDbSpline
210
0.0
220
0.0
230
1.0
 70
     8
 71
     3
 72
    19
 73
    15
 74
     0
 42
0.000000001
 43
0.0000000001
 40
-12.0
 40
-12.0
 40
-12.0
 40
-12.0
 40
-11.0
 40
-10.0
 40
-9.0
 40
-8.0
 40
-7.0
 40
-6.0
 40
-5.0
 40
-4.0
 40
-3.0
 40
-2.0
 40
-1.0
 40
0.0
 40
0.0
 40
0.0
 40
0.0
 10
789.8477920162782
 20
-1466.854583701021
 30
0.0
 10
795.5853580528956
 20
-1469.315920735135
 30
0.0
 10
808.3491719866124
 20
-1465.070251133482
 30
0.0
 10
825.7007159937908
 20
-1458.132822850163
 30
0.0
 10
842.8997168884357
 20
-1449.846522492301
 30
0.0
 10
859.8612971392126
 20
-1441.342594187474
 30
0.0
 10
876.5873298125733
 20
-1432.315527566201
 30
0.0
 10
893.089035191209
 20
-1422.903848106648
 30
0.0
 10
909.3767507118867
 20
-1413.121894778933
 30
0.0
 10
925.4631321142829
 20
-1403.013986255238
 30
0.0
 10
941.3618028562027
 20
-1392.61326384955
 30
0.0
 10
957.0876615107303
 20
-1381.953400466725
 30
0.0
 10
972.6571817698989
 20
-1371.066687211241
 30
0.0
 10
982.9444506345373
 20
-1363.678582616354
 30
0.0
 10
988.0680891774089
 20
-1359.957051843431
 30
0.0
  0
SPLINE
  5
691
330
1F
100
AcDbEntity
  8
Default
100
AcDbSpline
210
0.0
220
0.0
230
1.0
 70
    12
 71
     2
 72
     6
 73
     3
 74
     0
 42
0.000000001
 43
0.0000000001
 40
-6.233889429224446
 40
-6.233889429224446
 40
-6.233889429224446
 40
0.0
 40
0.0
 40
0.0
 10
995.9463142820702
 20
-1370.800498442889
 30
0.0
 41
1.0
 10
931.8424603641267
 20
-1417.556851930775
 30
0.0
 41
0.996730330589404
 10
861.0449680716618
 20
-1453.377360945705
 30
0.0
 41
1.0
  0
SPLINE
  5
692
330
1F
100
AcDbEntity
  8
Default
100
AcDbSpline
210
0.0
220
0.0
230
1.0
 70
     8
 71
     3
 72
    12
 73
     8
 74
     0
 42
0.000000001
 43
0.0000000001
 40
0.0
 40
0.0
 40
0.0
 40
0.0
 40
0.8495817757806477
 40
1.391422022197968
 40
2.191064820612614
 40
2.689385262996221
 40
3.111933853859593
 40
3.111933853859593
 40
3.111933853859593
 40
3.111933853859593
 10
861.0449680716618
 20
-1453.377360945705
 30
0.0
 10
854.5479743892004
 20
-1456.525539797327
 30
0.0
 10
844.1242570809784
 20
-1461.902362056674
 30
0.0
 10
827.1324354671255
 20
-1469.493678619315
 30
0.0
 10
812.6145174512931
 20
-1475.031499299063
 30
0.0
 10
797.6762005087396
 20
-1476.313866084479
 30
0.0
 10
791.0670424748723
 20
-1470.488462089222
 30
0.0
 10
789.8988792627029
 20
-1466.990016026296
 30
0.0
  0
SPLINE
  5
693
330
1F
100
AcDbEntity
  8
Default
100
AcDbSpline
210
0.0
220
0.0
230
1.0
 70
    12
 71
     2
 72
     6
 73
     3
 74
     0
 42
0.000000001
 43
0.0000000001
 40
0.0
 40
0.0
 40
0.0
 40
0.443505275079806
 40
0.443505275079806
 40
0.443505275079806
 10
789.8988792627029
 20
-1466.990016026296
 30
0.0
 41
1.0
 10
787.9069835766929
 20
-1461.482962337776
 30
0.0
 41
0.9799943751373794
 10
788.2181315116072
 20
-1455.782326940469
 30
0.0
 41
1.0
  0
SPLINE
  5
694
330
1F
100
AcDbEntity
  8
Default
100
AcDbSpline
210
0.0
220
0.0
230
1.0
 70
    12
 71
     2
 72
     6
 73
     3
 74
     0
 42
0.000000001
 43
0.0000000001
 40
-5.654573080352872
 40
-5.654573080352872
 40
-5.654573080352872
 40
0.0
 40
0.0
 40
0.0
 10
874.3230096390824
 20
-1446.657456392971
 30
0.0
 41
1.0
 10
938.6397071097693
 20
-1414.365090930602
 30
0.0
 41
0.9967681786255456
 10
996.9552926507551
 20
-1372.189238027694
 30
0.0
 41
1.0
  0
SPLINE
  5
695
330
1F
100
AcDbEntity
  8
Default
100
AcDbSpline
210
0.0
220
0.0
230
1.0
 70
    12
 71
     2
 72
     6
 73
     3
 74
     0
 42
0.000000001
 43
0.0000000001
 40
-1.281345128275034
 40
-1.281345128275034
 40
-1.281345128275034
 40
0.0
 40
0.0
 40
0.0
 10
558.4903219911841
 20
-785.2651599958854
 30
0.0
 41
0.9999999993069707
 10
549.0657552008388
 20
-771.9863430930121
 30
0.0
 41
0.9999999996067375
 10
539.6401926712214
 20
-758.7065245274406
 30
0.0
 41
1.0
  0
SPLINE
  5
696
330
1F
100
AcDbEntity
  8
Default
100
AcDbSpline
210
0.0
220
0.0
230
1.0
 70
     8
 71
     3
 72
    14
 73
    10
 74
     0
 42
0.000000001
 43
0.0000000001
 40
0.0
 40
0.0
 40
0.0
 40
0.0
 40
1.0
 40
2.0
 40
3.0
 40
4.0
 40
5.0
 40
6.0
 40
7.0
 40
7.0
 40
7.0
 40
7.0
 10
539.6401926712214
 20
-758.7065245274406
 30
0.0
 10
538.6121219642906
 20
-757.2461376879663
 30
0.0
 10
537.0489861758017
 20
-754.2175674721105
 30
0.0
 10
536.0889371681512
 20
-749.1891471254564
 30
0.0
 10
537.3516548406435
 20
-744.0391844659341
 30
0.0
 10
541.7828732491852
 20
-740.9257504283685
 30
0.0
 10
547.0516120191406
 20
-741.4295524695839
 30
0.0
 10
551.5037804723156
 20
-743.9525756608962
 30
0.0
 10
553.8755490228165
 20
-746.399961698011
 30
0.0
 10
554.8679961436005
 20
-747.7646583591608
 30
0.0
  0
SPLINE
  5
697
330
1F
100
AcDbEntity
  8
Default
100
AcDbSpline
210
0.0
220
0.0
230
1.0
 70
    12
 71
     2
 72
     6
 73
     3
 74
     0
 42
0.000000001
 43
0.0000000001
 40
0.0
 40
0.0
 40
0.0
 40
1.278324852146924
 40
1.278324852146924
 40
1.278324852146924
 10
554.8679961436005
 20
-747.7646583591608
 30
0.0
 41
1.0
 10
564.5547584038474
 20
-760.7928183431836
 30
0.0
 41
0.9999999996076647
 10
574.2417720149068
 20
-773.8207914378286
 30
0.0
 41
0.9999999993083845
  0
SPLINE
  5
698
330
1F
100
AcDbEntity
  8
Default
100
AcDbSpline
210
0.0
220
0.0
230
1.0
 70
     8
 71
     3
 72
    47
 73
    43
 74
     0
 42
0.000000001
 43
0.0000000001
 40
36.00001859489052
 40
36.00001859489052
 40
36.00001859489052
 40
36.00001859489052
 40
37.0
 40
38.0
 40
39.0
 40
40.0
 40
41.0
 40
42.0
 40
43.0
 40
44.0
 40
45.0
 40
46.0
 40
47.0
 40
48.0
 40
49.0
 40
50.0
 40
51.0
 40
52.0
 40
53.0
 40
53.0
 40
53.0
 40
54.0
 40
55.0
 40
56.0
 40
57.0
 40
58.0
 40
59.0
 40
60.0
 40
60.0
 40
60.0
 40
61.0
 40
62.0
 40
63.0
 40
64.0
 40
65.0
 40
66.0
 40
67.0
 40
68.0
 40
69.0
 40
70.0
 40
71.0
 40
72.0
 40
72.0
 40
72.0
 40
72.0
 10
566.3081865058339
 20
-779.4563493214464
 30
0.0
 10
557.2481024110441
 20
-786.0154922475595
 30
0.0
 10
539.6863331483408
 20
-799.9065004461811
 30
0.0
 10
515.2512034251058
 20
-822.9524716726137
 30
0.0
 10
493.0290683834211
 20
-848.1477424851151
 30
0.0
 10
473.4132782402824
 20
-875.4267789823453
 30
0.0
 10
456.8446467285399
 20
-904.675511124522
 30
0.0
 10
443.9925759455295
 20
-935.7357378557471
 30
0.0
 10
434.8436484069631
 20
-968.0885436977151
 30
0.0
 10
430.024790118254
 20
-1001.369514297445
 30
0.0
 10
429.4671239448093
 20
-1034.990359707289
 30
0.0
 10
433.5414577466059
 20
-1068.393613042864
 30
0.0
 10
442.6428993687538
 20
-1100.781776188413
 30
0.0
 10
455.6655144546217
 20
-1131.757368594935
 30
0.0
 10
471.3948314339504
 20
-1161.425931899213
 30
0.0
 10
489.2539068736612
 20
-1189.865690724339
 30
0.0
 10
508.9169298339689
 20
-1217.055290194206
 30
0.0
 10
529.7661131828213
 20
-1243.413652922536
 30
0.0
 10
546.2430709076528
 20
-1258.677753591969
 30
0.0
 10
555.2661104680676
 20
-1265.301069639503
 30
0.0
 10
564.1119690930175
 20
-1271.820368354836
 30
0.0
 10
581.8681279742982
 20
-1284.772199065855
 30
0.0
 10
608.8242746245825
 20
-1303.751672196705
 30
0.0
 10
636.144676236881
 20
-1322.203460844392
 30
0.0
 10
663.867893471349
 20
-1340.046100709866
 30
0.0
 10
692.0406461192128
 20
-1357.169135658421
 30
0.0
 10
720.6647980460736
 20
-1373.533511703775
 30
0.0
 10
740.1829635200746
 20
-1383.644748735559
 30
0.0
 10
750.0119526844156
 20
-1388.5576290972
 30
0.0
 10
752.0265321192367
 20
-1389.569522064056
 30
0.0
 10
756.0505160504403
 20
-1391.603831165731
 30
0.0
 10
762.0214196829514
 20
-1394.781986935889
 30
0.0
 10
767.8783446641552
 20
-1398.166251048348
 30
0.0
 10
773.5406881470424
 20
-1401.876300090289
 30
0.0
 10
778.8471294528773
 20
-1406.072358766894
 30
0.0
 10
783.5712713985119
 20
-1410.9878081535
 30
0.0
 10
786.6046460881475
 20
-1417.115691429081
 30
0.0
 10
787.8157015766194
 20
-1423.805216635367
 30
0.0
 10
789.0106214342365
 20
-1430.453903198574
 30
0.0
 10
789.6412092595796
 20
-1437.199039764689
 30
0.0
 10
789.6620870208392
 20
-1443.966050504076
 30
0.0
 10
788.3410038534902
 20
-1453.531145611939
 30
0.0
 10
788.2181315116072
 20
-1455.782326940469
 30
0.0
  0
SPLINE
  5
699
330
1F
100
AcDbEntity
  8
Default
100
AcDbSpline
210
0.0
220
0.0
230
1.0
 70
     8
 71
     3
 72
    12
 73
     8
 74
     0
 42
0.000000001
 43
0.0000000001
 40
0.0
 40
0.0
 40
0.0
 40
0.0
 40
1.918305221504867
 40
3.868777778011241
 40
7.624449324857683
 40
11.42846767657462
 40
15.35241906764609
 40
15.35241906764609
 40
15.35241906764609
 40
15.35241906764609
 10
862.0480101206586
 20
-1186.50618926978
 30
0.0
 10
848.917435505165
 20
-1196.06277158767
 30
0.0
 10
820.5488342638732
 20
-1212.755207843958
 30
0.0
 10
759.3276678905456
 20
-1234.187562364851
 30
0.0
 10
677.1650530441034
 20
-1236.907445419787
 30
0.0
 10
584.805704260767
 20
-1200.726736238725
 30
0.0
 10
536.6951004572948
 20
-1154.622400993027
 30
0.0
 10
517.1766489177696
 20
-1127.756634461246
 30
0.0
  0
SPLINE
  5
69A
330
1F
100
AcDbEntity
  8
Default
100
AcDbSpline
210
0.0
220
0.0
230
1.0
 70
     8
 71
     3
 72
    12
 73
     8
 74
     0
 42
0.000000001
 43
0.0000000001
 40
-14.89017236839833
 40
-14.89017236839833
 40
-14.89017236839833
 40
-14.89017236839833
 40
-11.21816917573749
 40
-7.516682162771167
 40
-3.774519558109396
 40
-1.88935509827327
 40
0.0
 40
0.0
 40
0.0
 40
0.0
 10
517.1766489177696
 20
-1127.756634461246
 30
0.0
 10
498.8934325479955
 20
-1102.606122518596
 30
0.0
 10
472.6296331218629
 20
-1044.541470496843
 30
0.0
 10
470.4671989498184
 20
-948.5703742781446
 30
0.0
 10
499.5590073813243
 20
-873.5307458868559
 30
0.0
 10
538.6205070123097
 20
-822.9318559266401
 30
0.0
 10
562.6695898844068
 20
-801.6598217208706
 30
0.0
 10
575.6089760928931
 20
-792.2566797359333
 30
0.0
  0
SPLINE
  5
69B
330
1F
100
AcDbEntity
  8
Default
100
AcDbSpline
210
0.0
220
0.0
230
1.0
 70
    12
 71
     2
 72
     6
 73
     3
 74
     0
 42
0.000000001
 43
0.0000000001
 40
0.0
 40
0.0
 40
0.0
 40
0.0853474550214741
 40
0.0853474550214741
 40
0.0853474550214741
 10
1037.596880183395
 20
-829.454000288792
 30
0.0
 41
1.0
 10
1038.516586938497
 20
-828.8795863147226
 30
0.0
 41
0.9993970637774639
 10
1039.394212502852
 20
-828.2427305243214
 30
0.0
 41
1.0
  0
SPLINE
  5
69C
330
1F
100
AcDbEntity
  8
Default
100
AcDbSpline
210
0.0
220
0.0
230
1.0
 70
     8
 71
     3
 72
    12
 73
     8
 74
     0
 42
0.000000001
 43
0.0000000001
 40
0.0
 40
0.0
 40
0.0
 40
0.0
 40
0.1510110321465192
 40
0.3037660471064116
 40
0.5900965017365678
 40
0.8249401141264362
 40
1.014583801502342
 40
1.014583801502342
 40
1.014583801502342
 40
1.014583801502342
 10
1024.833949061197
 20
-813.4017957921653
 30
0.0
 10
1025.790473437986
 20
-812.5524898136134
 30
0.0
 10
1027.814909731969
 20
-810.9614105402847
 30
0.0
 10
1032.108691232738
 20
-808.38218216998
 30
0.0
 10
1037.493862284015
 20
-806.3675955927612
 30
0.0
 10
1043.632983962527
 20
-806.1378224771619
 30
0.0
 10
1046.961278551272
 20
-807.9210178097318
 30
0.0
 10
1047.896260971411
 20
-809.2620774031052
 30
0.0
  0
SPLINE
  5
69D
330
1F
100
AcDbEntity
  8
Default
100
AcDbSpline
210
0.0
220
0.0
230
1.0
 70
     8
 71
     3
 72
    12
 73
     8
 74
     0
 42
0.000000001
 43
0.0000000001
 40
-1.014583801502342
 40
-1.014583801502342
 40
-1.014583801502342
 40
-1.014583801502342
 40
-0.8249401141264362
 40
-0.5900965017365678
 40
-0.3037660471064116
 40
-0.1510110321465192
 40
0.0
 40
0.0
 40
0.0
 40
0.0
 10
1047.896260971411
 20
-809.2620774031052
 30
0.0
 10
1048.882758979166
 20
-810.5657087312239
 30
0.0
 10
1049.550178929826
 20
-814.2821426500544
 30
0.0
 10
1047.43455878177
 20
-820.0497905291612
 30
0.0
 10
1043.854463717404
 20
-824.5488510598418
 30
0.0
 10
1040.074620314942
 20
-827.8354545368976
 30
0.0
 10
1037.935828785231
 20
-829.2691373312585
 30
0.0
 10
1036.832508512039
 20
-829.9163960920017
 30
0.0
  0
SPLINE
  5
69E
330
1F
100
AcDbEntity
  8
Default
100
AcDbSpline
210
0.0
220
0.0
230
1.0
 70
    12
 71
     2
 72
     6
 73
     3
 74
     0
 42
0.000000001
 43
0.0000000001
 40
0.0
 40
0.0
 40
0.0
 40
0.1369528492222414
 40
0.1369528492222414
 40
0.1369528492222414
 10
1017.54948025598
 20
-819.768749477218
 30
0.0
 41
1.0
 10
1018.977616250055
 20
-818.7760298230355
 30
0.0
 41
0.9999966913238282
 10
1020.373987010745
 20
-817.7379076508142
 30
0.0
 41
0.9999959461296658
  0
ARC
  5
69F
330
1F
100
AcDbEntity
  8
Default
100
AcDbCircle
 10
1013.079085215045
 20
-807.3420234752823
 30
0.0
 40
12.69999999999999
100
AcDbArc
 50
305.0577447748724
 51
317.512847826468
  0
SPLINE
  5
6A0
330
1F
100
AcDbEntity
  8
Default
100
AcDbSpline
210
0.0
220
0.0
230
1.0
 70
     8
 71
     3
 72
    14
 73
    10
 74
     0
 42
0.000000001
 43
0.0000000001
 40
0.2772630823298201
 40
0.2772630823298201
 40
0.2772630823298201
 40
0.2772630823298201
 40
1.0
 40
2.0
 40
3.0
 40
4.0
 40
5.0
 40
6.0
 40
7.0
 40
7.0
 40
7.0
 40
7.0
 10
1022.444431108509
 20
-815.9199192717926
 30
0.0
 10
1023.14044078112
 20
-815.1600159710495
 30
0.0
 10
1024.880522810251
 20
-813.4227508316639
 30
0.0
 10
1027.95691321128
 20
-811.0387617471173
 30
0.0
 10
1031.673504303621
 20
-808.9040824437486
 30
0.0
 10
1035.658344668741
 20
-807.3127876232543
 30
0.0
 10
1039.872546995654
 20
-806.4640523326326
 30
0.0
 10
1044.20747891078
 20
-806.7714138491385
 30
0.0
 10
1046.749263823177
 20
-808.3157772333292
 30
0.0
 10
1047.585112725739
 20
-809.4881554261666
 30
0.0
  0
SPLINE
  5
6A1
330
1F
100
AcDbEntity
  8
Default
100
AcDbSpline
210
0.0
220
0.0
230
1.0
 70
     8
 71
     3
 72
    14
 73
    10
 74
     0
 42
0.000000001
 43
0.0000000001
 40
-7.0
 40
-7.0
 40
-7.0
 40
-7.0
 40
-6.0
 40
-5.0
 40
-4.0
 40
-3.0
 40
-2.0
 40
-1.0
 40
-0.2482205602640466
 40
-0.2482205602640466
 40
-0.2482205602640466
 40
-0.2482205602640466
 10
1047.585112725739
 20
-809.4881554261666
 30
0.0
 10
1048.441819129974
 20
-810.6453797570015
 30
0.0
 10
1049.125141256062
 20
-813.5399953921657
 30
0.0
 10
1048.07789179796
 20
-817.7577405697595
 30
0.0
 10
1045.968436432455
 20
-821.5034115252285
 30
0.0
 10
1043.223641731384
 20
-824.801482778278
 30
0.0
 10
1040.044951261038
 20
-827.6765187727718
 30
0.0
 10
1036.792661035264
 20
-829.8889974633686
 30
0.0
 10
1034.563151996509
 20
-831.0213404971673
 30
0.0
 10
1033.586099535261
 20
-831.4621277835145
 30
0.0
  0
ARC
  5
6A2
330
1F
100
AcDbEntity
  8
Default
100
AcDbCircle
 10
1038.808701784376
 20
-843.0385877669278
 30
0.0
 40
12.69999999999999
100
AcDbArc
 50
114.2820321218404
 51
127.022420192049
  0
SPLINE
  5
6A3
330
1F
100
AcDbEntity
  8
Default
100
AcDbSpline
210
0.0
220
0.0
230
1.0
 70
    12
 71
     2
 72
     6
 73
     3
 74
     0
 42
0.000000001
 43
0.0000000001
 40
-0.1297405451143296
 40
-0.1297405451143296
 40
-0.1297405451143296
 40
0.0
 40
0.0
 40
0.0
 10
1031.161682685868
 20
-832.8989083387099
 30
0.0
 41
0.9999960316975588
 10
1029.846154771367
 20
-833.8910370502762
 30
0.0
 41
0.999996865512317
 10
1028.533642621709
 20
-834.8871519689271
 30
0.0
 41
1.0
  0
SPLINE
  5
6A4
330
1F
100
AcDbEntity
  8
Default
100
AcDbSpline
210
0.0
220
0.0
230
1.0
 70
     8
 71
     3
 72
    22
 73
    18
 74
     0
 42
0.000000001
 43
0.0000000001
 40
0.0
 40
0.0
 40
0.0
 40
0.0
 40
0.2588469591229587
 40
0.6477254461891114
 40
1.024641027840087
 40
1.817983982162573
 40
2.582167143679937
 40
4.062052734317923
 40
7.850412104674
 40
9.497260537102542
 40
10.543391206404
 40
10.8432833113025
 40
12.15829953678302
 40
13.34949093133962
 40
14.77372714428499
 40
17.25709974516987
 40
21.82793658798906
 40
21.82793658798906
 40
21.82793658798906
 40
21.82793658798906
 10
1103.73099340217
 20
-1184.744232071011
 30
0.0
 10
1102.274689094006
 20
-1183.085689904529
 30
0.0
 10
1099.86883627213
 20
-1178.100527406162
 30
0.0
 10
1097.671695931967
 20
-1169.695824623409
 30
0.0
 10
1095.279084674175
 20
-1156.709387032655
 30
0.0
 10
1093.146944549956
 20
-1140.466039965148
 30
0.0
 10
1088.666956216795
 20
-1115.137986138092
 30
0.0
 10
1078.962281219099
 20
-1064.992150328803
 30
0.0
 10
1065.195809388126
 20
-1008.058224067093
 30
0.0
 10
1051.146285249262
 20
-955.0217106737996
 30
0.0
 10
1044.393032117145
 20
-930.5969208842739
 30
0.0
 10
1038.123771693536
 20
-908.9440242984455
 30
0.0
 10
1028.005707197338
 20
-887.3035249714693
 30
0.0
 10
1009.884882787481
 20
-859.3872641757855
 30
0.0
 10
984.1135363738375
 20
-824.69898107484
 30
0.0
 10
934.7549251470967
 20
-772.2999204571179
 30
0.0
 10
883.290069974471
 20
-740.0853081722496
 30
0.0
 10
846.7150209545437
 20
-727.1734680021141
 30
0.0
  0
SPLINE
  5
6A5
330
1F
100
AcDbEntity
  8
Default
100
AcDbSpline
210
0.0
220
0.0
230
1.0
 70
     8
 71
     3
 72
    19
 73
    15
 74
     0
 42
0.000000001
 43
0.0000000001
 40
-12.0
 40
-12.0
 40
-12.0
 40
-12.0
 40
-11.0
 40
-10.0
 40
-9.0
 40
-8.0
 40
-7.0
 40
-6.0
 40
-5.0
 40
-4.0
 40
-3.0
 40
-2.0
 40
-1.0
 40
0.0
 40
0.0
 40
0.0
 40
0.0
 10
1150.985219583714
 20
-1204.472884118823
 30
0.0
 10
1151.553084797143
 20
-1210.690228658047
 30
0.0
 10
1143.570977637897
 20
-1221.517353013075
 30
0.0
 10
1131.611169285853
 20
-1235.875868772081
 30
0.0
 10
1118.415645771814
 20
-1249.672483015626
 30
0.0
 10
1105.086512794457
 20
-1263.176046074652
 30
0.0
 10
1091.332633916726
 20
-1276.29393144509
 30
0.0
 10
1077.28228743927
 20
-1289.079616976812
 30
0.0
 10
1062.945916089417
 20
-1301.547365141868
 30
0.0
 10
1048.361758590504
 20
-1313.722907486817
 30
0.0
 10
1033.557124325173
 20
-1325.629441919217
 30
0.0
 10
1018.559434216733
 20
-1337.291543323934
 30
0.0
 10
1003.394308279721
 20
-1348.734857613174
 30
0.0
 10
993.1888623568061
 20
-1356.235581825729
 30
0.0
 10
988.066184881843
 20
-1359.958435395145
 30
0.0
  0
SPLINE
  5
6A6
330
1F
100
AcDbEntity
  8
Default
100
AcDbSpline
210
0.0
220
0.0
230
1.0
 70
    12
 71
     2
 72
     6
 73
     3
 74
     0
 42
0.000000001
 43
0.0000000001
 40
-6.233889429224446
 40
-6.233889429224446
 40
-6.233889429224446
 40
0.0
 40
0.0
 40
0.0
 10
995.9444099865043
 20
-1370.801881994603
 30
0.0
 41
1.0
 10
1060.221524914931
 20
-1324.28400182907
 30
0.0
 41
0.996730330589404
 10
1116.16648170809
 20
-1268.020731479739
 30
0.0
 41
1.0
  0
SPLINE
  5
6A7
330
1F
100
AcDbEntity
  8
Default
100
AcDbSpline
210
0.0
220
0.0
230
1.0
 70
     8
 71
     3
 72
    12
 73
     8
 74
     0
 42
0.000000001
 43
0.0000000001
 40
0.0
 40
0.0
 40
0.0
 40
0.0
 40
0.8495817757806477
 40
1.391422022197968
 40
2.191064820612614
 40
2.689385262996221
 40
3.111933853859593
 40
3.111933853859593
 40
3.111933853859593
 40
3.111933853859593
 10
1116.16648170809
 20
-1268.020731479739
 30
0.0
 10
1121.168259179616
 20
-1262.814564068189
 30
0.0
 10
1129.503026819129
 20
-1254.562549252058
 30
0.0
 10
1141.973559547356
 20
-1240.748212410014
 30
0.0
 10
1151.726623380739
 20
-1228.652132579861
 30
0.0
 10
1157.562420470898
 20
-1214.841222038879
 30
0.0
 10
1154.064474192131
 20
-1206.755390389911
 30
0.0
 10
1151.098236551842
 20
-1204.563321867532
 30
0.0
  0
SPLINE
  5
6A8
330
1F
100
AcDbEntity
  8
Default
100
AcDbSpline
210
0.0
220
0.0
230
1.0
 70
    12
 71
     2
 72
     6
 73
     3
 74
     0
 42
0.000000001
 43
0.0000000001
 40
0.0
 40
0.0
 40
0.0
 40
0.443505275079806
 40
0.443505275079806
 40
0.443505275079806
 10
1151.098236551842
 20
-1204.563321867532
 30
0.0
 41
1.0
 10
1146.476246873787
 20
-1200.967143316884
 30
0.0
 41
0.9799943751373794
 10
1140.958470432503
 20
-1199.501469371413
 30
0.0
 41
1.0
  0
SPLINE
  5
6A9
330
1F
100
AcDbEntity
  8
Default
100
AcDbSpline
210
0.0
220
0.0
230
1.0
 70
    12
 71
     2
 72
     6
 73
     3
 74
     0
 42
0.000000001
 43
0.0000000001
 40
-5.654573080352872
 40
-5.654573080352872
 40
-5.654573080352872
 40
0.0
 40
0.0
 40
0.0
 10
1105.672332197982
 20
-1278.5723347287
 30
0.0
 41
1.0
 10
1055.085515057897
 20
-1329.762259248343
 30
0.0
 41
0.9967681786255456
 10
996.9533883551893
 20
-1372.190621579408
 30
0.0
 41
1.0
  0
SPLINE
  5
6AA
330
1F
100
AcDbEntity
  8
Default
100
AcDbSpline
210
0.0
220
0.0
230
1.0
 70
    12
 71
     2
 72
     6
 73
     3
 74
     0
 42
0.000000001
 43
0.0000000001
 40
-1.102413928352738
 40
-1.102413928352738
 40
-1.102413928352738
 40
0.0
 40
0.0
 40
0.0
 10
1004.672660752546
 20
-852.6417817046024
 30
0.0
 41
0.9999999993925147
 10
1015.914814376687
 20
-844.2820013778852
 30
0.0
 41
0.9999999996616539
 10
1027.157898105127
 20
-835.9217436597752
 30
0.0
 41
1.0
  0
SPLINE
  5
6AB
330
1F
100
AcDbEntity
  8
Default
100
AcDbSpline
210
0.0
220
0.0
230
1.0
 70
     8
 71
     3
 72
    14
 73
    10
 74
     0
 42
0.000000001
 43
0.0000000001
 40
0.0
 40
0.0
 40
0.0
 40
0.0
 40
1.0
 40
2.0
 40
3.0
 40
4.0
 40
5.0
 40
6.0
 40
7.0
 40
7.0
 40
7.0
 40
7.0
 10
1027.157898105127
 20
-835.9217436597752
 30
0.0
 10
1028.586935801924
 20
-834.850524559642
 30
0.0
 10
1031.009445944783
 20
-832.4532186439546
 30
0.0
 10
1033.476374151443
 20
-827.967578165394
 30
0.0
 10
1033.866884262967
 20
-822.6794713994809
 30
0.0
 10
1030.61464914887
 20
-818.3490978759726
 30
0.0
 10
1025.448097416506
 20
-817.2001122713544
 30
0.0
 10
1020.434176554157
 20
-818.2238542043654
 30
0.0
 10
1017.422206741795
 20
-819.8185398540243
 30
0.0
 10
1016.056618980033
 20
-820.8097604800363
 30
0.0
  0
SPLINE
  5
6AC
330
1F
100
AcDbEntity
  8
Default
100
AcDbSpline
210
0.0
220
0.0
230
1.0
 70
    12
 71
     2
 72
     6
 73
     3
 74
     0
 42
0.000000001
 43
0.0000000001
 40
0.0
 40
0.0
 40
0.0
 40
1.112498698414412
 40
1.112498698414412
 40
1.112498698414412
 10
1016.056618980033
 20
-820.8097604800363
 30
0.0
 41
1.0
 10
1004.535365724738
 20
-828.9878918427518
 30
0.0
 41
0.9999999996585591
 10
993.0139751577339
 20
-837.1658297589384
 30
0.0
 41
0.9999999993875963
  0
SPLINE
  5
6AD
330
1F
100
AcDbEntity
  8
Default
100
AcDbSpline
210
0.0
220
0.0
230
1.0
 70
     8
 71
     3
 72
    47
 73
    43
 74
     0
 42
0.000000001
 43
0.0000000001
 40
36.00001859489052
 40
36.00001859489052
 40
36.00001859489052
 40
36.00001859489052
 40
37.0
 40
38.0
 40
39.0
 40
40.0
 40
41.0
 40
42.0
 40
43.0
 40
44.0
 40
45.0
 40
46.0
 40
47.0
 40
48.0
 40
49.0
 40
50.0
 40
51.0
 40
52.0
 40
53.0
 40
53.0
 40
53.0
 40
54.0
 40
55.0
 40
56.0
 40
57.0
 40
58.0
 40
59.0
 40
60.0
 40
60.0
 40
60.0
 40
61.0
 40
62.0
 40
63.0
 40
64.0
 40
65.0
 40
66.0
 40
67.0
 40
68.0
 40
69.0
 40
70.0
 40
71.0
 40
72.0
 40
72.0
 40
72.0
 40
72.0
 10
566.3081865058339
 20
-779.4563493214464
 30
0.0
 10
575.3460220827811
 20
-772.8665839376176
 30
0.0
 10
593.9840411014565
 20
-760.4569064450275
 30
0.0
 10
623.4529325549418
 20
-744.3393138560711
 30
0.0
 10
654.2820764201679
 20
-730.990574377628
 30
0.0
 10
686.2875943514345
 20
-720.7645352075362
 30
0.0
 10
719.224780359288
 20
-714.0451855380534
 30
0.0
 10
752.7363196744844
 20
-711.4202777810723
 30
0.0
 10
786.3328405806419
 20
-712.7166974492877
 30
0.0
 10
819.4740336428388
 20
-718.4180763773176
 30
0.0
 10
851.6216860780049
 20
-728.2771169260403
 30
0.0
 10
882.1310294427496
 20
-742.4742115859047
 30
0.0
 10
910.1215029186001
 20
-761.1386897768915
 30
0.0
 10
935.5568325501883
 20
-783.0959171779566
 30
0.0
 10
958.9126867533144
 20
-807.2234768477297
 30
0.0
 10
980.441746891118
 20
-832.996835712562
 30
0.0
 10
1000.224384386871
 20
-860.0995301354611
 30
0.0
 10
1018.849925044885
 20
-888.0734638457726
 30
0.0
 10
1028.275287499365
 20
-908.4608483693981
 30
0.0
 10
1031.786162820768
 20
-919.0889861579238
 30
0.0
 10
1035.252863700713
 20
-929.5164717398531
 30
0.0
 10
1042.083831847242
 20
-950.4059181462391
 30
0.0
 10
1051.804476026384
 20
-981.9077168139148
 30
0.0
 10
1060.910701465719
 20
-1013.592879063842
 30
0.0
 10
1069.313115113487
 20
-1045.472904410292
 30
0.0
 10
1076.892229733548
 20
-1077.558093192394
 30
0.0
 10
1083.610326811616
 20
-1109.838149706214
 30
0.0
 10
1087.19523984801
 20
-1131.525572243365
 30
0.0
 10
1088.830342040419
 20
-1142.391659959784
 30
0.0
 10
1089.170170158463
 20
-1144.620330982111
 30
0.0
 10
1089.861433665936
 20
-1149.076003205579
 30
0.0
 10
1091.038928726725
 20
-1155.736774157199
 30
0.0
 10
1092.447665809771
 20
-1162.352835950227
 30
0.0
 10
1094.226371762684
 20
-1168.884512821053
 30
0.0
 10
1096.57728016667
 20
-1175.227891843771
 30
0.0
 10
1099.792310191279
 20
-1181.239775220521
 30
0.0
 10
1104.682909182212
 20
-1186.018306057164
 30
0.0
 10
1110.670788993503
 20
-1189.237265244112
 30
0.0
 10
1116.624815131325
 20
-1192.428258699453
 30
0.0
 10
1122.844958861353
 20
-1195.112345188151
 30
0.0
 10
1129.274316937852
 20
-1197.223322438631
 30
0.0
 10
1138.779500118862
 20
-1198.922674624898
 30
0.0
 10
1140.958470432503
 20
-1199.501469371413
 30
0.0
  0
SPLINE
  5
6AE
330
1F
100
AcDbEntity
  8
Default
100
AcDbSpline
210
0.0
220
0.0
230
1.0
 70
     8
 71
     3
 72
    12
 73
     8
 74
     0
 42
0.000000001
 43
0.0000000001
 40
0.0
 40
0.0
 40
0.0
 40
0.0
 40
1.918305221504867
 40
3.868777778011241
 40
7.624449324857683
 40
11.42846767657462
 40
15.35241906764609
 40
15.35241906764609
 40
15.35241906764609
 40
15.35241906764609
 10
862.0469578351665
 20
-1186.506953799941
 30
0.0
 10
875.1933784242032
 20
-1176.972181593548
 30
0.0
 10
899.8352085887924
 20
-1155.150285005552
 30
0.0
 10
939.1369698402504
 20
-1103.548457567433
 30
0.0
 10
967.1133766330409
 20
-1026.247657408563
 30
0.0
 10
961.2440857656661
 20
-927.2282429019083
 30
0.0
 10
932.2632514857017
 20
-867.2253165464416
 30
0.0
 10
912.7439223899843
 20
-840.3601875965549
 30
0.0
  0
SPLINE
  5
6AF
330
1F
100
AcDbEntity
  8
Default
100
AcDbSpline
210
0.0
220
0.0
230
1.0
 70
     8
 71
     3
 72
    12
 73
     8
 74
     0
 42
0.000000001
 43
0.0000000001
 40
-14.89017236839833
 40
-14.89017236839833
 40
-14.89017236839833
 40
-14.89017236839833
 40
-11.21816917573749
 40
-7.516682162771167
 40
-3.774519558109396
 40
-1.88935509827327
 40
0.0
 40
0.0
 40
0.0
 40
0.0
 10
912.7439223899843
 20
-840.3601875965549
 30
0.0
 10
894.4741886888619
 20
-815.1998799217381
 30
0.0
 10
847.3673833766936
 20
-772.2785580876566
 30
0.0
 10
756.7616758502893
 20
-740.5652612769033
 30
0.0
 10
676.4048850859519
 20
-745.0446948320085
 30
0.0
 10
616.2118138602421
 20
-766.5584716981035
 30
0.0
 10
588.5493318073822
 20
-782.8570886000257
 30
0.0
 10
575.607922113756
 20
-792.2574454966
 30
0.0
  0
SPLINE
  5
6B0
330
1F
100
AcDbEntity
  8
Default
100
AcDbSpline
210
0.0
220
0.0
230
1.0
 70
    12
 71
     2
 72
     6
 73
     3
 74
     0
 42
0.000000001
 43
0.0000000001
 40
0.0
 40
0.0
 40
0.0
 40
0.0853474550214741
 40
0.0853474550214741
 40
0.0853474550214741
 10
468.3016096980291
 20
-1243.071225288726
 30
0.0
 41
1.0
 10
467.4711045277715
 20
-1243.768414711453
 30
0.0
 41
0.9993970637774639
 10
466.5942174642863
 20
-1244.406286961101
 30
0.0
 41
1.0
  0
SPLINE
  5
6B1
330
1F
100
AcDbEntity
  8
Default
100
AcDbSpline
210
0.0
220
0.0
230
1.0
 70
     8
 71
     3
 72
    12
 73
     8
 74
     0
 42
0.000000001
 43
0.0000000001
 40
0.0
 40
0.0
 40
0.0
 40
0.0
 40
0.1510110321465192
 40
0.3037660471064116
 40
0.5900965017365678
 40
0.8249401141264362
 40
1.014583801502342
 40
1.014583801502342
 40
1.014583801502342
 40
1.014583801502342
 10
456.9790186254055
 20
-1225.972552491295
 30
0.0
 10
455.8756983522139
 20
-1226.619811252038
 30
0.0
 10
453.7369068225022
 20
-1228.053494046399
 30
0.0
 10
449.9570634200402
 20
-1231.340097523455
 30
0.0
 10
446.3769683556749
 20
-1235.839158054135
 30
0.0
 10
444.261348207619
 20
-1241.606805933242
 30
0.0
 10
444.9287681582782
 20
-1245.323239852073
 30
0.0
 10
445.9152661660318
 20
-1246.626871180188
 30
0.0
  0
SPLINE
  5
6B2
330
1F
100
AcDbEntity
  8
Default
100
AcDbSpline
210
0.0
220
0.0
230
1.0
 70
     8
 71
     3
 72
    12
 73
     8
 74
     0
 42
0.000000001
 43
0.0000000001
 40
-1.014583801502342
 40
-1.014583801502342
 40
-1.014583801502342
 40
-1.014583801502342
 40
-0.8249401141264362
 40
-0.5900965017365678
 40
-0.3037660471064116
 40
-0.1510110321465192
 40
0.0
 40
0.0
 40
0.0
 40
0.0
 10
445.9152661660318
 20
-1246.626871180188
 30
0.0
 10
446.850248586172
 20
-1247.967930773565
 30
0.0
 10
450.1785431749175
 20
-1249.751126106135
 30
0.0
 10
456.3176648534293
 20
-1249.521352990536
 30
0.0
 10
461.702835904706
 20
-1247.506766413317
 30
0.0
 10
465.9966174054752
 20
-1244.927538043012
 30
0.0
 10
468.0210536994582
 20
-1243.336458769684
 30
0.0
 10
468.977578076247
 20
-1242.487152791131
 30
0.0
  0
SPLINE
  5
6B3
330
1F
100
AcDbEntity
  8
Default
100
AcDbSpline
210
0.0
220
0.0
230
1.0
 70
    12
 71
     2
 72
     6
 73
     3
 74
     0
 42
0.000000001
 43
0.0000000001
 40
0.0
 40
0.0
 40
0.0
 40
0.1369528492222414
 40
0.1369528492222414
 40
0.1369528492222414
 10
465.2853760723307
 20
-1221.012107857424
 30
0.0
 41
1.0
 10
463.8999252839188
 20
-1222.063578656951
 30
0.0
 41
0.9999966913238282
 10
462.4811101318157
 20
-1223.070808774616
 30
0.0
 41
0.9999959461296658
  0
ARC
  5
6B4
330
1F
100
AcDbEntity
  8
Default
100
AcDbCircle
 10
454.8482853711941
 20
-1212.920440004289
 30
0.0
 40
12.69999999999999
100
AcDbArc
 50
294.4871521735321
 51
306.9422552251277
  0
SPLINE
  5
6B5
330
1F
100
AcDbEntity
  8
Default
100
AcDbSpline
210
0.0
220
0.0
230
1.0
 70
     8
 71
     3
 72
    14
 73
    10
 74
     0
 42
0.000000001
 43
0.0000000001
 40
0.2772630823298201
 40
0.2772630823298201
 40
0.2772630823298201
 40
0.2772630823298201
 40
1.0
 40
2.0
 40
3.0
 40
4.0
 40
5.0
 40
6.0
 40
7.0
 40
7.0
 40
7.0
 40
7.0
 10
460.1122980252858
 20
-1224.478128820726
 30
0.0
 10
459.1745082222738
 20
-1224.905250321256
 30
0.0
 10
456.9845559723208
 20
-1226.023322222143
 30
0.0
 10
453.7665907034364
 20
-1228.212450218181
 30
0.0
 10
450.5879002330909
 20
-1231.087486212675
 30
0.0
 10
447.8431055320199
 20
-1234.385557465724
 30
0.0
 10
445.7336501665142
 20
-1238.131228421193
 30
0.0
 10
444.6864007084132
 20
-1242.348973598787
 30
0.0
 10
445.3697228344986
 20
-1245.243589233948
 30
0.0
 10
446.2264292387379
 20
-1246.400813564789
 30
0.0
  0
SPLINE
  5
6B6
330
1F
100
AcDbEntity
  8
Default
100
AcDbSpline
210
0.0
220
0.0
230
1.0
 70
     8
 71
     3
 72
    14
 73
    10
 74
     0
 42
0.000000001
 43
0.0000000001
 40
-7.0
 40
-7.0
 40
-7.0
 40
-7.0
 40
-6.0
 40
-5.0
 40
-4.0
 40
-3.0
 40
-2.0
 40
-1.0
 40
-0.2482205602640466
 40
-0.2482205602640466
 40
-0.2482205602640466
 40
-0.2482205602640466
 10
446.2264292387379
 20
-1246.400813564789
 30
0.0
 10
447.0622781412952
 20
-1247.573191757621
 30
0.0
 10
449.6040630536947
 20
-1249.117555141814
 30
0.0
 10
453.9389949688207
 20
-1249.42491665832
 30
0.0
 10
458.1531972957336
 20
-1248.576181367699
 30
0.0
 10
462.1380376608533
 20
-1246.984886547205
 30
0.0
 10
465.8546287531945
 20
-1244.850207243835
 30
0.0
 10
468.9638339794544
 20
-1242.440788946816
 30
0.0
 10
470.7297123825178
 20
-1240.670313088275
 30
0.0
 10
471.45085181842
 20
-1239.877291740629
 30
0.0
  0
ARC
  5
6B7
330
1F
100
AcDbEntity
  8
Default
100
AcDbCircle
 10
480.8468466714377
 20
-1248.421604511244
 30
0.0
 40
12.69999999999999
100
AcDbArc
 50
124.977579807951
 51
137.7179678781596
  0
SPLINE
  5
6B8
330
1F
100
AcDbEntity
  8
Default
100
AcDbSpline
210
0.0
220
0.0
230
1.0
 70
    12
 71
     2
 72
     6
 73
     3
 74
     0
 42
0.000000001
 43
0.0000000001
 40
-0.1297405451143296
 40
-0.1297405451143296
 40
-0.1297405451143296
 40
0.0
 40
0.0
 40
0.0
 10
473.5664973358359
 20
-1238.015523906542
 30
0.0
 41
0.9999960316975588
 10
474.9165882941302
 20
-1237.070967143568
 30
0.0
 41
0.999996865512317
 10
476.2695384380595
 20
-1236.130510349133
 30
0.0
 41
1.0
  0
SPLINE
  5
6B9
330
1F
100
AcDbEntity
  8
Default
100
AcDbSpline
210
0.0
220
0.0
230
1.0
 70
    12
 71
     2
 72
     6
 73
     3
 74
     0
 42
0.000000001
 43
0.0000000001
 40
-1.102413928352738
 40
-1.102413928352738
 40
-1.102413928352738
 40
0.0
 40
0.0
 40
0.0
 10
500.5286436426253
 20
-1218.923850374423
 30
0.0
 41
0.9999999993925147
 10
489.1040035648714
 20
-1227.032459645656
 30
0.0
 41
0.9999999996616539
 10
477.6786220428878
 20
-1235.141805976591
 30
0.0
 41
1.0
  0
SPLINE
  5
6BA
330
1F
100
AcDbEntity
  8
Default
100
AcDbSpline
210
0.0
220
0.0
230
1.0
 70
     8
 71
     3
 72
    14
 73
    10
 74
     0
 42
0.000000001
 43
0.0000000001
 40
0.0
 40
0.0
 40
0.0
 40
0.0
 40
1.0
 40
2.0
 40
3.0
 40
4.0
 40
5.0
 40
6.0
 40
7.0
 40
7.0
 40
7.0
 40
7.0
 10
477.6786220428878
 20
-1235.141805976591
 30
0.0
 10
476.2182352034134
 20
-1236.169876683521
 30
0.0
 10
473.1896649875568
 20
-1237.733012472016
 30
0.0
 10
468.1612446409036
 20
-1238.693061479661
 30
0.0
 10
463.0112819813811
 20
-1237.430343807169
 30
0.0
 10
459.8978479438155
 20
-1232.999125398627
 30
0.0
 10
460.4016499850319
 20
-1227.730386628666
 30
0.0
 10
462.9246731763434
 20
-1223.278218175496
 30
0.0
 10
465.3720592134583
 20
-1220.906449624996
 30
0.0
 10
466.7367558746081
 20
-1219.914002504212
 30
0.0
  0
SPLINE
  5
6BB
330
1F
100
AcDbEntity
  8
Default
100
AcDbSpline
210
0.0
220
0.0
230
1.0
 70
    12
 71
     2
 72
     6
 73
     3
 74
     0
 42
0.000000001
 43
0.0000000001
 40
0.0
 40
0.0
 40
0.0
 40
1.112498698414412
 40
1.112498698414412
 40
1.112498698414412
 10
466.7367558746081
 20
-1219.914002504212
 30
0.0
 41
1.0
 10
478.0748840506203
 20
-1211.483821093186
 30
0.0
 41
0.9999999996585591
 10
489.412870679702
 20
-1203.0534493127
 30
0.0
 41
0.9999999993875963
  0
SPLINE
  5
6BC
330
1F
100
AcDbEntity
  8
Default
100
AcDbSpline
210
0.0
220
0.0
230
1.0
 70
     8
 71
     3
 72
    12
 73
     8
 74
     0
 42
0.000000001
 43
0.0000000001
 40
0.0
 40
0.0
 40
0.0
 40
0.0
 40
0.1510110321465192
 40
0.3037660471064116
 40
0.5900965017365678
 40
0.8249401141264362
 40
1.014583801502342
 40
1.014583801502342
 40
1.014583801502342
 40
1.014583801502342
 10
871.4777369284158
 20
293.892119382181
 30
0.0
 10
870.228403036212
 20
293.6174844347028
 30
0.0
 10
867.7512590668824
 20
292.9148940009318
 30
0.0
 10
863.14079804021
 20
290.9571841950351
 30
0.0
 10
858.345639137584
 20
287.7846335764906
 30
0.0
 10
854.551263597559
 20
282.9530370567627
 30
0.0
 10
854.0375764513486
 20
279.21225425374
 30
0.0
 10
854.5729475751508
 20
277.6675825349773
 30
0.0
  0
SPLINE
  5
6BD
330
1F
100
AcDbEntity
  8
Default
100
AcDbSpline
210
0.0
220
0.0
230
1.0
 70
     8
 71
     3
 72
    12
 73
     8
 74
     0
 42
0.000000001
 43
0.0000000001
 40
-1.014583801502342
 40
-1.014583801502342
 40
-1.014583801502342
 40
-1.014583801502342
 40
-0.8249401141264362
 40
-0.5900965017365678
 40
-0.3037660471064116
 40
-0.1510110321465192
 40
0.0
 40
0.0
 40
0.0
 40
0.0
 10
854.5729475751508
 20
277.6675825349773
 30
0.0
 10
855.0477584936203
 20
276.1032336126902
 30
0.0
 10
857.6621170883425
 20
273.378814481614
 30
0.0
 10
863.5717725625871
 20
271.7002487712773
 30
0.0
 10
869.3159160712717
 20
271.9521250907226
 30
0.0
 10
874.1965703459275
 20
273.0782655854449
 30
0.0
 10
876.6135942100007
 20
273.9658866774161
 30
0.0
 10
877.785752932333
 20
274.4780423746868
 30
0.0
  0
SPLINE
  5
6BE
330
1F
100
AcDbEntity
  8
Default
100
AcDbSpline
210
0.0
220
0.0
230
1.0
 70
    12
 71
     2
 72
     6
 73
     3
 74
     0
 42
0.000000001
 43
0.0000000001
 40
0.0
 40
0.0
 40
0.0
 40
0.1369528492222414
 40
0.1369528492222414
 40
0.1369528492222414
 10
880.9104139965128
 20
296.0429769624927
 30
0.0
 41
1.0
 10
879.2678496500411
 20
295.4710966453963
 30
0.0
 41
0.9999966913238282
 10
877.6072250306173
 20
294.9516018724616
 30
0.0
 41
0.9999959461296658
  0
ARC
  5
6BF
330
1F
100
AcDbEntity
  8
Default
100
AcDbCircle
 10
873.4846137534928
 20
306.9638488003977
 30
0.0
 40
12.69999999999999
100
AcDbArc
 50
276.4871521735316
 51
288.9422552251277
  0
SPLINE
  5
6C0
330
1F
100
AcDbEntity
  8
Default
100
AcDbSpline
210
0.0
220
0.0
230
1.0
 70
     8
 71
     3
 72
    14
 73
    10
 74
     0
 42
0.000000001
 43
0.0000000001
 40
0.2772630823298201
 40
0.2772630823298201
 40
0.2772630823298201
 40
0.2772630823298201
 40
1.0
 40
2.0
 40
3.0
 40
4.0
 40
5.0
 40
6.0
 40
7.0
 40
7.0
 40
7.0
 40
7.0
 10
874.9194650300507
 20
294.345164169495
 30
0.0
 10
873.8955861246541
 20
294.2287404694481
 30
0.0
 10
871.4673145486504
 20
293.8421233645264
 30
0.0
 10
867.7303699568321
 20
292.7545448742857
 30
0.0
 10
863.8188206899831
 20
291.0024925323322
 30
0.0
 10
860.1892057377854
 20
288.7140285846151
 30
0.0
 10
857.0255184860142
 20
285.8035413713367
 30
0.0
 10
854.7261701268778
 20
282.1158452160158
 30
0.0
 10
854.4815626641719
 20
279.1517440044329
 30
0.0
 10
854.9387368879402
 20
277.7864214256752
 30
0.0
  0
SPLINE
  5
6C1
330
1F
100
AcDbEntity
  8
Default
100
AcDbSpline
210
0.0
220
0.0
230
1.0
 70
     8
 71
     3
 72
    14
 73
    10
 74
     0
 42
0.000000001
 43
0.0000000001
 40
-7.0
 40
-7.0
 40
-7.0
 40
-7.0
 40
-6.0
 40
-5.0
 40
-4.0
 40
-3.0
 40
-2.0
 40
-1.0
 40
-0.2482205602640466
 40
-0.2482205602640466
 40
-0.2482205602640466
 40
-0.2482205602640466
 10
854.9387368879402
 20
277.7864214256752
 30
0.0
 10
855.3713916479383
 20
276.4131319901935
 30
0.0
 10
857.3115382206891
 20
274.158900396155
 30
0.0
 10
861.3393235342519
 20
272.5270145917924
 30
0.0
 10
865.609541746773
 20
272.031949683796
 30
0.0
 10
869.8910872850094
 20
272.3139775994805
 30
0.0
 10
874.08542764407
 20
273.1956884524752
 30
0.0
 10
877.7870087353406
 20
274.5263841704223
 30
0.0
 10
880.013566025975
 20
275.6645203360837
 30
0.0
 10
880.9444674589755
 20
276.1958841153173
 30
0.0
  0
ARC
  5
6C2
330
1F
100
AcDbEntity
  8
Default
100
AcDbCircle
 10
887.2402517396317
 20
265.1662376889154
 30
0.0
 40
12.69999999999999
100
AcDbArc
 50
106.977579807964
 51
119.7179678781666
  0
SPLINE
  5
6C3
330
1F
100
AcDbEntity
  8
Default
100
AcDbSpline
210
0.0
220
0.0
230
1.0
 70
    12
 71
     2
 72
     6
 73
     3
 74
     0
 42
0.000000001
 43
0.0000000001
 40
-0.1297405451143296
 40
-0.1297405451143296
 40
-0.1297405451143296
 40
0.0
 40
0.0
 40
0.0
 10
883.5318838147946
 20
277.3127601267988
 30
0.0
 41
0.9999960316975588
 10
885.1077807101857
 20
277.7938859411719
 30
0.0
 41
0.999996865512317
 10
886.6851298927446
 20
278.2702289167961
 30
0.0
 41
1.0
  0
SPLINE
  5
6C4
330
1F
100
AcDbEntity
  8
Default
100
AcDbSpline
210
0.0
220
0.0
230
1.0
 70
    12
 71
     2
 72
     6
 73
     3
 74
     0
 42
0.000000001
 43
0.0000000001
 40
0.0
 40
0.0
 40
0.0
 40
0.0853474550214741
 40
0.0853474550214741
 40
0.0853474550214741
 10
876.9623804737166
 20
274.1314421363863
 30
0.0
 41
1.0
 10
875.9570797398088
 20
273.7250158043373
 30
0.0
 41
0.9993970637774639
 10
874.925997218645
 20
273.3893362495106
 30
0.0
 41
1.0
  0
SPLINE
  5
6C5
330
1F
100
AcDbEntity
  8
Default
100
AcDbSpline
210
0.0
220
0.0
230
1.0
 70
    12
 71
     2
 72
     6
 73
     3
 74
     0
 42
0.000000001
 43
0.0000000001
 40
0.0
 40
0.0
 40
0.0
 40
0.0587632096241838
 40
0.0587632096241838
 40
0.0587632096241838
 10
855.511990406884
 20
276.4200540526077
 30
0.0
 41
1.0
 10
855.1090090296815
 20
277.0528874690723
 30
0.0
 41
0.9921107855315545
 10
854.8761118824067
 20
277.7660712056812
 30
0.0
 41
1.0
  0
SPLINE
  5
6C6
330
1F
100
AcDbEntity
  8
Default
100
AcDbSpline
210
0.0
220
0.0
230
1.0
 70
    24
 71
     2
 72
     6
 73
     3
 74
     0
 42
0.000000001
 43
0.0000000001
 40
0.0
 40
0.0
 40
0.0
 40
0.0114467396849787
 40
0.0114467396849787
 40
0.0114467396849787
 10
854.8761073167691
 20
277.7660852571986
 30
0.0
 10
854.7378488331483
 20
277.7211622838033
 30
0.0
 10
854.599590349523
 20
277.6762393104103
 30
0.0
  0
SPLINE
  5
6C7
330
1F
100
AcDbEntity
  8
Default
100
AcDbSpline
210
0.0
220
0.0
230
1.0
 70
    12
 71
     2
 72
     6
 73
     3
 74
     0
 42
0.000000001
 43
0.0000000001
 40
0.0
 40
0.0
 40
0.0
 40
0.0586712320260919
 40
0.0586712320260919
 40
0.0586712320260919
 10
854.8761073167691
 20
277.7660852571986
 30
0.0
 41
1.0
 10
854.6456850900097
 20
278.4788259374259
 30
0.0
 41
0.9921343149382712
 10
854.5995192547861
 20
279.2264638146725
 30
0.0
 41
1.0
  0
SPLINE
  5
6C8
330
1F
100
AcDbEntity
  8
Default
100
AcDbSpline
210
0.0
220
0.0
230
1.0
 70
     8
 71
     3
 72
    22
 73
    18
 74
     0
 42
0.000000001
 43
0.0000000001
 40
0.0
 40
0.0
 40
0.0
 40
0.0
 40
0.2588469591229587
 40
0.6477254461891114
 40
1.024641027840087
 40
1.817983982162573
 40
2.582167143679937
 40
4.062052734317923
 40
7.850412104674
 40
9.497260537102542
 40
10.543391206404
 40
10.8432833113025
 40
12.15829953678302
 40
13.34949093133962
 40
14.77372714428499
 40
17.25709974516987
 40
21.82793658798906
 40
21.82793658798906
 40
21.82793658798906
 40
21.82793658798906
 10
1589.31231823061
 20
309.7214173132298
 30
0.0
 10
1587.159276670561
 20
309.2356227098469
 30
0.0
 10
1582.282695854876
 20
306.6166663368314
 30
0.0
 10
1575.565011635054
 20
301.1085656420791
 30
0.0
 10
1565.996111970906
 20
292.0086585465682
 30
0.0
 10
1554.723574521875
 20
280.1207552442617
 30
0.0
 10
1536.211731316933
 20
262.2632003364043
 30
0.0
 10
1498.885501566331
 20
227.3986318114909
 30
0.0
 10
1454.28326969075
 20
189.4298470276235
 30
0.0
 10
1411.742885493938
 20
154.7805094606053
 30
0.0
 10
1391.922857714112
 20
138.9899020328996
 30
0.0
 10
1374.123666206687
 20
125.1573195372994
 30
0.0
 10
1353.218013722439
 20
113.597036907625
 30
0.0
 10
1322.149192427926
 20
101.6634608520093
 30
0.0
 10
1280.910473977283
 20
88.74806767131531
 30
0.0
 10
1210.179123611027
 20
75.36860089501101
 30
0.0
 10
1149.607907153962
 20
79.55671497118999
 30
0.0
 10
1112.428681694781
 20
90.60909126068466
 30
0.0
  0
SPLINE
  5
6C9
330
1F
100
AcDbEntity
  8
Default
100
AcDbSpline
210
0.0
220
0.0
230
1.0
 70
     8
 71
     3
 72
    19
 73
    15
 74
     0
 42
0.000000001
 43
0.0000000001
 40
-12.0
 40
-12.0
 40
-12.0
 40
-12.0
 40
-11.0
 40
-10.0
 40
-9.0
 40
-8.0
 40
-7.0
 40
-6.0
 40
-5.0
 40
-4.0
 40
-3.0
 40
-2.0
 40
-1.0
 40
0.0
 40
0.0
 40
0.0
 40
0.0
 10
1639.13800098883
 20
297.9068948380146
 30
0.0
 10
1643.251877025585
 20
302.6030494323881
 30
0.0
 10
1643.158240703456
 20
316.05414190624
 30
0.0
 10
1641.922276305137
 20
334.7002241388521
 30
0.0
 10
1639.35631991653
 20
353.6180536445448
 30
0.0
 10
1636.510020037061
 20
372.3773334338475
 30
0.0
 10
1633.093397848409
 20
391.0742527949406
 30
0.0
 10
1629.241666167287
 20
409.6766761238863
 30
0.0
 10
1624.971656608301
 20
428.1900039218354
 30
0.0
 10
1620.329429572064
 20
446.6125772896025
 30
0.0
 10
1615.350714201182
 20
464.9471116762702
 30
0.0
 10
1610.072139243518
 20
483.1973709670036
 30
0.0
 10
1604.529506015202
 20
501.3690440739067
 30
0.0
 10
1600.681941902041
 20
513.4358680385409
 30
0.0
 10
1598.725847192642
 20
519.4587541158025
 30
0.0
  0
SPLINE
  5
6CA
330
1F
100
AcDbEntity
  8
Default
100
AcDbSpline
210
0.0
220
0.0
230
1.0
 70
    12
 71
     2
 72
     6
 73
     3
 74
     0
 42
0.000000001
 43
0.0000000001
 40
-6.233889429224446
 40
-6.233889429224446
 40
-6.233889429224446
 40
0.0
 40
0.0
 40
0.0
 10
1611.473083183007
 20
523.6005821616011
 30
0.0
 41
1.0
 10
1636.131837580286
 20
448.1856863505491
 30
0.0
 41
0.996730330589404
 10
1648.321537818443
 20
369.7841239356701
 30
0.0
 41
1.0
  0
SPLINE
  5
6CB
330
1F
100
AcDbEntity
  8
Default
100
AcDbSpline
210
0.0
220
0.0
230
1.0
 70
     8
 71
     3
 72
    12
 73
     8
 74
     0
 42
0.000000001
 43
0.0000000001
 40
0.0
 40
0.0
 40
0.0
 40
0.0
 40
0.8495817757806477
 40
1.391422022197968
 40
2.191064820612614
 40
2.689385262996221
 40
3.111933853859593
 40
3.111933853859593
 40
3.111933853859593
 40
3.111933853859593
 10
1648.321537818443
 20
369.7841239356701
 30
0.0
 10
1649.307952369515
 20
362.6322749911535
 30
0.0
 10
1651.200508423426
 20
351.0572012672789
 30
0.0
 10
1653.169517863517
 20
332.5511727701632
 30
0.0
 10
1653.950014917231
 20
317.0325315363239
 30
0.0
 10
1650.553424402174
 20
302.4290747359103
 30
0.0
 10
1642.970793821457
 20
297.9435407542107
 30
0.0
 10
1639.28259161164
 20
297.9136308065289
 30
0.0
  0
SPLINE
  5
6CC
330
1F
100
AcDbEntity
  8
Default
100
AcDbSpline
210
0.0
220
0.0
230
1.0
 70
    12
 71
     2
 72
     6
 73
     3
 74
     0
 42
0.000000001
 43
0.0000000001
 40
0.0
 40
0.0
 40
0.0
 40
0.443505275079806
 40
0.443505275079806
 40
0.443505275079806
 10
1639.28259161164
 20
297.9136308065289
 30
0.0
 41
1.0
 10
1633.429542697587
 20
297.7209986132571
 30
0.0
 41
0.9799943751373794
 10
1628.104066255609
 20
299.7785111007921
 30
0.0
 41
1.0
  0
SPLINE
  5
6CD
330
1F
100
AcDbEntity
  8
Default
100
AcDbSpline
210
0.0
220
0.0
230
1.0
 70
    12
 71
     2
 72
     6
 73
     3
 74
     0
 42
0.000000001
 43
0.0000000001
 40
-5.654573080352872
 40
-5.654573080352872
 40
-5.654573080352872
 40
0.0
 40
0.0
 40
0.0
 10
1646.033669301035
 20
384.4888565993755
 30
0.0
 41
1.0
 10
1635.196757241979
 20
455.636560551895
 30
0.0
 41
0.9967681786255456
 10
1613.105644477452
 20
524.1310334814738
 30
0.0
 41
1.0
  0
SPLINE
  5
6CE
330
1F
100
AcDbEntity
  8
Default
100
AcDbSpline
210
0.0
220
0.0
230
1.0
 70
    12
 71
     2
 72
     6
 73
     3
 74
     0
 42
0.000000001
 43
0.0000000001
 40
-1.281345128275034
 40
-1.281345128275034
 40
-1.281345128275034
 40
0.0
 40
0.0
 40
0.0
 10
919.4145481228554
 20
288.4955804882029
 30
0.0
 41
0.9999999993069707
 10
903.8732914758492
 20
283.6356649171673
 30
0.0
 41
0.9999999996067375
 10
888.3307744906494
 20
278.7751118726047
 30
0.0
 41
1.0
  0
SPLINE
  5
6CF
330
1F
100
AcDbEntity
  8
Default
100
AcDbSpline
210
0.0
220
0.0
230
1.0
 70
     8
 71
     3
 72
    14
 73
    10
 74
     0
 42
0.000000001
 43
0.0000000001
 40
0.0
 40
0.0
 40
0.0
 40
0.0
 40
1.0
 40
2.0
 40
3.0
 40
4.0
 40
5.0
 40
6.0
 40
7.0
 40
7.0
 40
7.0
 40
7.0
 10
888.3307744906494
 20
278.7751118726047
 30
0.0
 10
886.6241727507951
 20
278.2486428793251
 30
0.0
 10
883.2607957887892
 20
277.6978920671858
 30
0.0
 10
878.1818123926358
 20
278.3386985444739
 30
0.0
 10
873.6741080665181
 20
281.1310403973276
 30
0.0
 10
872.0823781310626
 20
286.3074835683714
 30
0.0
 10
874.1896521641219
 20
291.162668515658
 30
0.0
 10
877.9649855248344
 20
294.6172752913763
 30
0.0
 10
881.025504752151
 20
296.1166773492096
 30
0.0
 10
882.6300914308445
 20
296.6388361900476
 30
0.0
  0
SPLINE
  5
6D0
330
1F
100
AcDbEntity
  8
Default
100
AcDbSpline
210
0.0
220
0.0
230
1.0
 70
    12
 71
     2
 72
     6
 73
     3
 74
     0
 42
0.000000001
 43
0.0000000001
 40
0.0
 40
0.0
 40
0.0
 40
1.278324852146924
 40
1.278324852146924
 40
1.278324852146924
 10
882.6300914308445
 20
296.6388361900476
 30
0.0
 41
1.0
 10
898.0139820378711
 20
301.8255717189585
 30
0.0
 41
0.9999999996076647
 10
913.39777257421
 20
307.0126040486916
 30
0.0
 41
0.9999999993083845
  0
SPLINE
  5
6D1
330
1F
100
AcDbEntity
  8
Default
100
AcDbSpline
210
0.0
220
0.0
230
1.0
 70
     8
 71
     3
 72
    47
 73
    43
 74
     0
 42
0.000000001
 43
0.0000000001
 40
36.00001859489052
 40
36.00001859489052
 40
36.00001859489052
 40
36.00001859489052
 40
37.0
 40
38.0
 40
39.0
 40
40.0
 40
41.0
 40
42.0
 40
43.0
 40
44.0
 40
45.0
 40
46.0
 40
47.0
 40
48.0
 40
49.0
 40
50.0
 40
51.0
 40
52.0
 40
53.0
 40
53.0
 40
53.0
 40
54.0
 40
55.0
 40
56.0
 40
57.0
 40
58.0
 40
59.0
 40
60.0
 40
60.0
 40
60.0
 40
61.0
 40
62.0
 40
63.0
 40
64.0
 40
65.0
 40
66.0
 40
67.0
 40
68.0
 40
69.0
 40
70.0
 40
71.0
 40
72.0
 40
72.0
 40
72.0
 40
72.0
 10
916.3058938737531
 20
297.7258326938815
 30
0.0
 10
919.7442895391878
 20
287.0822940446463
 30
0.0
 10
927.5285382509295
 20
266.0875013473046
 30
0.0
 10
941.8956890159428
 20
235.7267152366609
 30
0.0
 10
958.9907981228176
 20
206.8064420403338
 30
0.0
 10
978.8730910294393
 20
179.7210311346049
 30
0.0
 10
1001.570299615963
 20
154.9249708734154
 30
0.0
 10
1027.13882236144
 20
133.1037872982593
 30
0.0
 10
1055.080995088153
 20
114.4050733247123
 30
0.0
 10
1085.243969940959
 20
99.53768124352283
 30
0.0
 10
1117.04696572656
 20
88.61789659845625
 30
0.0
 10
1150.074385862327
 20
82.17064536211234
 30
0.0
 10
1183.689859607288
 20
80.81813789597276
 30
0.0
 10
1217.17360798435
 20
83.63139636814429
 30
0.0
 10
1250.250714700522
 20
89.42277551849583
 30
0.0
 10
1282.817290467715
 20
97.61939679755073
 30
0.0
 10
1314.752344474508
 20
107.9179946075754
 30
0.0
 10
1346.263389079792
 20
119.6015642639809
 30
0.0
 10
1365.872071439412
 20
130.5552157661967
 30
0.0
 10
1374.959491890987
 20
137.0899191191139
 30
0.0
 10
1383.893234060827
 20
143.4882565121535
 30
0.0
 10
1401.69811190563
 20
156.3730313225954
 30
0.0
 10
1428.078570920375
 20
176.1448705068406
 30
0.0
 10
1454.069733142409
 20
196.4262002192675
 30
0.0
 10
1479.606037318573
 20
217.2788676798312
 30
0.0
 10
1504.596870631658
 20
238.781438873174
 30
0.0
 10
1529.005666499667
 20
260.9477547862806
 30
0.0
 10
1544.653469197039
 20
276.3860891694819
 30
0.0
 10
1552.363220768064
 20
284.2158498397449
 30
0.0
 10
1553.948127449864
 20
285.8191366155785
 30
0.0
 10
1557.126349797004
 20
289.0175366705875
 30
0.0
 10
1561.994066246235
 20
293.7140993347079
 30
0.0
 10
1567.022582037225
 20
298.2385708793306
 30
0.0
 10
1572.300808718537
 20
302.4773113423077
 30
0.0
 10
1577.931278208836
 20
306.2273834840942
 30
0.0
 10
1584.065988523527
 20
309.2013520699424
 30
0.0
 10
1590.831316173268
 20
310.1926427631844
 30
0.0
 10
1597.567669438696
 20
309.2772480040486
 30
0.0
 10
1604.260196662358
 20
308.3591271827825
 30
0.0
 10
1610.870065101339
 20
306.8744900148618
 30
0.0
 10
1617.312326343906
 20
304.8032246261653
 30
0.0
 10
1626.001035225529
 20
300.5910229301477
 30
0.0
 10
1628.104066255609
 20
299.7785111007921
 30
0.0
  0
SPLINE
  5
6D2
330
1F
100
AcDbEntity
  8
Default
100
AcDbSpline
210
0.0
220
0.0
230
1.0
 70
     8
 71
     3
 72
    12
 73
     8
 74
     0
 42
0.000000001
 43
0.0000000001
 40
0.0
 40
0.0
 40
0.0
 40
0.0
 40
1.918305221504867
 40
3.868777778011241
 40
7.624449324857683
 40
11.42846767657462
 40
15.35241906764609
 40
15.35241906764609
 40
15.35241906764609
 40
15.35241906764609
 10
1394.821928023945
 20
453.2058009691018
 30
0.0
 10
1399.85320720879
 20
437.7647360739655
 30
0.0
 10
1406.962277592969
 20
405.6263465245428
 30
0.0
 10
1408.427277194798
 20
340.778595533575
 30
0.0
 10
1385.624395407921
 20
261.7968152013298
 30
0.0
 10
1322.673887813638
 20
185.1383087056468
 30
0.0
 10
1263.959065163848
 20
153.6294285607406
 30
0.0
 10
1232.376669608936
 20
143.3682564613141
 30
0.0
  0
SPLINE
  5
6D3
330
1F
100
AcDbEntity
  8
Default
100
AcDbSpline
210
0.0
220
0.0
230
1.0
 70
     8
 71
     3
 72
    12
 73
     8
 74
     0
 42
0.000000001
 43
0.0000000001
 40
-14.89017236839833
 40
-14.89017236839833
 40
-14.89017236839833
 40
-14.89017236839833
 40
-11.21816917573749
 40
-7.516682162771167
 40
-3.774519558109396
 40
-1.88935509827327
 40
0.0
 40
0.0
 40
0.0
 40
0.0
 10
1232.376669608936
 20
143.3682564613141
 30
0.0
 10
1202.807286767625
 20
133.7518200015153
 30
0.0
 10
1139.468560736397
 20
126.7164266618121
 30
0.0
 10
1047.526395393235
 20
154.3165292518014
 30
0.0
 10
985.1493310337691
 20
205.1730036558843
 30
0.0
 10
949.0975942315499
 20
257.9586143104084
 30
0.0
 10
936.2982627919087
 20
287.4040713613464
 30
0.0
 10
931.3538335686887
 20
302.6158896056532
 30
0.0
  0
SPLINE
  5
6D4
330
1F
100
AcDbEntity
  8
Default
100
AcDbSpline
210
0.0
220
0.0
230
1.0
 70
    12
 71
     2
 72
     6
 73
     3
 74
     0
 42
0.000000001
 43
0.0000000001
 40
0.0
 40
0.0
 40
0.0
 40
0.0853474550214741
 40
0.0853474550214741
 40
0.0853474550214741
 10
1109.492701228833
 20
730.4978920444193
 30
0.0
 41
1.0
 10
1109.230606092912
 20
731.5500888267336
 30
0.0
 41
0.9993970637774639
 10
1108.896121457594
 20
732.5815596007812
 30
0.0
 41
1.0
  0
SPLINE
  5
6D5
330
1F
100
AcDbEntity
  8
Default
100
AcDbSpline
210
0.0
220
0.0
230
1.0
 70
     8
 71
     3
 72
    12
 73
     8
 74
     0
 42
0.000000001
 43
0.0000000001
 40
0.0
 40
0.0
 40
0.0
 40
0.0
 40
0.1510110321465192
 40
0.3037660471064116
 40
0.5900965017365678
 40
0.8249401141264362
 40
1.014583801502342
 40
1.014583801502342
 40
1.014583801502342
 40
1.014583801502342
 10
1090.282184926618
 20
723.3200272202671
 30
0.0
 10
1089.770029229349
 20
724.492185942604
 30
0.0
 10
1088.882408137378
 20
726.9092098066771
 30
0.0
 10
1087.756267642657
 20
731.7898640813293
 30
0.0
 10
1087.504391323213
 20
737.5340075900105
 30
0.0
 10
1089.182957033548
 20
743.4436630642587
 30
0.0
 10
1091.907376164625
 20
746.0580216589808
 30
0.0
 10
1093.471725086907
 20
746.5328325774525
 30
0.0
  0
SPLINE
  5
6D6
330
1F
100
AcDbEntity
  8
Default
100
AcDbSpline
210
0.0
220
0.0
230
1.0
 70
     8
 71
     3
 72
    12
 73
     8
 74
     0
 42
0.000000001
 43
0.0000000001
 40
-1.014583801502342
 40
-1.014583801502342
 40
-1.014583801502342
 40
-1.014583801502342
 40
-0.8249401141264362
 40
-0.5900965017365678
 40
-0.3037660471064116
 40
-0.1510110321465192
 40
0.0
 40
0.0
 40
0.0
 40
0.0
 10
1093.471725086907
 20
746.5328325774525
 30
0.0
 10
1095.016396805674
 20
747.0682037012525
 30
0.0
 10
1098.757179608697
 20
746.5545165550422
 30
0.0
 10
1103.588776128426
 20
742.7601410150137
 30
0.0
 10
1106.76132674697
 20
737.9649821123912
 30
0.0
 10
1108.719036552865
 20
733.3545210857224
 30
0.0
 10
1109.421626986636
 20
730.8773771163928
 30
0.0
 10
1109.696261934116
 20
729.6280432241854
 30
0.0
  0
SPLINE
  5
6D7
330
1F
100
AcDbEntity
  8
Default
100
AcDbSpline
210
0.0
220
0.0
230
1.0
 70
    12
 71
     2
 72
     6
 73
     3
 74
     0
 42
0.000000001
 43
0.0000000001
 40
0.0
 40
0.0
 40
0.0
 40
0.1369528492222414
 40
0.1369528492222414
 40
0.1369528492222414
 10
1094.08649306193
 20
714.4245888042369
 30
0.0
 41
1.0
 10
1093.583678858414
 20
716.0895940913492
 30
0.0
 41
0.9999966913238282
 10
1093.027868297314
 20
717.7384189959213
 30
0.0
 41
0.9999959461296658
  0
ARC
  5
6D8
330
1F
100
AcDbEntity
  8
Default
100
AcDbCircle
 10
1080.886546282356
 20
714.0130599891804
 30
0.0
 40
12.69999999999999
100
AcDbArc
 50
17.05774477487232
 51
29.51284782646799
  0
SPLINE
  5
6D9
330
1F
100
AcDbEntity
  8
Default
100
AcDbSpline
210
0.0
220
0.0
230
1.0
 70
     8
 71
     3
 72
    14
 73
    10
 74
     0
 42
0.000000001
 43
0.0000000001
 40
0.2772630823298201
 40
0.2772630823298201
 40
0.2772630823298201
 40
0.2772630823298201
 40
1.0
 40
2.0
 40
3.0
 40
4.0
 40
5.0
 40
6.0
 40
7.0
 40
7.0
 40
7.0
 40
7.0
 10
1091.938661015009
 20
720.2693176514188
 30
0.0
 10
1091.431028846169
 20
721.1660852199716
 30
0.0
 10
1090.316506433432
 20
723.3578460244698
 30
0.0
 10
1088.999854995047
 20
727.0203603035656
 30
0.0
 10
1088.118144142054
 20
731.2147006626227
 30
0.0
 10
1087.836116226369
 20
735.4962462008593
 30
0.0
 10
1088.331181134365
 20
739.7664644133838
 30
0.0
 10
1089.963066938728
 20
743.7942497269432
 30
0.0
 10
1092.217298532767
 20
745.734396299694
 30
0.0
 10
1093.590587968249
 20
746.1670510596918
 30
0.0
  0
SPLINE
  5
6DA
330
1F
100
AcDbEntity
  8
Default
100
AcDbSpline
210
0.0
220
0.0
230
1.0
 70
     8
 71
     3
 72
    14
 73
    10
 74
     0
 42
0.000000001
 43
0.0000000001
 40
-7.0
 40
-7.0
 40
-7.0
 40
-7.0
 40
-6.0
 40
-5.0
 40
-4.0
 40
-3.0
 40
-2.0
 40
-1.0
 40
-0.2482205602640466
 40
-0.2482205602640466
 40
-0.2482205602640466
 40
-0.2482205602640466
 10
1093.590587968249
 20
746.1670510596918
 30
0.0
 10
1094.955910547003
 20
746.6242252834592
 30
0.0
 10
1097.920011758589
 20
746.3796178207545
 30
0.0
 10
1101.607707913909
 20
744.0802694616214
 30
0.0
 10
1104.518195127188
 20
740.9165822098469
 30
0.0
 10
1106.806659074905
 20
737.2869672576489
 30
0.0
 10
1108.558711416858
 20
733.3754179908035
 30
0.0
 10
1109.65789074231
 20
729.5986126636105
 30
0.0
 10
1110.045856781197
 20
727.1283103232579
 30
0.0
 10
1110.163144587257
 20
726.06286745084
 30
0.0
  0
ARC
  5
6DB
330
1F
100
AcDbEntity
  8
Default
100
AcDbCircle
 10
1122.78688513995
 20
727.4525344823027
 30
0.0
 40
12.69999999999999
100
AcDbArc
 50
186.2820321218403
 51
199.0224201920489
  0
SPLINE
  5
6DC
330
1F
100
AcDbEntity
  8
Default
100
AcDbSpline
210
0.0
220
0.0
230
1.0
 70
    12
 71
     2
 72
     6
 73
     3
 74
     0
 42
0.000000001
 43
0.0000000001
 40
-0.1297405451143296
 40
-0.1297405451143296
 40
-0.1297405451143296
 40
0.0
 40
0.0
 40
0.0
 10
1110.78041808885
 20
723.313120399267
 30
0.0
 41
0.9999960316975588
 10
1111.317468082833
 20
721.7553943713308
 30
0.0
 41
0.999996865512317
 10
1111.859241107627
 20
720.1993047004687
 30
0.0
 41
1.0
  0
SPLINE
  5
6DD
330
1F
100
AcDbEntity
  8
Default
100
AcDbSpline
210
0.0
220
0.0
230
1.0
 70
     8
 71
     3
 72
    22
 73
    18
 74
     0
 42
0.000000001
 43
0.0000000001
 40
0.0
 40
0.0
 40
0.0
 40
0.0
 40
0.2588469591229587
 40
0.6477254461891114
 40
1.024641027840087
 40
1.817983982162573
 40
2.582167143679937
 40
4.062052734317923
 40
7.850412104674
 40
9.497260537102542
 40
10.543391206404
 40
10.8432833113025
 40
12.15829953678302
 40
13.34949093133962
 40
14.77372714428499
 40
17.25709974516987
 40
21.82793658798906
 40
21.82793658798906
 40
21.82793658798906
 40
21.82793658798906
 10
1467.830356233847
 20
683.6044518144165
 30
0.0
 10
1465.802966118659
 20
682.7319418277588
 30
0.0
 10
1460.318345431872
 20
681.9843397559832
 30
0.0
 10
1451.646044378675
 20
682.4919311107974
 30
0.0
 10
1438.555850744937
 20
684.2294524950459
 30
0.0
 10
1422.448642137168
 20
687.2211370256427
 30
0.0
 10
1396.975838970324
 20
690.7872139954679
 30
0.0
 10
1346.285405559659
 20
697.0534350625881
 30
0.0
 10
1287.883950241838
 20
701.5542930927058
 30
0.0
 10
1233.10168685578
 20
704.5815855705159
 30
0.0
 10
1207.785461382173
 20
705.7065353020248
 30
0.0
 10
1185.255024974498
 20
706.4352273462644
 30
0.0
 10
1161.547033194189
 20
703.4996582336559
 30
0.0
 10
1129.397448759129
 20
694.8923291032904
 30
0.0
 10
1088.443147067144
 20
681.1015911467763
 30
0.0
 10
1023.356029331106
 20
650.3509625244646
 30
0.0
 10
976.8145975362731
 20
611.3598393155768
 30
0.0
 10
953.2323960878498
 20
580.5648786525853
 30
0.0
  0
SPLINE
  5
6DE
330
1F
100
AcDbEntity
  8
Default
100
AcDbSpline
210
0.0
220
0.0
230
1.0
 70
     8
 71
     3
 72
    19
 73
    15
 74
     0
 42
0.000000001
 43
0.0000000001
 40
-12.0
 40
-12.0
 40
-12.0
 40
-12.0
 40
-11.0
 40
-10.0
 40
-9.0
 40
-8.0
 40
-7.0
 40
-6.0
 40
-5.0
 40
-4.0
 40
-3.0
 40
-2.0
 40
-1.0
 40
0.0
 40
0.0
 40
0.0
 40
0.0
 10
1501.195778267773
 20
722.4494027879752
 30
0.0
 10
1507.284304307318
 20
721.0682095770794
 30
0.0
 10
1515.114904714776
 20
710.1310091235973
 30
0.0
 10
1525.074880661456
 20
694.3195300732115
 30
0.0
 10
1534.118599525078
 20
677.506453183169
 30
0.0
 10
1542.842322555281
 20
660.6568639386352
 30
0.0
 10
1551.067990605054
 20
643.5224982979077
 30
0.0
 10
1558.88610430691
 20
626.2088306102826
 30
0.0
 10
1566.313455058038
 20
608.7213851533881
 30
0.0
 10
1573.386331428825
 20
591.0885776290513
 30
0.0
 10
1580.135235003758
 20
573.3292122559191
 30
0.0
 10
1586.592011418533
 20
555.4617738247311
 30
0.0
 10
1592.788968404954
 20
537.50270339455
 30
0.0
 10
1596.768924818883
 20
525.4788962960645
 30
0.0
 10
1598.726574568823
 20
519.4565154821032
 30
0.0
  0
SPLINE
  5
6DF
330
1F
100
AcDbEntity
  8
Default
100
AcDbSpline
210
0.0
220
0.0
230
1.0
 70
    12
 71
     2
 72
     6
 73
     3
 74
     0
 42
0.000000001
 43
0.0000000001
 40
-6.233889429224446
 40
-6.233889429224446
 40
-6.233889429224446
 40
0.0
 40
0.0
 40
0.0
 10
1611.473810559188
 20
523.5983435279017
 30
0.0
 41
1.0
 10
1587.095398365796
 20
599.104328042682
 30
0.0
 41
0.996730330589404
 10
1550.873790870647
 20
669.697450451722
 30
0.0
 41
1.0
  0
SPLINE
  5
6E0
330
1F
100
AcDbEntity
  8
Default
100
AcDbSpline
210
0.0
220
0.0
230
1.0
 70
     8
 71
     3
 72
    12
 73
     8
 74
     0
 42
0.000000001
 43
0.0000000001
 40
0.0
 40
0.0
 40
0.0
 40
0.0
 40
0.8495817757806477
 40
1.391422022197968
 40
2.191064820612614
 40
2.689385262996221
 40
3.111933853859593
 40
3.111933853859593
 40
3.111933853859593
 40
3.111933853859593
 10
1550.873790870647
 20
669.697450451722
 30
0.0
 10
1547.468065669752
 20
676.0632177148047
 30
0.0
 10
1542.195518051082
 20
686.5400656061885
 30
0.0
 10
1532.910909521092
 20
702.669111869252
 30
0.0
 10
1524.420716448737
 20
715.6827210146666
 30
0.0
 10
1513.08912045935
 20
725.5006999299943
 30
0.0
 10
1504.318112734383
 20
724.6726147211088
 30
0.0
 10
1501.316713841806
 20
722.5289415106812
 30
0.0
  0
SPLINE
  5
6E1
330
1F
100
AcDbEntity
  8
Default
100
AcDbSpline
210
0.0
220
0.0
230
1.0
 70
    12
 71
     2
 72
     6
 73
     3
 74
     0
 42
0.000000001
 43
0.0000000001
 40
0.0
 40
0.0
 40
0.0
 40
0.443505275079806
 40
0.443505275079806
 40
0.443505275079806
 10
1501.316713841806
 20
722.5289415106812
 30
0.0
 41
1.0
 10
1496.468271439107
 20
719.2444483960748
 30
0.0
 41
0.9799943751373794
 10
1493.369245990984
 20
714.4496493134949
 30
0.0
 41
1.0
  0
SPLINE
  5
6E2
330
1F
100
AcDbEntity
  8
Default
100
AcDbSpline
210
0.0
220
0.0
230
1.0
 70
    12
 71
     2
 72
     6
 73
     3
 74
     0
 42
0.000000001
 43
0.0000000001
 40
-5.654573080352872
 40
-5.654573080352872
 40
-5.654573080352872
 40
0.0
 40
0.0
 40
0.0
 10
1557.666091357798
 20
656.4562964553272
 30
0.0
 41
1.0
 10
1590.718416453237
 20
592.5268177582775
 30
0.0
 41
0.9967681786255456
 10
1613.106371853634
 20
524.1287948477747
 30
0.0
 41
1.0
  0
SPLINE
  5
6E3
330
1F
100
AcDbEntity
  8
Default
100
AcDbSpline
210
0.0
220
0.0
230
1.0
 70
    12
 71
     2
 72
     6
 73
     3
 74
     0
 42
0.000000001
 43
0.0000000001
 40
-1.102413928352738
 40
-1.102413928352738
 40
-1.102413928352738
 40
0.0
 40
0.0
 40
0.0
 10
1121.371448512105
 20
692.0196800914418
 30
0.0
 41
0.9999999993925147
 10
1116.894841480818
 20
705.2949177430694
 30
0.0
 41
0.9999999996616539
 10
1112.418067841371
 20
718.5711874985043
 30
0.0
 41
1.0
  0
SPLINE
  5
6E4
330
1F
100
AcDbEntity
  8
Default
100
AcDbSpline
210
0.0
220
0.0
230
1.0
 70
     8
 71
     3
 72
    14
 73
    10
 74
     0
 42
0.000000001
 43
0.0000000001
 40
0.0
 40
0.0
 40
0.0
 40
0.0
 40
1.0
 40
2.0
 40
3.0
 40
4.0
 40
5.0
 40
6.0
 40
7.0
 40
7.0
 40
7.0
 40
7.0
 10
1112.418067841371
 20
718.5711874985043
 30
0.0
 10
1111.840874869723
 20
720.2613080187152
 30
0.0
 10
1110.309498260244
 20
723.3060603445353
 30
0.0
 10
1106.805723393113
 20
727.0383876292434
 30
0.0
 10
1101.897109255463
 20
729.0438996742238
 30
0.0
 10
1096.773683377979
 20
727.288999287193
 30
0.0
 10
1094.084380843959
 20
722.730372673471
 30
0.0
 10
1093.508630525438
 20
717.6454969099916
 30
0.0
 10
1094.094516845424
 20
714.2881584266297
 30
0.0
 10
1094.615233855184
 20
712.6831032686204
 30
0.0
  0
SPLINE
  5
6E5
330
1F
100
AcDbEntity
  8
Default
100
AcDbSpline
210
0.0
220
0.0
230
1.0
 70
    12
 71
     2
 72
     6
 73
     3
 74
     0
 42
0.000000001
 43
0.0000000001
 40
0.0
 40
0.0
 40
0.0
 40
1.112498698414412
 40
1.112498698414412
 40
1.112498698414412
 10
1094.615233855184
 20
712.6831032686204
 30
0.0
 41
1.0
 10
1098.832835926428
 20
699.1985587109752
 30
0.0
 41
0.9999999996585591
 10
1103.050211587439
 20
685.7139433403999
 30
0.0
 41
0.9999999993875963
  0
SPLINE
  5
6E6
330
1F
100
AcDbEntity
  8
Default
100
AcDbSpline
210
0.0
220
0.0
230
1.0
 70
     8
 71
     3
 72
    47
 73
    43
 74
     0
 42
0.000000001
 43
0.0000000001
 40
36.00001859489052
 40
36.00001859489052
 40
36.00001859489052
 40
36.00001859489052
 40
37.0
 40
38.0
 40
39.0
 40
40.0
 40
41.0
 40
42.0
 40
43.0
 40
44.0
 40
45.0
 40
46.0
 40
47.0
 40
48.0
 40
49.0
 40
50.0
 40
51.0
 40
52.0
 40
53.0
 40
53.0
 40
53.0
 40
54.0
 40
55.0
 40
56.0
 40
57.0
 40
58.0
 40
59.0
 40
60.0
 40
60.0
 40
60.0
 40
61.0
 40
62.0
 40
63.0
 40
64.0
 40
65.0
 40
66.0
 40
67.0
 40
68.0
 40
69.0
 40
70.0
 40
71.0
 40
72.0
 40
72.0
 40
72.0
 40
72.0
 10
916.3058938737531
 20
297.7258326938815
 30
0.0
 10
912.8314993502495
 20
308.3576746050881
 30
0.0
 10
906.7886593240547
 20
329.918285283555
 30
0.0
 10
900.566306129855
 20
362.925476546786
 30
0.0
 10
897.39762984094
 20
396.3707220639328
 30
0.0
 10
897.5623376068684
 20
429.9697983385674
 30
0.0
 10
901.3500065417566
 20
463.3713169587798
 30
0.0
 10
909.209206070866
 20
496.0538259011524
 30
0.0
 10
920.8240703560514
 20
527.6054003244794
 30
0.0
 10
936.4875958075021
 20
557.362724963945
 30
0.0
 10
955.7982714975084
 20
584.8903482182144
 30
0.0
 10
978.7284164731582
 20
609.5193145124933
 30
0.0
 10
1005.128922064584
 20
630.372195753732
 30
0.0
 10
1033.871435377831
 20
647.7774753276849
 30
0.0
 10
1064.035464090978
 20
662.5343866904517
 30
0.0
 10
1095.200230441692
 20
675.0453337328626
 30
0.0
 10
1127.089595761493
 20
685.4845468626765
 30
0.0
 10
1159.449996295842
 20
694.5540677589972
 30
0.0
 10
1181.752148373828
 20
697.218071851116
 30
0.0
 10
1192.945028213134
 20
697.2728375082238
 30
0.0
 10
1203.933425810719
 20
697.3475957167258
 30
0.0
 10
1225.911355182622
 20
697.3890385424281
 30
0.0
 10
1258.87519032816
 20
696.8993293898984
 30
0.0
 10
1291.823548771187
 20
695.7686108280759
 30
0.0
 10
1324.739743227511
 20
693.908311467235
 30
0.0
 10
1357.596646315204
 20
691.201609212994
 30
0.0
 10
1390.372810576032
 20
687.6158131740401
 30
0.0
 10
1412.106574153237
 20
684.3234859494846
 30
0.0
 10
1422.946112047566
 20
682.5207547776406
 30
0.0
 10
1425.170716809671
 20
682.1552533029564
 30
0.0
 10
1429.621925083675
 20
681.4358055277998
 30
0.0
 10
1436.32056068534
 20
680.497378458579
 30
0.0
 10
1443.048133065079
 20
679.7926915112769
 30
0.0
 10
1449.809777282857
 20
679.4659422435159
 30
0.0
 10
1456.569159886793
 20
679.7415770805585
 30
0.0
 10
1463.280299662488
 20
680.9414782039318
 30
0.0
 10
1469.336230753866
 20
684.1160670061778
 30
0.0
 10
1474.247999486264
 20
688.8161660265313
 30
0.0
 10
1479.122709866962
 20
693.4927101764595
 30
0.0
 10
1483.597557932371
 20
698.5789900638149
 30
0.0
 10
1487.591997510751
 20
704.0413451129272
 30
0.0
 10
1492.14544061856
 20
712.5561828108207
 30
0.0
 10
1493.369245990984
 20
714.4496493134949
 30
0.0
  0
SPLINE
  5
6E7
330
1F
100
AcDbEntity
  8
Default
100
AcDbSpline
210
0.0
220
0.0
230
1.0
 70
     8
 71
     3
 72
    12
 73
     8
 74
     0
 42
0.000000001
 43
0.0000000001
 40
0.0
 40
0.0
 40
0.0
 40
0.0
 40
1.918305221504867
 40
3.868777778011241
 40
7.624449324857683
 40
11.42846767657462
 40
15.35241906764609
 40
15.35241906764609
 40
15.35241906764609
 40
15.35241906764609
 10
1394.822329961238
 20
453.2045639333149
 30
0.0
 10
1389.81669010017
 20
468.6539595497445
 30
0.0
 10
1376.677577445597
 20
498.833069596399
 30
0.0
 10
1339.746235343403
 20
552.1571073556565
 30
0.0
 10
1274.873990777999
 20
602.6515122663368
 30
0.0
 10
1178.887220748766
 20
627.668166796502
 30
0.0
 10
1112.865476337948
 20
618.6476794629397
 30
0.0
 10
1081.283415979675
 20
608.3854757343372
 30
0.0
  0
SPLINE
  5
6E8
330
1F
100
AcDbEntity
  8
Default
100
AcDbSpline
210
0.0
220
0.0
230
1.0
 70
     8
 71
     3
 72
    12
 73
     8
 74
     0
 42
0.000000001
 43
0.0000000001
 40
-14.89017236839833
 40
-14.89017236839833
 40
-14.89017236839833
 40
-14.89017236839833
 40
-11.21816917573749
 40
-7.516682162771167
 40
-3.774519558109396
 40
-1.88935509827327
 40
0.0
 40
0.0
 40
0.0
 40
0.0
 10
1081.283415979675
 20
608.3854757343372
 30
0.0
 10
1051.708883217198
 20
598.7848891021285
 30
0.0
 10
996.331477006721
 20
567.2470728159114
 30
0.0
 10
938.1716360086267
 20
490.8758719215714
 30
0.0
 10
917.6002165209084
 20
413.0678013428812
 30
0.0
 10
919.460352247162
 20
349.1726660530377
 30
0.0
 10
926.4130809974076
 20
317.8275326322669
 30
0.0
 10
931.3542361528957
 20
302.6146505788671
 30
0.0
  0
SPLINE
  5
6E9
330
1F
100
AcDbEntity
  8
Default
100
AcDbSpline
210
0.0
220
0.0
230
1.0
 70
    12
 71
     2
 72
     6
 73
     3
 74
     0
 42
0.000000001
 43
0.0000000001
 40
0.0
 40
0.0
 40
0.0
 40
0.0853474550214741
 40
0.0853474550214741
 40
0.0853474550214741
 10
1326.944144919679
 20
61.25116366211381
 30
0.0
 41
1.0
 10
1327.350571251729
 20
60.24586292820254
 30
0.0
 41
0.9993970637774639
 10
1327.686250806555
 20
59.2147804070388
 30
0.0
 41
1.0
  0
SPLINE
  5
6EA
330
1F
100
AcDbEntity
  8
Default
100
AcDbSpline
210
0.0
220
0.0
230
1.0
 70
     8
 71
     3
 72
    12
 73
     8
 74
     0
 42
0.000000001
 43
0.0000000001
 40
0.0
 40
0.0
 40
0.0
 40
0.0
 40
0.1510110321465192
 40
0.3037660471064116
 40
0.5900965017365678
 40
0.8249401141264362
 40
1.014583801502342
 40
1.014583801502342
 40
1.014583801502342
 40
1.014583801502342
 10
1307.183467673884
 20
55.76652011681289
 30
0.0
 10
1307.458102621363
 20
54.5171862246056
 30
0.0
 10
1308.160693055134
 20
52.04004225527609
 30
0.0
 10
1310.11840286103
 20
47.42958122860716
 30
0.0
 10
1313.290953479574
 20
42.63442232598464
 30
0.0
 10
1318.122549999302
 20
38.84004678595608
 30
0.0
 10
1321.863332802325
 20
38.32635963974576
 30
0.0
 10
1323.408004521089
 20
38.86173076354464
 30
0.0
  0
SPLINE
  5
6EB
330
1F
100
AcDbEntity
  8
Default
100
AcDbSpline
210
0.0
220
0.0
230
1.0
 70
     8
 71
     3
 72
    12
 73
     8
 74
     0
 42
0.000000001
 43
0.0000000001
 40
-1.014583801502342
 40
-1.014583801502342
 40
-1.014583801502342
 40
-1.014583801502342
 40
-0.8249401141264362
 40
-0.5900965017365678
 40
-0.3037660471064116
 40
-0.1510110321465192
 40
0.0
 40
0.0
 40
0.0
 40
0.0
 10
1323.408004521089
 20
38.86173076354464
 30
0.0
 10
1324.972353443375
 20
39.33654168201753
 30
0.0
 10
1327.696772574451
 20
41.95090027673962
 30
0.0
 10
1329.375338284787
 20
47.86055575098771
 30
0.0
 10
1329.123461965343
 20
53.60469925966885
 30
0.0
 10
1327.997321470621
 20
58.48535353432118
 30
0.0
 10
1327.10970037865
 20
60.90237739839444
 30
0.0
 10
1326.597544681382
 20
62.07453612073123
 30
0.0
  0
SPLINE
  5
6EC
330
1F
100
AcDbEntity
  8
Default
100
AcDbSpline
210
0.0
220
0.0
230
1.0
 70
    12
 71
     2
 72
     6
 73
     3
 74
     0
 42
0.000000001
 43
0.0000000001
 40
0.0
 40
0.0
 40
0.0
 40
0.1369528492222414
 40
0.1369528492222414
 40
0.1369528492222414
 10
1305.032610093572
 20
65.19919718491002
 30
0.0
 41
1.0
 10
1305.604490410668
 20
63.5566328384416
 30
0.0
 41
0.9999966913238282
 10
1306.123985183605
 20
61.89600821901098
 30
0.0
 41
0.9999959461296658
  0
ARC
  5
6ED
330
1F
100
AcDbEntity
  8
Default
100
AcDbCircle
 10
1294.111738255668
 20
57.77339694188658
 30
0.0
 40
12.69999999999999
100
AcDbArc
 50
6.48715217353202
 51
18.94225522512769
  0
SPLINE
  5
6EE
330
1F
100
AcDbEntity
  8
Default
100
AcDbSpline
210
0.0
220
0.0
230
1.0
 70
     8
 71
     3
 72
    14
 73
    10
 74
     0
 42
0.000000001
 43
0.0000000001
 40
0.2772630823298201
 40
0.2772630823298201
 40
0.2772630823298201
 40
0.2772630823298201
 40
1.0
 40
2.0
 40
3.0
 40
4.0
 40
5.0
 40
6.0
 40
7.0
 40
7.0
 40
7.0
 40
7.0
 10
1306.730422886571
 20
59.20824821844451
 30
0.0
 10
1306.846846586618
 20
58.18436931304785
 30
0.0
 10
1307.233463691539
 20
55.75609773704752
 30
0.0
 10
1308.32104218178
 20
52.01915314522597
 30
0.0
 10
1310.073094523733
 20
48.1076038783803
 30
0.0
 10
1312.36155847145
 20
44.47798892618254
 30
0.0
 10
1315.272045684729
 20
41.31430167440794
 30
0.0
 10
1318.959741840049
 20
39.01495331527502
 30
0.0
 10
1321.923843051632
 20
38.77034585256894
 30
0.0
 10
1323.289165630393
 20
39.22752007633858
 30
0.0
  0
SPLINE
  5
6EF
330
1F
100
AcDbEntity
  8
Default
100
AcDbSpline
210
0.0
220
0.0
230
1.0
 70
     8
 71
     3
 72
    14
 73
    10
 74
     0
 42
0.000000001
 43
0.0000000001
 40
-7.0
 40
-7.0
 40
-7.0
 40
-7.0
 40
-6.0
 40
-5.0
 40
-4.0
 40
-3.0
 40
-2.0
 40
-1.0
 40
-0.2482205602640466
 40
-0.2482205602640466
 40
-0.2482205602640466
 40
-0.2482205602640466
 10
1323.289165630393
 20
39.22752007633858
 30
0.0
 10
1324.662455065868
 20
39.66017483633425
 30
0.0
 10
1326.91668665991
 20
41.60032140908623
 30
0.0
 10
1328.548572464274
 20
45.62810672264555
 30
0.0
 10
1329.043637372269
 20
49.89832493517003
 30
0.0
 10
1328.761609456585
 20
54.17987047340659
 30
0.0
 10
1327.879898603591
 20
58.37421083246368
 30
0.0
 10
1326.549202885644
 20
62.07579192373419
 30
0.0
 10
1325.411066719981
 20
64.3023492143721
 30
0.0
 10
1324.879702940749
 20
65.23325064736917
 30
0.0
  0
ARC
  5
6F0
330
1F
100
AcDbEntity
  8
Default
100
AcDbCircle
 10
1335.909349367149
 20
71.52903492803239
 30
0.0
 40
12.69999999999999
100
AcDbArc
 50
196.9775798079509
 51
209.7179678781595
  0
SPLINE
  5
6F1
330
1F
100
AcDbEntity
  8
Default
100
AcDbSpline
210
0.0
220
0.0
230
1.0
 70
    12
 71
     2
 72
     6
 73
     3
 74
     0
 42
0.000000001
 43
0.0000000001
 40
-0.1297405451143296
 40
-0.1297405451143296
 40
-0.1297405451143296
 40
0.0
 40
0.0
 40
0.0
 10
1323.762826929266
 20
67.82066700319177
 30
0.0
 41
0.9999960316975588
 10
1323.281701114894
 20
69.39656389857936
 30
0.0
 41
0.999996865512317
 10
1322.805358139269
 20
70.97391308114175
 30
0.0
 41
1.0
  0
SPLINE
  5
6F2
330
1F
100
AcDbEntity
  8
Default
100
AcDbSpline
210
0.0
220
0.0
230
1.0
 70
    12
 71
     2
 72
     6
 73
     3
 74
     0
 42
0.000000001
 43
0.0000000001
 40
-1.102413928352738
 40
-1.102413928352738
 40
-1.102413928352738
 40
0.0
 40
0.0
 40
0.0
 10
1313.937327823187
 20
99.36284351405028
 30
0.0
 41
0.9999999993925147
 10
1318.118665570042
 20
85.99166705621815
 30
0.0
 41
0.9999999996616539
 10
1322.300475183461
 20
72.61955767904663
 30
0.0
 41
1.0
  0
SPLINE
  5
6F3
330
1F
100
AcDbEntity
  8
Default
100
AcDbSpline
210
0.0
220
0.0
230
1.0
 70
     8
 71
     3
 72
    14
 73
    10
 74
     0
 42
0.000000001
 43
0.0000000001
 40
0.0
 40
0.0
 40
0.0
 40
0.0
 40
1.0
 40
2.0
 40
3.0
 40
4.0
 40
5.0
 40
6.0
 40
7.0
 40
7.0
 40
7.0
 40
7.0
 10
1322.300475183461
 20
72.61955767904663
 30
0.0
 10
1322.82694417674
 20
70.91295593919221
 30
0.0
 10
1323.377694988884
 20
67.54957897718401
 30
0.0
 10
1322.736888511591
 20
62.47059558103302
 30
0.0
 10
1319.944546658738
 20
57.96289125491529
 30
0.0
 10
1314.768103487694
 20
56.37116131945981
 30
0.0
 10
1309.912918540402
 20
58.47843535252144
 30
0.0
 10
1306.458311764689
 20
62.25376871323158
 30
0.0
 10
1304.958909706855
 20
65.31428794054824
 30
0.0
 10
1304.436750866018
 20
66.91887461924165
 30
0.0
  0
SPLINE
  5
6F4
330
1F
100
AcDbEntity
  8
Default
100
AcDbSpline
210
0.0
220
0.0
230
1.0
 70
    12
 71
     2
 72
     6
 73
     3
 74
     0
 42
0.000000001
 43
0.0000000001
 40
0.0
 40
0.0
 40
0.0
 40
1.112498698414412
 40
1.112498698414412
 40
1.112498698414412
 10
1304.436750866018
 20
66.91887461924165
 30
0.0
 41
1.0
 10
1299.922846192301
 20
80.30714462529852
 30
0.0
 41
0.9999999996585591
 10
1295.408716726061
 20
93.69533883962304
 30
0.0
 41
0.9999999993875963
  0
ENDSEC
  0
SECTION
  2
OBJECTS
  0
DICTIONARY
  5
C
330
0
100
AcDbDictionary
281
     1
  3
ACAD_CIP_PREVIOUS_PRODUCT_INFO
350
4C9
  3
ACAD_COLOR
350
4C1
  3
ACAD_DETAILVIEWSTYLE
350
4BE
  3
ACAD_GROUP
350
D
  3
ACAD_LAYOUT
350
1A
  3
ACAD_MATERIAL
350
43
  3
ACAD_MLEADERSTYLE
350
4BD
  3
ACAD_MLINESTYLE
350
17
  3
ACAD_PLOTSETTINGS
350
19
  3
ACAD_PLOTSTYLENAME
350
E
  3
ACAD_SCALELIST
350
47
  3
ACAD_SECTIONVIEWSTYLE
350
4BF
  3
ACAD_TABLESTYLE
350
4BC
  3
ACAD_VISUALSTYLE
350
2A
  3
ACDB_RECOMPOSE_DATA
350
726
  3
AcDbVariableDictionary
350
483
  0
DICTIONARY
  5
481
330
8
100
AcDbDictionary
280
     1
281
     1
  0
SUN
  5
69
330
29
100
AcDbSun
 90
        1
290
     0
 63
     7
421
 16777215
 40
1.0
291
     1
 91
  2455826
 92
 54000000
292
     0
 70
     0
 71
   256
280
     1
  0
DICTIONARY
  5
4D3
330
2
100
AcDbDictionary
280
     1
281
     1
  3
ACAD_LAYERSTATES
360
4D4
  0
DICTIONARY
  5
4CA
330
10
100
AcDbDictionary
280
     1
281
     1
  3
ADSK_XREC_LAYER_RECONCILED
360
4CB
  0
DICTIONARY
  5
4CC
330
6A
100
AcDbDictionary
280
     1
281
     1
  3
ADSK_XREC_LAYER_RECONCILED
360
4CD
  0
DICTIONARY
  5
603
330
1F
100
AcDbDictionary
280
     1
281
     1
  0
XRECORD
  5
4C9
102
{ACAD_REACTORS
330
C
102
}
330
C
100
AcDbXrecord
280
     1
300
ACD
300
2016
300
ACD_F_S
  0
DICTIONARY
  5
4C1
102
{ACAD_REACTORS
330
C
102
}
330
C
100
AcDbDictionary
281
     1
  0
DICTIONARY
  5
4BE
102
{ACAD_REACTORS
330
C
102
}
330
C
100
AcDbDictionary
281
     1
  3
Imperial24
350
4C5
  0
DICTIONARY
  5
D
102
{ACAD_REACTORS
330
C
102
}
330
C
100
AcDbDictionary
281
     1
  0
DICTIONARY
  5
1A
102
{ACAD_REACTORS
330
C
102
}
330
C
100
AcDbDictionary
281
     1
  3
Layout1
350
1E
  3
Layout2
350
26
  3
Model
350
22
  0
DICTIONARY
  5
43
102
{ACAD_REACTORS
330
C
102
}
330
C
100
AcDbDictionary
281
     1
  3
ByBlock
350
45
  3
ByLayer
350
44
  3
Global
350
46
  0
DICTIONARY
  5
4BD
102
{ACAD_REACTORS
330
C
102
}
330
C
100
AcDbDictionary
281
     1
  3
Standard
350
4C3
  0
DICTIONARY
  5
17
102
{ACAD_REACTORS
330
C
102
}
330
C
100
AcDbDictionary
281
     1
  3
Standard
350
18
  0
DICTIONARY
  5
19
102
{ACAD_REACTORS
330
C
102
}
330
C
100
AcDbDictionary
281
     1
  0
ACDBDICTIONARYWDFLT
  5
E
102
{ACAD_REACTORS
330
C
102
}
330
C
100
AcDbDictionary
281
     1
  3
Normal
350
F
100
AcDbDictionaryWithDefault
340
F
  0
DICTIONARY
  5
47
102
{ACAD_REACTORS
330
C
102
}
330
C
100
AcDbDictionary
281
     1
  3
A0
350
48
  3
A1
350
49
  3
A2
350
4A
  3
A3
350
4B
  3
A4
350
4C
  3
A5
350
4D
  3
A6
350
4E
  3
A7
350
4F
  3
A8
350
50
  3
A9
350
51
  3
B0
350
52
  3
B1
350
53
  3
B2
350
54
  3
B3
350
55
  3
B4
350
56
  3
B5
350
57
  3
B6
350
58
  3
B7
350
59
  3
B8
350
5A
  3
B9
350
5B
  3
C0
350
5C
  3
C1
350
5D
  3
C2
350
5E
  3
C3
350
5F
  3
C4
350
60
  3
C5
350
61
  3
C6
350
62
  3
C7
350
63
  3
C8
350
64
  3
C9
350
65
  3
D0
350
66
  3
D1
350
67
  3
D2
350
68
  0
DICTIONARY
  5
4BF
102
{ACAD_REACTORS
330
C
102
}
330
C
100
AcDbDictionary
281
     1
  3
Imperial24
350
4C4
  0
DICTIONARY
  5
4BC
102
{ACAD_REACTORS
330
C
102
}
330
C
100
AcDbDictionary
281
     1
  3
Standard
350
4C2
  0
DICTIONARY
  5
2A
102
{ACAD_REACTORS
330
C
102
}
330
C
100
AcDbDictionary
281
     1
  3
2dWireframe
350
2F
  3
Basic
350
32
  3
Brighten
350
36
  3
ColorChange
350
3A
  3
Conceptual
350
34
  3
Dim
350
35
  3
EdgeColorOff
350
3D
  3
Facepattern
350
39
  3
Flat
350
2B
  3
FlatWithEdges
350
2C
  3
Gouraud
350
2D
  3
GouraudWithEdges
350
2E
  3
Hidden
350
31
  3
JitterOff
350
3B
  3
Linepattern
350
38
  3
OverhangOff
350
3C
  3
Realistic
350
33
  3
Shaded
350
42
  3
Shaded with edges
350
41
  3
Shades of Gray
350
3E
  3
Sketchy
350
3F
  3
Thicken
350
37
  3
Wireframe
350
30
  3
X-Ray
350
40
  0
XRECORD
  5
726
102
{ACAD_REACTORS
330
C
102
}
330
C
100
AcDbXrecord
280
     1
 90
        1
330
4C2
330
4C4
330
4C5
  0
DICTIONARY
  5
483
102
{ACAD_REACTORS
330
C
102
}
330
C
100
AcDbDictionary
281
     1
  3
CANNOSCALE
350
484
  3
CMLEADERSTYLE
350
715
  3
CTABLESTYLE
350
714
  3
CVIEWDETAILSTYLE
350
716
  3
CVIEWSECTIONSTYLE
350
717
  3
LAYEREVAL
350
719
  3
LAYERNOTIFY
350
71A
  3
LIGHTINGUNITS
350
718
  3
MSLTSCALE
350
485
  0
DICTIONARY
  5
4D4
102
{ACAD_REACTORS
330
4D3
102
}
330
4D3
100
AcDbDictionary
281
     1
  0
XRECORD
  5
4CB
102
{ACAD_REACTORS
330
4CA
102
}
330
4CA
100
AcDbXrecord
280
     1
290
     1
  0
XRECORD
  5
4CD
102
{ACAD_REACTORS
330
4CC
102
}
330
4CC
100
AcDbXrecord
280
     1
290
     1
  0
ACDBDETAILVIEWSTYLE
  5
4C5
102
{ACAD_XDICTIONARY
360
711
102
}
102
{ACAD_REACTORS
330
4BE
102
}
330
4BE
100
AcDbModelDocViewStyle
 70
     0
  3
Imperial24
290
     0
100
AcDbDetailViewStyle
 70
     0
 71
     0
 90
        3
 71
     1
340
11
 62
   256
 40
0.24
340
0
 62
   256
 40
0.24
300

 40
0.36
280
     3
 71
     2
340
16
 90
       25
 62
   256
 71
     3
340
11
 62
   256
 40
0.24
 90
        1
 40
0.75
 90
        1
300
%<\AcVar ViewType \f "%tc1">% %<\AcVar ViewDetailId>%\PSCALE %<\AcVar ViewScale \f "%sn">%
 71
     4
340
16
 90
       25
 62
   256
340
16
 90
       25
 62
   256
280
     0
  0
LAYOUT
  5
1E
102
{ACAD_REACTORS
330
1A
102
}
330
1A
100
AcDbPlotSettings
  1

  2
none_device
  4

  6

 40
0.0
 41
0.0
 42
0.0
 43
0.0
 44
0.0
 45
0.0
 46
0.0
 47
0.0
 48
0.0
 49
0.0
140
0.0
141
0.0
142
1.0
143
1.0
 70
   688
 72
     0
 73
     0
 74
     5
  7

 75
    16
147
1.0
 76
     0
 77
     2
 78
   300
148
0.0
149
0.0
100
AcDbLayout
  1
Layout1
 70
     1
 71
     1
 10
0.0
 20
0.0
 11
12.0
 21
9.0
 12
0.0
 22
0.0
 32
0.0
 14
1.000000000000000E+20
 24
1.000000000000000E+20
 34
1.000000000000000E+20
 15
-1.000000000000000E+20
 25
-1.000000000000000E+20
 35
-1.000000000000000E+20
146
0.0
 13
0.0
 23
0.0
 33
0.0
 16
1.0
 26
0.0
 36
0.0
 17
0.0
 27
1.0
 37
0.0
 76
     0
330
1B
  0
LAYOUT
  5
26
102
{ACAD_REACTORS
330
1A
102
}
330
1A
100
AcDbPlotSettings
  1

  2
none_device
  4

  6

 40
0.0
 41
0.0
 42
0.0
 43
0.0
 44
0.0
 45
0.0
 46
0.0
 47
0.0
 48
0.0
 49
0.0
140
0.0
141
0.0
142
1.0
143
1.0
 70
   688
 72
     0
 73
     0
 74
     5
  7

 75
    16
147
1.0
 76
     0
 77
     2
 78
   300
148
0.0
149
0.0
100
AcDbLayout
  1
Layout2
 70
     1
 71
     2
 10
0.0
 20
0.0
 11
0.0
 21
0.0
 12
0.0
 22
0.0
 32
0.0
 14
0.0
 24
0.0
 34
0.0
 15
0.0
 25
0.0
 35
0.0
146
0.0
 13
0.0
 23
0.0
 33
0.0
 16
1.0
 26
0.0
 36
0.0
 17
0.0
 27
1.0
 37
0.0
 76
     0
330
23
  0
LAYOUT
  5
22
102
{ACAD_REACTORS
330
1A
102
}
330
1A
100
AcDbPlotSettings
  1

  2
none_device
  4
Letter_(8.50_x_11.00_Inches)
  6

 40
6.349999999999999
 41
6.349999999999999
 42
6.350005079999999
 43
6.350005079999999
 44
215.9
 45
279.4
 46
0.0
 47
0.0
 48
0.0
 49
0.0
140
0.0
141
0.0
142
1.0
143
1.0
 70
  1712
 72
     0
 73
     0
 74
     0
  7

 75
     0
147
1.0
 76
     0
 77
     2
 78
   300
148
0.0
149
0.0
100
AcDbLayout
  1
Model
 70
     1
 71
     0
 10
0.0
 20
0.0
 11
12.0
 21
9.0
 12
0.0
 22
0.0
 32
0.0
 14
-1679.193031019529
 24
-1497.474754561191
 34
-0.0000000000006416
 15
1679.193037022567
 25
1723.231683684492
 35
1018.915111936958
146
0.0
 13
0.0
 23
0.0
 33
0.0
 16
1.0
 26
0.0
 36
0.0
 17
0.0
 27
1.0
 37
0.0
 76
     0
330
1F
331
29
  0
MATERIAL
  5
45
102
{ACAD_REACTORS
330
43
102
}
330
43
100
AcDbMaterial
  1
ByBlock
 73
     1
 78
     1
172
     1
176
     1
270
     1
274
     1
  0
MATERIAL
  5
44
102
{ACAD_REACTORS
330
43
102
}
330
43
100
AcDbMaterial
  1
ByLayer
 73
     1
 78
     1
172
     1
176
     1
270
     1
274
     1
  0
MATERIAL
  5
46
102
{ACAD_REACTORS
330
43
102
}
330
43
100
AcDbMaterial
  1
Global
 73
     1
 78
     1
172
     1
176
     1
270
     1
274
     1
  0
MLEADERSTYLE
  5
4C3
102
{ACAD_REACTORS
330
4BD
102
}
330
4BD
100
AcDbMLeaderStyle
179
     2
170
     2
171
     1
172
     0
 90
        2
 40
0.0
 41
0.0
173
     1
 91
-1056964608
340
14
 92
       -2
290
     1
 42
0.09
291
     1
 43
0.36
  3
Standard
 44
0.18
300

342
11
174
     1
178
     6
175
     1
176
     0
 93
-1056964608
 45
0.18
292
     0
297
     0
 46
0.18
 94
-1056964608
 47
1.0
 49
1.0
140
1.0
293
     1
141
0.0
294
     1
177
     0
142
1.0
295
     1
296
     0
143
0.125
271
     0
272
     9
273
     9
298
     1
  0
MLINESTYLE
  5
18
102
{ACAD_REACTORS
330
17
102
}
330
17
100
AcDbMlineStyle
  2
STANDARD
 70
     0
  3

 62
   256
 51
90.0
 52
90.0
 71
     2
 49
0.5
 62
   256
  6
BYLAYER
 49
-0.5
 62
   256
  6
BYLAYER
  0
ACDBPLACEHOLDER
  5
F
102
{ACAD_REACTORS
330
E
102
}
330
E
  0
SCALE
  5
48
102
{ACAD_REACTORS
330
47
102
}
330
47
100
AcDbScale
 70
     0
300
1:1
140
1.0
141
1.0
290
     1
  0
SCALE
  5
49
102
{ACAD_REACTORS
330
47
102
}
330
47
100
AcDbScale
 70
     0
300
1:2
140
1.0
141
2.0
290
     0
  0
SCALE
  5
4A
102
{ACAD_REACTORS
330
47
102
}
330
47
100
AcDbScale
 70
     0
300
1:4
140
1.0
141
4.0
290
     0
  0
SCALE
  5
4B
102
{ACAD_REACTORS
330
47
102
}
330
47
100
AcDbScale
 70
     0
300
1:5
140
1.0
141
5.0
290
     0
  0
SCALE
  5
4C
102
{ACAD_REACTORS
330
47
102
}
330
47
100
AcDbScale
 70
     0
300
1:8
140
1.0
141
8.0
290
     0
  0
SCALE
  5
4D
102
{ACAD_REACTORS
330
47
102
}
330
47
100
AcDbScale
 70
     0
300
1:10
140
1.0
141
10.0
290
     0
  0
SCALE
  5
4E
102
{ACAD_REACTORS
330
47
102
}
330
47
100
AcDbScale
 70
     0
300
1:16
140
1.0
141
16.0
290
     0
  0
SCALE
  5
4F
102
{ACAD_REACTORS
330
47
102
}
330
47
100
AcDbScale
 70
     0
300
1:20
140
1.0
141
20.0
290
     0
  0
SCALE
  5
50
102
{ACAD_REACTORS
330
47
102
}
330
47
100
AcDbScale
 70
     0
300
1:30
140
1.0
141
30.0
290
     0
  0
SCALE
  5
51
102
{ACAD_REACTORS
330
47
102
}
330
47
100
AcDbScale
 70
     0
300
1:40
140
1.0
141
40.0
290
     0
  0
SCALE
  5
52
102
{ACAD_REACTORS
330
47
102
}
330
47
100
AcDbScale
 70
     0
300
1:50
140
1.0
141
50.0
290
     0
  0
SCALE
  5
53
102
{ACAD_REACTORS
330
47
102
}
330
47
100
AcDbScale
 70
     0
300
1:100
140
1.0
141
100.0
290
     0
  0
SCALE
  5
54
102
{ACAD_REACTORS
330
47
102
}
330
47
100
AcDbScale
 70
     0
300
2:1
140
2.0
141
1.0
290
     0
  0
SCALE
  5
55
102
{ACAD_REACTORS
330
47
102
}
330
47
100
AcDbScale
 70
     0
300
4:1
140
4.0
141
1.0
290
     0
  0
SCALE
  5
56
102
{ACAD_REACTORS
330
47
102
}
330
47
100
AcDbScale
 70
     0
300
8:1
140
8.0
141
1.0
290
     0
  0
SCALE
  5
57
102
{ACAD_REACTORS
330
47
102
}
330
47
100
AcDbScale
 70
     0
300
10:1
140
10.0
141
1.0
290
     0
  0
SCALE
  5
58
102
{ACAD_REACTORS
330
47
102
}
330
47
100
AcDbScale
 70
     0
300
100:1
140
100.0
141
1.0
290
     0
  0
SCALE
  5
59
102
{ACAD_REACTORS
330
47
102
}
330
47
100
AcDbScale
 70
     0
300
1/128" = 1'-0"
140
0.0078125
141
12.0
290
     0
  0
SCALE
  5
5A
102
{ACAD_REACTORS
330
47
102
}
330
47
100
AcDbScale
 70
     0
300
1/64" = 1'-0"
140
0.015625
141
12.0
290
     0
  0
SCALE
  5
5B
102
{ACAD_REACTORS
330
47
102
}
330
47
100
AcDbScale
 70
     0
300
1/32" = 1'-0"
140
0.03125
141
12.0
290
     0
  0
SCALE
  5
5C
102
{ACAD_REACTORS
330
47
102
}
330
47
100
AcDbScale
 70
     0
300
1/16" = 1'-0"
140
0.0625
141
12.0
290
     0
  0
SCALE
  5
5D
102
{ACAD_REACTORS
330
47
102
}
330
47
100
AcDbScale
 70
     0
300
3/32" = 1'-0"
140
0.09375
141
12.0
290
     0
  0
SCALE
  5
5E
102
{ACAD_REACTORS
330
47
102
}
330
47
100
AcDbScale
 70
     0
300
1/8" = 1'-0"
140
0.125
141
12.0
290
     0
  0
SCALE
  5
5F
102
{ACAD_REACTORS
330
47
102
}
330
47
100
AcDbScale
 70
     0
300
3/16" = 1'-0"
140
0.1875
141
12.0
290
     0
  0
SCALE
  5
60
102
{ACAD_REACTORS
330
47
102
}
330
47
100
AcDbScale
 70
     0
300
1/4" = 1'-0"
140
0.25
141
12.0
290
     0
  0
SCALE
  5
61
102
{ACAD_REACTORS
330
47
102
}
330
47
100
AcDbScale
 70
     0
300
3/8" = 1'-0"
140
0.375
141
12.0
290
     0
  0
SCALE
  5
62
102
{ACAD_REACTORS
330
47
102
}
330
47
100
AcDbScale
 70
     0
300
1/2" = 1'-0"
140
0.5
141
12.0
290
     0
  0
SCALE
  5
63
102
{ACAD_REACTORS
330
47
102
}
330
47
100
AcDbScale
 70
     0
300
3/4" = 1'-0"
140
0.75
141
12.0
290
     0
  0
SCALE
  5
64
102
{ACAD_REACTORS
330
47
102
}
330
47
100
AcDbScale
 70
     0
300
1" = 1'-0"
140
1.0
141
12.0
290
     0
  0
SCALE
  5
65
102
{ACAD_REACTORS
330
47
102
}
330
47
100
AcDbScale
 70
     0
300
1-1/2" = 1'-0"
140
1.5
141
12.0
290
     0
  0
SCALE
  5
66
102
{ACAD_REACTORS
330
47
102
}
330
47
100
AcDbScale
 70
     0
300
3" = 1'-0"
140
3.0
141
12.0
290
     0
  0
SCALE
  5
67
102
{ACAD_REACTORS
330
47
102
}
330
47
100
AcDbScale
 70
     0
300
6" = 1'-0"
140
6.0
141
12.0
290
     0
  0
SCALE
  5
68
102
{ACAD_REACTORS
330
47
102
}
330
47
100
AcDbScale
 70
     0
300
1'-0" = 1'-0"
140
12.0
141
12.0
290
     0
  0
ACDBSECTIONVIEWSTYLE
  5
4C4
102
{ACAD_XDICTIONARY
360
70F
102
}
102
{ACAD_REACTORS
330
4BF
102
}
330
4BF
100
AcDbModelDocViewStyle
 70
     0
  3
Imperial24
290
     0
100
AcDbSectionViewStyle
 70
     0
 71
     0
 90
       78
 71
     1
340
11
 62
   256
 40
0.24
340
0
340
0
 62
   256
 40
0.24
300
I, O, Q, S, X, Z
 40
0.48
 90
        3
 40
0.18
 90
        1
 71
     2
340
16
 90
       25
 62
   256
340
16
 90
       50
 62
   256
 40
0.24
 40
0.0
 40
0.24
 71
     3
340
11
 62
   256
 40
0.24
 90
        1
 40
0.75
 90
        1
300
%<\AcVar ViewType \f "%tc1">% %<\AcVar ViewSectionStartId>%-%<\AcVar ViewSectionEndId>%\PSCALE %<\AcVar ViewScale \f "%sn">%
 71
     4
 62
   256
 62
   257
300
ANSI31
 40
1.0
 90
        0
290
     0
290
     0
 90
        6
 40
0.0
 40
1.570796326794896
 40
0.2617993877991494
 40
1.308996938995747
 40
-0.2617993877991494
 40
1.832595714594046
  0
TABLESTYLE
  5
4C2
102
{ACAD_XDICTIONARY
360
722
102
}
102
{ACAD_REACTORS
330
4BC
102
}
330
4BC
100
AcDbTableStyle
280
     0
  3
Standard
 70
     0
 71
     0
 40
0.06
 41
0.06
280
     0
281
     0
  7
Standard
140
0.18
170
     2
 62
     0
 63
     7
283
     0
 90
      512
 91
        0
  1

274
    -2
284
     1
 64
     0
275
    -2
285
     1
 65
     0
276
    -2
286
     1
 66
     0
277
    -2
287
     1
 67
     0
278
    -2
288
     1
 68
     0
279
    -2
289
     1
 69
     0
  7
Standard
140
0.25
170
     5
 62
     0
 63
     7
283
     0
 90
      512
 91
        0
  1

274
    -2
284
     1
 64
     0
275
    -2
285
     1
 65
     0
276
    -2
286
     1
 66
     0
277
    -2
287
     1
 67
     0
278
    -2
288
     1
 68
     0
279
    -2
289
     1
 69
     0
  7
Standard
140
0.18
170
     5
 62
     0
 63
     7
283
     0
 90
      512
 91
        0
  1

274
    -2
284
     1
 64
     0
275
    -2
285
     1
 65
     0
276
    -2
286
     1
 66
     0
277
    -2
287
     1
 67
     0
278
    -2
288
     1
 68
     0
279
    -2
289
     1
 69
     0
  0
VISUALSTYLE
  5
2F
102
{ACAD_REACTORS
330
2A
102
}
330
2A
100
AcDbVisualStyle
  2
2dWireframe
 70
     4
177
     3
291
     0
 70
    58
 90
        0
176
     1
 90
        2
176
     1
 90
        0
176
     1
 90
        0
176
     1
 40
0.6
176
     1
 40
30.0
176
     1
 62
     7
420
 16777215
176
     1
 90
        1
176
     1
 90
        4
176
     1
 62
     7
176
     1
 62
   257
176
     1
 90
        1
176
     1
 90
        1
176
     1
 40
1.0
176
     1
 90
        0
176
     1
 62
   257
176
     1
 40
1.0
176
     1
 90
        1
176
     1
 90
        6
176
     1
 90
        2
176
     1
 62
     7
176
     1
 90
        5
176
     1
 90
        0
176
     1
 90
        0
176
     1
290
     0
176
     1
 90
        1
176
     1
 40
0.0
176
     1
 90
        0
176
     1
290
     1
176
     1
290
     1
176
     1
290
     0
176
     1
290
     0
176
     1
290
     0
176
     1
290
     0
176
     1
290
     0
176
     1
290
     0
176
     1
290
     0
176
     1
 90
       50
176
     1
 40
0.0
176
     1
 40
1.0
176
     1
 90
        0
176
     1
 62
    18
420
        0
176
     1
 90
       50
176
     1
 90
        3
176
     1
 62
     5
420
      255
176
     1
290
     0
176
     1
 90
       50
176
     1
 90
       50
176
     1
 90
       50
176
     1
290
     0
176
     1
 90
       50
176
     1
 62
   256
176
     0
 40
1.0
176
     0
 90
        2
176
     1
  1
strokes_ogs.tif
176
     1
290
     0
176
     1
 40
1.0
176
     1
 40
1.0
176
     1
  0
VISUALSTYLE
  5
32
102
{ACAD_REACTORS
330
2A
102
}
330
2A
100
AcDbVisualStyle
  2
Basic
 70
     7
177
     3
291
     1
 70
    58
 90
        1
176
     1
 90
        0
176
     1
 90
        1
176
     1
 90
        0
176
     1
 40
0.6
176
     1
 40
30.0
176
     1
 62
     7
420
 16777215
176
     1
 90
        0
176
     1
 90
        4
176
     1
 62
     7
176
     1
 62
   257
176
     1
 90
        1
176
     1
 90
        1
176
     1
 40
1.0
176
     1
 90
        8
176
     1
 62
     7
176
     1
 40
1.0
176
     1
 90
        1
176
     1
 90
        6
176
     1
 90
        2
176
     1
 62
     7
176
     1
 90
        5
176
     1
 90
        0
176
     1
 90
        0
176
     1
290
     0
176
     1
 90
        1
176
     1
 40
0.0
176
     1
 90
        0
176
     1
290
     0
176
     1
290
     1
176
     1
290
     1
176
     1
290
     0
176
     1
290
     0
176
     1
290
     0
176
     1
290
     0
176
     1
290
     0
176
     1
290
     0
176
     1
 90
       50
176
     1
 40
0.0
176
     1
 40
1.0
176
     1
 90
        0
176
     1
 62
    18
420
        0
176
     1
 90
       50
176
     1
 90
        3
176
     1
 62
     5
420
      255
176
     1
290
     0
176
     1
 90
       50
176
     1
 90
       50
176
     1
 90
       50
176
     1
290
     0
176
     1
 90
       50
176
     1
 62
   256
176
     0
 40
1.0
176
     0
 90
        2
176
     1
  1
strokes_ogs.tif
176
     1
290
     0
176
     1
 40
1.0
176
     1
 40
1.0
176
     1
  0
VISUALSTYLE
  5
36
102
{ACAD_REACTORS
330
2A
102
}
330
2A
100
AcDbVisualStyle
  2
Brighten
 70
    12
177
     3
291
     1
 70
    58
 90
        2
176
     1
 90
        2
176
     1
 90
        0
176
     1
 90
        0
176
     1
 40
0.6
176
     1
 40
30.0
176
     1
 62
     7
420
 16777215
176
     1
 90
        1
176
     1
 90
        4
176
     1
 62
     7
176
     1
 62
   257
176
     1
 90
        1
176
     1
 90
        1
176
     1
 40
1.0
176
     1
 90
        8
176
     1
 62
     7
176
     1
 40
1.0
176
     1
 90
        1
176
     1
 90
        6
176
     1
 90
        2
176
     1
 62
     7
176
     1
 90
        5
176
     1
 90
        0
176
     1
 90
        0
176
     1
290
     0
176
     1
 90
        1
176
     1
 40
50.0
176
     1
 90
        0
176
     1
290
     0
176
     1
290
     1
176
     1
290
     1
176
     1
290
     0
176
     1
290
     0
176
     1
290
     0
176
     1
290
     0
176
     1
290
     0
176
     1
290
     0
176
     1
 90
       50
176
     1
 40
0.0
176
     1
 40
1.0
176
     1
 90
        0
176
     1
 62
    18
420
        0
176
     1
 90
       50
176
     1
 90
        3
176
     1
 62
     5
420
      255
176
     1
290
     0
176
     1
 90
       50
176
     1
 90
       50
176
     1
 90
       50
176
     1
290
     0
176
     1
 90
       50
176
     1
 62
   256
176
     0
 40
1.0
176
     0
 90
        2
176
     1
  1
strokes_ogs.tif
176
     1
290
     0
176
     1
 40
1.0
176
     1
 40
1.0
176
     1
  0
VISUALSTYLE
  5
3A
102
{ACAD_REACTORS
330
2A
102
}
330
2A
100
AcDbVisualStyle
  2
ColorChange
 70
    16
177
     3
291
     1
 70
    58
 90
        2
176
     1
 90
        2
176
     1
 90
        3
176
     1
 90
        0
176
     1
 40
0.6
176
     1
 40
30.0
176
     1
 62
     8
420
  8421504
176
     1
 90
        1
176
     1
 90
        4
176
     1
 62
     7
176
     1
 62
   257
176
     1
 90
        1
176
     1
 90
        1
176
     1
 40
1.0
176
     1
 90
        8
176
     1
 62
     8
420
  8421504
176
     1
 40
1.0
176
     1
 90
        1
176
     1
 90
        6
176
     1
 90
        2
176
     1
 62
     7
176
     1
 90
        5
176
     1
 90
        0
176
     1
 90
        0
176
     1
290
     0
176
     1
 90
        1
176
     1
 40
0.0
176
     1
 90
        0
176
     1
290
     0
176
     1
290
     1
176
     1
290
     1
176
     1
290
     0
176
     1
290
     0
176
     1
290
     0
176
     1
290
     0
176
     1
290
     0
176
     1
290
     0
176
     1
 90
       50
176
     1
 40
0.0
176
     1
 40
1.0
176
     1
 90
        0
176
     1
 62
    18
420
        0
176
     1
 90
       50
176
     1
 90
        3
176
     1
 62
     5
420
      255
176
     1
290
     0
176
     1
 90
       50
176
     1
 90
       50
176
     1
 90
       50
176
     1
290
     0
176
     1
 90
       50
176
     1
 62
   256
176
     0
 40
1.0
176
     0
 90
        2
176
     1
  1
strokes_ogs.tif
176
     1
290
     0
176
     1
 40
1.0
176
     1
 40
1.0
176
     1
  0
VISUALSTYLE
  5
34
102
{ACAD_REACTORS
330
2A
102
}
330
2A
100
AcDbVisualStyle
  2
Conceptual
 70
     9
177
     3
291
     0
 70
    58
 90
        3
176
     1
 90
        2
176
     1
 90
        0
176
     1
 90
        0
176
     1
 40
0.6
176
     1
 40
30.0
176
     1
 62
     7
420
 16777215
176
     1
 90
        2
176
     1
 90
        2
176
     1
 62
     7
176
     1
 62
   257
176
     1
 90
        1
176
     1
 90
        1
176
     1
 40
179.0
176
     1
 90
        8
176
     1
 62
     7
176
     1
 40
1.0
176
     1
 90
        1
176
     1
 90
        6
176
     1
 90
        2
176
     1
 62
     7
176
     1
 90
        3
176
     1
 90
        0
176
     1
 90
        0
176
     1
290
     0
176
     1
 90
        1
176
     1
 40
0.0
176
     1
 90
        0
176
     1
290
     0
176
     1
290
     1
176
     1
290
     1
176
     1
290
     0
176
     1
290
     0
176
     1
290
     0
176
     1
290
     0
176
     1
290
     0
176
     1
290
     0
176
     1
 90
       50
176
     1
 40
0.0
176
     1
 40
1.0
176
     1
 90
        0
176
     1
 62
    18
420
        0
176
     1
 90
       50
176
     1
 90
        3
176
     1
 62
     5
420
      255
176
     1
290
     0
176
     1
 90
       50
176
     1
 90
       50
176
     1
 90
       50
176
     1
290
     0
176
     1
 90
       50
176
     1
 62
   256
176
     0
 40
1.0
176
     0
 90
        2
176
     1
  1
strokes_ogs.tif
176
     1
290
     0
176
     1
 40
1.0
176
     1
 40
1.0
176
     1
  0
VISUALSTYLE
  5
35
102
{ACAD_REACTORS
330
2A
102
}
330
2A
100
AcDbVisualStyle
  2
Dim
 70
    11
177
     3
291
     1
 70
    58
 90
        2
176
     1
 90
        2
176
     1
 90
        0
176
     1
 90
        0
176
     1
 40
0.6
176
     1
 40
30.0
176
     1
 62
     7
420
 16777215
176
     1
 90
        1
176
     1
 90
        4
176
     1
 62
     7
176
     1
 62
   257
176
     1
 90
        1
176
     1
 90
        1
176
     1
 40
1.0
176
     1
 90
        8
176
     1
 62
     7
176
     1
 40
1.0
176
     1
 90
        1
176
     1
 90
        6
176
     1
 90
        2
176
     1
 62
     7
176
     1
 90
        5
176
     1
 90
        0
176
     1
 90
        0
176
     1
290
     0
176
     1
 90
        1
176
     1
 40
-50.0
176
     1
 90
        0
176
     1
290
     0
176
     1
290
     1
176
     1
290
     1
176
     1
290
     0
176
     1
290
     0
176
     1
290
     0
176
     1
290
     0
176
     1
290
     0
176
     1
290
     0
176
     1
 90
       50
176
     1
 40
0.0
176
     1
 40
1.0
176
     1
 90
        0
176
     1
 62
    18
420
        0
176
     1
 90
       50
176
     1
 90
        3
176
     1
 62
     5
420
      255
176
     1
290
     0
176
     1
 90
       50
176
     1
 90
       50
176
     1
 90
       50
176
     1
290
     0
176
     1
 90
       50
176
     1
 62
   256
176
     0
 40
1.0
176
     0
 90
        2
176
     1
  1
strokes_ogs.tif
176
     1
290
     0
176
     1
 40
1.0
176
     1
 40
1.0
176
     1
  0
VISUALSTYLE
  5
3D
102
{ACAD_REACTORS
330
2A
102
}
330
2A
100
AcDbVisualStyle
  2
EdgeColorOff
 70
    22
177
     3
291
     1
 70
    58
 90
        2
176
     0
 90
        2
176
     0
 90
        0
176
     0
 90
        0
176
     0
 40
0.6
176
     0
 40
30.0
176
     0
 62
     7
420
 16777215
176
     0
 90
        1
176
     0
 90
        4
176
     0
 62
     7
176
     0
 62
   257
176
     0
 90
        1
176
     0
 90
        1
176
     0
 40
1.0
176
     0
 90
        8
176
     2
 62
     7
176
     0
 40
1.0
176
     0
 90
        1
176
     0
 90
        6
176
     0
 90
        2
176
     0
 62
     7
176
     0
 90
        5
176
     0
 90
        0
176
     0
 90
        0
176
     0
290
     0
176
     0
 90
        1
176
     0
 40
0.0
176
     0
 90
        0
176
     0
290
     0
176
     0
290
     1
176
     0
290
     1
176
     0
290
     0
176
     0
290
     0
176
     0
290
     0
176
     0
290
     0
176
     0
290
     0
176
     0
290
     0
176
     0
 90
       50
176
     0
 40
0.0
176
     0
 40
1.0
176
     0
 90
        0
176
     0
 62
    18
420
        0
176
     0
 90
       50
176
     0
 90
        3
176
     0
 62
     5
420
      255
176
     0
290
     0
176
     0
 90
       50
176
     0
 90
       50
176
     0
 90
       50
176
     0
290
     0
176
     0
 90
       50
176
     0
 62
   256
176
     0
 40
1.0
176
     0
 90
        2
176
     0
  1
strokes_ogs.tif
176
     0
290
     0
176
     0
 40
1.0
176
     0
 40
1.0
176
     0
  0
VISUALSTYLE
  5
39
102
{ACAD_REACTORS
330
2A
102
}
330
2A
100
AcDbVisualStyle
  2
Facepattern
 70
    15
177
     3
291
     1
 70
    58
 90
        2
176
     1
 90
        2
176
     1
 90
        0
176
     1
 90
        0
176
     1
 40
0.6
176
     1
 40
30.0
176
     1
 62
     7
420
 16777215
176
     1
 90
        1
176
     1
 90
        4
176
     1
 62
     7
176
     1
 62
   257
176
     1
 90
        1
176
     1
 90
        1
176
     1
 40
1.0
176
     1
 90
        8
176
     1
 62
     7
176
     1
 40
1.0
176
     1
 90
        1
176
     1
 90
        6
176
     1
 90
        2
176
     1
 62
     7
176
     1
 90
        5
176
     1
 90
        0
176
     1
 90
        0
176
     1
290
     0
176
     1
 90
        1
176
     1
 40
0.0
176
     1
 90
        0
176
     1
290
     0
176
     1
290
     1
176
     1
290
     1
176
     1
290
     0
176
     1
290
     0
176
     1
290
     0
176
     1
290
     0
176
     1
290
     0
176
     1
290
     0
176
     1
 90
       50
176
     1
 40
0.0
176
     1
 40
1.0
176
     1
 90
        0
176
     1
 62
    18
420
        0
176
     1
 90
       50
176
     1
 90
        3
176
     1
 62
     5
420
      255
176
     1
290
     0
176
     1
 90
       50
176
     1
 90
       50
176
     1
 90
       50
176
     1
290
     0
176
     1
 90
       50
176
     1
 62
   256
176
     0
 40
1.0
176
     0
 90
        2
176
     1
  1
strokes_ogs.tif
176
     1
290
     0
176
     1
 40
1.0
176
     1
 40
1.0
176
     1
  0
VISUALSTYLE
  5
2B
102
{ACAD_REACTORS
330
2A
102
}
330
2A
100
AcDbVisualStyle
  2
Flat
 70
     0
177
     3
291
     1
 70
    58
 90
        2
176
     1
 90
        1
176
     1
 90
        1
176
     1
 90
        2
176
     1
 40
0.6
176
     1
 40
30.0
176
     1
 62
     7
420
 16777215
176
     1
 90
        0
176
     1
 90
        0
176
     1
 62
     7
176
     1
 62
   257
176
     1
 90
        1
176
     1
 90
        1
176
     1
 40
1.0
176
     1
 90
        8
176
     1
 62
     7
176
     1
 40
1.0
176
     1
 90
        1
176
     1
 90
        6
176
     1
 90
        2
176
     1
 62
     7
176
     1
 90
        5
176
     1
 90
        0
176
     1
 90
        0
176
     1
290
     0
176
     1
 90
       13
176
     1
 40
0.0
176
     1
 90
        0
176
     1
290
     0
176
     1
290
     1
176
     1
290
     1
176
     1
290
     0
176
     1
290
     0
176
     1
290
     0
176
     1
290
     0
176
     1
290
     0
176
     1
290
     0
176
     1
 90
       50
176
     1
 40
0.0
176
     1
 40
1.0
176
     1
 90
        0
176
     1
 62
    18
420
        0
176
     1
 90
       50
176
     1
 90
        3
176
     1
 62
     5
420
      255
176
     1
290
     0
176
     1
 90
       50
176
     1
 90
       50
176
     1
 90
       50
176
     1
290
     0
176
     1
 90
       50
176
     1
 62
   256
176
     0
 40
1.0
176
     0
 90
        2
176
     1
  1
strokes_ogs.tif
176
     1
290
     0
176
     1
 40
1.0
176
     1
 40
1.0
176
     1
  0
VISUALSTYLE
  5
2C
102
{ACAD_REACTORS
330
2A
102
}
330
2A
100
AcDbVisualStyle
  2
FlatWithEdges
 70
     1
177
     3
291
     1
 70
    58
 90
        2
176
     1
 90
        1
176
     1
 90
        1
176
     1
 90
        2
176
     1
 40
0.6
176
     1
 40
30.0
176
     1
 62
     7
420
 16777215
176
     1
 90
        1
176
     1
 90
        0
176
     1
 62
     7
176
     1
 62
   257
176
     1
 90
        1
176
     1
 90
        1
176
     1
 40
1.0
176
     1
 90
        0
176
     1
 62
   257
176
     1
 40
1.0
176
     1
 90
        1
176
     1
 90
        6
176
     1
 90
        2
176
     1
 62
     7
176
     1
 90
        5
176
     1
 90
        0
176
     1
 90
        0
176
     1
290
     0
176
     1
 90
       13
176
     1
 40
0.0
176
     1
 90
        0
176
     1
290
     0
176
     1
290
     1
176
     1
290
     1
176
     1
290
     0
176
     1
290
     0
176
     1
290
     0
176
     1
290
     0
176
     1
290
     0
176
     1
290
     0
176
     1
 90
       50
176
     1
 40
0.0
176
     1
 40
1.0
176
     1
 90
        0
176
     1
 62
    18
420
        0
176
     1
 90
       50
176
     1
 90
        3
176
     1
 62
     5
420
      255
176
     1
290
     0
176
     1
 90
       50
176
     1
 90
       50
176
     1
 90
       50
176
     1
290
     0
176
     1
 90
       50
176
     1
 62
   256
176
     0
 40
1.0
176
     0
 90
        2
176
     1
  1
strokes_ogs.tif
176
     1
290
     0
176
     1
 40
1.0
176
     1
 40
1.0
176
     1
  0
VISUALSTYLE
  5
2D
102
{ACAD_REACTORS
330
2A
102
}
330
2A
100
AcDbVisualStyle
  2
Gouraud
 70
     2
177
     3
291
     1
 70
    58
 90
        2
176
     1
 90
        2
176
     1
 90
        1
176
     1
 90
        2
176
     1
 40
0.6
176
     1
 40
30.0
176
     1
 62
     7
420
 16777215
176
     1
 90
        0
176
     1
 90
        0
176
     1
 62
     7
176
     1
 62
   257
176
     1
 90
        1
176
     1
 90
        1
176
     1
 40
1.0
176
     1
 90
        0
176
     1
 62
     7
176
     1
 40
1.0
176
     1
 90
        1
176
     1
 90
        6
176
     1
 90
        2
176
     1
 62
     7
176
     1
 90
        5
176
     1
 90
        0
176
     1
 90
        0
176
     1
290
     0
176
     1
 90
       13
176
     1
 40
0.0
176
     1
 90
        0
176
     1
290
     0
176
     1
290
     1
176
     1
290
     1
176
     1
290
     0
176
     1
290
     0
176
     1
290
     0
176
     1
290
     0
176
     1
290
     0
176
     1
290
     0
176
     1
 90
       50
176
     1
 40
0.0
176
     1
 40
1.0
176
     1
 90
        0
176
     1
 62
    18
420
        0
176
     1
 90
       50
176
     1
 90
        3
176
     1
 62
     5
420
      255
176
     1
290
     0
176
     1
 90
       50
176
     1
 90
       50
176
     1
 90
       50
176
     1
290
     0
176
     1
 90
       50
176
     1
 62
   256
176
     0
 40
1.0
176
     0
 90
        2
176
     1
  1
strokes_ogs.tif
176
     1
290
     0
176
     1
 40
1.0
176
     1
 40
1.0
176
     1
  0
VISUALSTYLE
  5
2E
102
{ACAD_REACTORS
330
2A
102
}
330
2A
100
AcDbVisualStyle
  2
GouraudWithEdges
 70
     3
177
     3
291
     1
 70
    58
 90
        2
176
     1
 90
        2
176
     1
 90
        1
176
     1
 90
        2
176
     1
 40
0.6
176
     1
 40
30.0
176
     1
 62
     7
420
 16777215
176
     1
 90
        1
176
     1
 90
        0
176
     1
 62
     7
176
     1
 62
   257
176
     1
 90
        1
176
     1
 90
        1
176
     1
 40
1.0
176
     1
 90
        0
176
     1
 62
   257
176
     1
 40
1.0
176
     1
 90
        1
176
     1
 90
        6
176
     1
 90
        2
176
     1
 62
     7
176
     1
 90
        5
176
     1
 90
        0
176
     1
 90
        0
176
     1
290
     0
176
     1
 90
       13
176
     1
 40
0.0
176
     1
 90
        0
176
     1
290
     0
176
     1
290
     1
176
     1
290
     1
176
     1
290
     0
176
     1
290
     0
176
     1
290
     0
176
     1
290
     0
176
     1
290
     0
176
     1
290
     0
176
     1
 90
       50
176
     1
 40
0.0
176
     1
 40
1.0
176
     1
 90
        0
176
     1
 62
    18
420
        0
176
     1
 90
       50
176
     1
 90
        3
176
     1
 62
     5
420
      255
176
     1
290
     0
176
     1
 90
       50
176
     1
 90
       50
176
     1
 90
       50
176
     1
290
     0
176
     1
 90
       50
176
     1
 62
   256
176
     0
 40
1.0
176
     0
 90
        2
176
     1
  1
strokes_ogs.tif
176
     1
290
     0
176
     1
 40
1.0
176
     1
 40
1.0
176
     1
  0
VISUALSTYLE
  5
31
102
{ACAD_REACTORS
330
2A
102
}
330
2A
100
AcDbVisualStyle
  2
Hidden
 70
     6
177
     3
291
     0
 70
    58
 90
        1
176
     1
 90
        2
176
     1
 90
        2
176
     1
 90
        0
176
     1
 40
0.6
176
     1
 40
30.0
176
     1
 62
     7
420
 16777215
176
     1
 90
        2
176
     1
 90
        2
176
     1
 62
     7
176
     1
 62
   257
176
     1
 90
        2
176
     1
 90
        1
176
     1
 40
40.0
176
     1
 90
        0
176
     1
 62
   257
176
     1
 40
1.0
176
     1
 90
        1
176
     1
 90
        6
176
     1
 90
        2
176
     1
 62
     7
176
     1
 90
        3
176
     1
 90
        0
176
     1
 90
        0
176
     1
290
     0
176
     1
 90
        1
176
     1
 40
0.0
176
     1
 90
        0
176
     1
290
     0
176
     1
290
     1
176
     1
290
     1
176
     1
290
     0
176
     1
290
     0
176
     1
290
     0
176
     1
290
     0
176
     1
290
     0
176
     1
290
     0
176
     1
 90
       50
176
     1
 40
0.0
176
     1
 40
1.0
176
     1
 90
        0
176
     1
 62
    18
420
        0
176
     1
 90
       50
176
     1
 90
        3
176
     1
 62
     5
420
      255
176
     1
290
     0
176
     1
 90
       50
176
     1
 90
       50
176
     1
 90
       50
176
     1
290
     0
176
     1
 90
       50
176
     1
 62
   256
176
     0
 40
1.0
176
     0
 90
        2
176
     1
  1
strokes_ogs.tif
176
     1
290
     0
176
     1
 40
1.0
176
     1
 40
1.0
176
     1
  0
VISUALSTYLE
  5
3B
102
{ACAD_REACTORS
330
2A
102
}
330
2A
100
AcDbVisualStyle
  2
JitterOff
 70
    20
177
     3
291
     1
 70
    58
 90
        2
176
     0
 90
        2
176
     0
 90
        0
176
     0
 90
        0
176
     0
 40
0.6
176
     0
 40
30.0
176
     0
 62
     7
420
 16777215
176
     0
 90
        1
176
     0
 90
        4
176
     0
 62
     7
176
     0
 62
   257
176
     0
 90
        1
176
     0
 90
        1
176
     0
 40
1.0
176
     0
 90
       10
176
     2
 62
     7
176
     0
 40
1.0
176
     0
 90
        1
176
     0
 90
        6
176
     0
 90
        2
176
     0
 62
     7
176
     0
 90
        5
176
     0
 90
        0
176
     0
 90
        0
176
     0
290
     0
176
     0
 90
        1
176
     0
 40
0.0
176
     0
 90
        0
176
     0
290
     0
176
     0
290
     1
176
     0
290
     1
176
     0
290
     0
176
     0
290
     0
176
     0
290
     0
176
     0
290
     0
176
     0
290
     0
176
     0
290
     0
176
     0
 90
       50
176
     0
 40
0.0
176
     0
 40
1.0
176
     0
 90
        0
176
     0
 62
    18
420
        0
176
     0
 90
       50
176
     0
 90
        3
176
     0
 62
     5
420
      255
176
     0
290
     0
176
     0
 90
       50
176
     0
 90
       50
176
     0
 90
       50
176
     0
290
     0
176
     0
 90
       50
176
     0
 62
   256
176
     0
 40
1.0
176
     0
 90
        2
176
     0
  1
strokes_ogs.tif
176
     0
290
     0
176
     0
 40
1.0
176
     0
 40
1.0
176
     0
  0
VISUALSTYLE
  5
38
102
{ACAD_REACTORS
330
2A
102
}
330
2A
100
AcDbVisualStyle
  2
Linepattern
 70
    14
177
     3
291
     1
 70
    58
 90
        2
176
     1
 90
        2
176
     1
 90
        0
176
     1
 90
        0
176
     1
 40
0.6
176
     1
 40
30.0
176
     1
 62
     7
420
 16777215
176
     1
 90
        1
176
     1
 90
        4
176
     1
 62
     7
176
     1
 62
   257
176
     1
 90
        7
176
     1
 90
        7
176
     1
 40
1.0
176
     1
 90
        8
176
     1
 62
     7
176
     1
 40
1.0
176
     1
 90
        1
176
     1
 90
        6
176
     1
 90
        2
176
     1
 62
     7
176
     1
 90
        5
176
     1
 90
        0
176
     1
 90
        0
176
     1
290
     0
176
     1
 90
        1
176
     1
 40
0.0
176
     1
 90
        0
176
     1
290
     0
176
     1
290
     1
176
     1
290
     1
176
     1
290
     0
176
     1
290
     0
176
     1
290
     0
176
     1
290
     0
176
     1
290
     0
176
     1
290
     0
176
     1
 90
       50
176
     1
 40
0.0
176
     1
 40
1.0
176
     1
 90
        0
176
     1
 62
    18
420
        0
176
     1
 90
       50
176
     1
 90
        3
176
     1
 62
     5
420
      255
176
     1
290
     0
176
     1
 90
       50
176
     1
 90
       50
176
     1
 90
       50
176
     1
290
     0
176
     1
 90
       50
176
     1
 62
   256
176
     0
 40
1.0
176
     0
 90
        2
176
     1
  1
strokes_ogs.tif
176
     1
290
     0
176
     1
 40
1.0
176
     1
 40
1.0
176
     1
  0
VISUALSTYLE
  5
3C
102
{ACAD_REACTORS
330
2A
102
}
330
2A
100
AcDbVisualStyle
  2
OverhangOff
 70
    21
177
     3
291
     1
 70
    58
 90
        2
176
     0
 90
        2
176
     0
 90
        0
176
     0
 90
        0
176
     0
 40
0.6
176
     0
 40
30.0
176
     0
 62
     7
420
 16777215
176
     0
 90
        1
176
     0
 90
        4
176
     0
 62
     7
176
     0
 62
   257
176
     0
 90
        1
176
     0
 90
        1
176
     0
 40
1.0
176
     0
 90
        9
176
     2
 62
     7
176
     0
 40
1.0
176
     0
 90
        1
176
     0
 90
        6
176
     0
 90
        2
176
     0
 62
     7
176
     0
 90
        5
176
     0
 90
        0
176
     0
 90
        0
176
     0
290
     0
176
     0
 90
        1
176
     0
 40
0.0
176
     0
 90
        0
176
     0
290
     0
176
     0
290
     1
176
     0
290
     1
176
     0
290
     0
176
     0
290
     0
176
     0
290
     0
176
     0
290
     0
176
     0
290
     0
176
     0
290
     0
176
     0
 90
       50
176
     0
 40
0.0
176
     0
 40
1.0
176
     0
 90
        0
176
     0
 62
    18
420
        0
176
     0
 90
       50
176
     0
 90
        3
176
     0
 62
     5
420
      255
176
     0
290
     0
176
     0
 90
       50
176
     0
 90
       50
176
     0
 90
       50
176
     0
290
     0
176
     0
 90
       50
176
     0
 62
   256
176
     0
 40
1.0
176
     0
 90
        2
176
     0
  1
strokes_ogs.tif
176
     0
290
     0
176
     0
 40
1.0
176
     0
 40
1.0
176
     0
  0
VISUALSTYLE
  5
33
102
{ACAD_REACTORS
330
2A
102
}
330
2A
100
AcDbVisualStyle
  2
Realistic
 70
     8
177
     3
291
     0
 70
    58
 90
        2
176
     1
 90
        3
176
     1
 90
        0
176
     1
 90
        2
176
     1
 40
0.6
176
     1
 40
30.0
176
     1
 62
     7
420
 16777215
176
     1
 90
        0
176
     1
 90
        0
176
     1
 62
     7
176
     1
 62
   257
176
     1
 90
        1
176
     1
 90
        1
176
     1
 40
1.0
176
     1
 90
        8
176
     1
 62
   257
176
     1
 40
1.0
176
     1
 90
        1
176
     1
 90
        6
176
     1
 90
        2
176
     1
 62
     7
176
     1
 90
        3
176
     1
 90
        0
176
     1
 90
        0
176
     1
290
     0
176
     1
 90
       13
176
     1
 40
0.0
176
     1
 90
        0
176
     1
290
     0
176
     1
290
     1
176
     1
290
     1
176
     1
290
     0
176
     1
290
     0
176
     1
290
     0
176
     1
290
     0
176
     1
290
     0
176
     1
290
     0
176
     1
 90
       50
176
     1
 40
0.0
176
     1
 40
1.0
176
     1
 90
        0
176
     1
 62
    18
420
        0
176
     1
 90
       50
176
     1
 90
        3
176
     1
 62
     5
420
      255
176
     1
290
     0
176
     1
 90
       50
176
     1
 90
       50
176
     1
 90
       50
176
     1
290
     0
176
     1
 90
       50
176
     1
 62
   256
176
     0
 40
1.0
176
     0
 90
        2
176
     1
  1
strokes_ogs.tif
176
     1
290
     0
176
     1
 40
1.0
176
     1
 40
1.0
176
     1
  0
VISUALSTYLE
  5
42
102
{ACAD_REACTORS
330
2A
102
}
330
2A
100
AcDbVisualStyle
  2
Shaded
 70
    27
177
     3
291
     0
 70
    58
 90
        2
176
     1
 90
        2
176
     1
 90
        1
176
     1
 90
        2
176
     1
 40
0.6
176
     1
 40
30.0
176
     1
 62
     7
420
 16777215
176
     1
 90
        0
176
     1
 90
        4
176
     1
 62
     7
176
     1
 62
   257
176
     1
 90
        1
176
     1
 90
        1
176
     1
 40
1.0
176
     1
 90
        8
176
     1
 62
   257
176
     1
 40
1.0
176
     1
 90
        1
176
     1
 90
        6
176
     1
 90
        2
176
     1
 62
     8
420
  7895160
176
     1
 90
        3
176
     1
 90
        0
176
     1
 90
        0
176
     1
290
     0
176
     1
 90
        5
176
     1
 40
0.0
176
     1
 90
        0
176
     1
290
     0
176
     1
290
     1
176
     1
290
     1
176
     1
290
     0
176
     1
290
     0
176
     1
290
     0
176
     1
290
     0
176
     1
290
     0
176
     1
290
     0
176
     1
 90
       50
176
     1
 40
0.0
176
     1
 40
1.0
176
     1
 90
        0
176
     1
 62
    18
420
        0
176
     1
 90
       50
176
     1
 90
        3
176
     1
 62
     5
420
      255
176
     1
290
     0
176
     1
 90
       50
176
     1
 90
       50
176
     1
 90
       50
176
     1
290
     0
176
     1
 90
       50
176
     1
 62
   256
176
     0
 40
1.0
176
     0
 90
        2
176
     1
  1
strokes_ogs.tif
176
     1
290
     0
176
     1
 40
1.0
176
     1
 40
1.0
176
     1
  0
VISUALSTYLE
  5
41
102
{ACAD_REACTORS
330
2A
102
}
330
2A
100
AcDbVisualStyle
  2
Shaded with edges
 70
    26
177
     3
291
     0
 70
    58
 90
        2
176
     1
 90
        2
176
     1
 90
        1
176
     1
 90
        2
176
     1
 40
0.6
176
     1
 40
30.0
176
     1
 62
     7
420
 16777215
176
     1
 90
        1
176
     1
 90
       10
176
     1
 62
     7
176
     1
 62
   257
176
     1
 90
        2
176
     1
 90
        1
176
     1
 40
1.0
176
     1
 90
        8
176
     1
 62
   257
176
     1
 40
1.0
176
     1
 90
        1
176
     1
 90
        6
176
     1
 90
        2
176
     1
 62
     7
176
     1
 90
        3
176
     1
 90
        0
176
     1
 90
        0
176
     1
290
     0
176
     1
 90
        5
176
     1
 40
0.0
176
     1
 90
        0
176
     1
290
     0
176
     1
290
     1
176
     1
290
     1
176
     1
290
     0
176
     1
290
     0
176
     1
290
     0
176
     1
290
     0
176
     1
290
     0
176
     1
290
     0
176
     1
 90
       50
176
     1
 40
0.0
176
     1
 40
1.0
176
     1
 90
        0
176
     1
 62
    18
420
        0
176
     1
 90
       50
176
     1
 90
        3
176
     1
 62
     5
420
      255
176
     1
290
     0
176
     1
 90
       50
176
     1
 90
       50
176
     1
 90
       50
176
     1
290
     0
176
     1
 90
       50
176
     1
 62
   256
176
     0
 40
1.0
176
     0
 90
        2
176
     1
  1
strokes_ogs.tif
176
     1
290
     0
176
     1
 40
1.0
176
     1
 40
1.0
176
     1
  0
VISUALSTYLE
  5
3E
102
{ACAD_REACTORS
330
2A
102
}
330
2A
100
AcDbVisualStyle
  2
Shades of Gray
 70
    23
177
     3
291
     0
 70
    58
 90
        2
176
     1
 90
        2
176
     1
 90
        3
176
     1
 90
        0
176
     1
 40
0.6
176
     1
 40
30.0
176
     1
 62
     7
420
 16777215
176
     1
 90
        2
176
     1
 90
        2
176
     1
 62
     7
176
     1
 62
     7
176
     1
 90
        1
176
     1
 90
        1
176
     1
 40
40.0
176
     1
 90
        8
176
     1
 62
     7
176
     1
 40
1.0
176
     1
 90
        1
176
     1
 90
        6
176
     1
 90
        2
176
     1
 62
     7
176
     1
 90
        3
176
     1
 90
        0
176
     1
 90
        0
176
     1
290
     0
176
     1
 90
        1
176
     1
 40
0.0
176
     1
 90
        0
176
     1
290
     0
176
     1
290
     1
176
     1
290
     1
176
     1
290
     0
176
     1
290
     0
176
     1
290
     0
176
     1
290
     0
176
     1
290
     0
176
     1
290
     0
176
     1
 90
       50
176
     1
 40
0.0
176
     1
 40
1.0
176
     1
 90
        0
176
     1
 62
    18
420
        0
176
     1
 90
       50
176
     1
 90
        3
176
     1
 62
     5
420
      255
176
     1
290
     0
176
     1
 90
       50
176
     1
 90
       50
176
     1
 90
       50
176
     1
290
     0
176
     1
 90
       50
176
     1
 62
   256
176
     0
 40
1.0
176
     0
 90
        2
176
     1
  1
strokes_ogs.tif
176
     1
290
     0
176
     1
 40
1.0
176
     1
 40
1.0
176
     1
  0
VISUALSTYLE
  5
3F
102
{ACAD_REACTORS
330
2A
102
}
330
2A
100
AcDbVisualStyle
  2
Sketchy
 70
    24
177
     3
291
     0
 70
    58
 90
        1
176
     1
 90
        2
176
     1
 90
        2
176
     1
 90
        0
176
     1
 40
0.6
176
     1
 40
30.0
176
     1
 62
     7
420
 16777215
176
     1
 90
        2
176
     1
 90
        2
176
     1
 62
     7
176
     1
 62
     7
176
     1
 90
        1
176
     1
 90
        1
176
     1
 40
40.0
176
     1
 90
       11
176
     1
 62
     7
176
     1
 40
1.0
176
     1
 90
        1
176
     1
 90
        6
176
     1
 90
        2
176
     1
 62
     7
176
     1
 90
        6
176
     1
 90
        0
176
     1
 90
        0
176
     1
290
     0
176
     1
 90
        1
176
     1
 40
0.0
176
     1
 90
        0
176
     1
290
     0
176
     1
290
     1
176
     1
290
     1
176
     1
290
     0
176
     1
290
     0
176
     1
290
     0
176
     1
290
     0
176
     1
290
     0
176
     1
290
     0
176
     1
 90
       50
176
     1
 40
0.0
176
     1
 40
1.0
176
     1
 90
        0
176
     1
 62
    18
420
        0
176
     1
 90
       50
176
     1
 90
        3
176
     1
 62
     5
420
      255
176
     1
290
     0
176
     1
 90
       50
176
     1
 90
       50
176
     1
 90
       50
176
     1
290
     0
176
     1
 90
       50
176
     1
 62
   256
176
     0
 40
1.0
176
     0
 90
        2
176
     1
  1
strokes_ogs.tif
176
     1
290
     0
176
     1
 40
1.0
176
     1
 40
1.0
176
     1
  0
VISUALSTYLE
  5
37
102
{ACAD_REACTORS
330
2A
102
}
330
2A
100
AcDbVisualStyle
  2
Thicken
 70
    13
177
     3
291
     1
 70
    58
 90
        2
176
     1
 90
        2
176
     1
 90
        0
176
     1
 90
        0
176
     1
 40
0.6
176
     1
 40
30.0
176
     1
 62
     7
420
 16777215
176
     1
 90
        1
176
     1
 90
        4
176
     1
 62
     7
176
     1
 62
   257
176
     1
 90
        1
176
     1
 90
        1
176
     1
 40
1.0
176
     1
 90
       12
176
     1
 62
     7
176
     1
 40
1.0
176
     1
 90
        1
176
     1
 90
        6
176
     1
 90
        2
176
     1
 62
     7
176
     1
 90
        5
176
     1
 90
        0
176
     1
 90
        0
176
     1
290
     0
176
     1
 90
        1
176
     1
 40
0.0
176
     1
 90
        0
176
     1
290
     0
176
     1
290
     1
176
     1
290
     1
176
     1
290
     0
176
     1
290
     0
176
     1
290
     0
176
     1
290
     0
176
     1
290
     0
176
     1
290
     0
176
     1
 90
       50
176
     1
 40
0.0
176
     1
 40
1.0
176
     1
 90
        0
176
     1
 62
    18
420
        0
176
     1
 90
       50
176
     1
 90
        3
176
     1
 62
     5
420
      255
176
     1
290
     0
176
     1
 90
       50
176
     1
 90
       50
176
     1
 90
       50
176
     1
290
     0
176
     1
 90
       50
176
     1
 62
   256
176
     0
 40
1.0
176
     0
 90
        2
176
     1
  1
strokes_ogs.tif
176
     1
290
     0
176
     1
 40
1.0
176
     1
 40
1.0
176
     1
  0
VISUALSTYLE
  5
30
102
{ACAD_REACTORS
330
2A
102
}
330
2A
100
AcDbVisualStyle
  2
Wireframe
 70
     5
177
     3
291
     0
 70
    58
 90
        0
176
     1
 90
        2
176
     1
 90
        0
176
     1
 90
        0
176
     1
 40
0.6
176
     1
 40
30.0
176
     1
 62
     7
420
 16777215
176
     1
 90
        1
176
     1
 90
        4
176
     1
 62
     7
176
     1
 62
   257
176
     1
 90
        1
176
     1
 90
        1
176
     1
 40
1.0
176
     1
 90
        0
176
     1
 62
   257
176
     1
 40
1.0
176
     1
 90
        1
176
     1
 90
        6
176
     1
 90
        2
176
     1
 62
     7
176
     1
 90
        3
176
     1
 90
        0
176
     1
 90
        0
176
     1
290
     0
176
     1
 90
        1
176
     1
 40
0.0
176
     1
 90
        0
176
     1
290
     0
176
     1
290
     1
176
     1
290
     1
176
     1
290
     0
176
     1
290
     0
176
     1
290
     0
176
     1
290
     0
176
     1
290
     0
176
     1
290
     0
176
     1
 90
       50
176
     1
 40
0.0
176
     1
 40
1.0
176
     1
 90
        0
176
     1
 62
    18
420
        0
176
     1
 90
       50
176
     1
 90
        3
176
     1
 62
     5
420
      255
176
     1
290
     0
176
     1
 90
       50
176
     1
 90
       50
176
     1
 90
       50
176
     1
290
     0
176
     1
 90
       50
176
     1
 62
   256
176
     0
 40
1.0
176
     0
 90
        2
176
     1
  1
strokes_ogs.tif
176
     1
290
     0
176
     1
 40
1.0
176
     1
 40
1.0
176
     1
  0
VISUALSTYLE
  5
40
102
{ACAD_REACTORS
330
2A
102
}
330
2A
100
AcDbVisualStyle
  2
X-Ray
 70
    25
177
     3
291
     0
 70
    58
 90
        2
176
     1
 90
        2
176
     1
 90
        1
176
     1
 90
        1
176
     1
 40
0.5
176
     1
 40
30.0
176
     1
 62
     7
420
 16777215
176
     1
 90
        1
176
     1
 90
        0
176
     1
 62
     7
176
     1
 62
   257
176
     1
 90
        1
176
     1
 90
        1
176
     1
 40
1.0
176
     1
 90
        8
176
     1
 62
     7
176
     1
 40
1.0
176
     1
 90
        1
176
     1
 90
        6
176
     1
 90
        2
176
     1
 62
     7
176
     1
 90
        3
176
     1
 90
        0
176
     1
 90
        0
176
     1
290
     0
176
     1
 90
       13
176
     1
 40
0.0
176
     1
 90
        0
176
     1
290
     0
176
     1
290
     1
176
     1
290
     1
176
     1
290
     0
176
     1
290
     0
176
     1
290
     0
176
     1
290
     0
176
     1
290
     0
176
     1
290
     0
176
     1
 90
       50
176
     1
 40
0.0
176
     1
 40
1.0
176
     1
 90
        0
176
     1
 62
    18
420
        0
176
     1
 90
       50
176
     1
 90
        3
176
     1
 62
     5
420
      255
176
     1
290
     0
176
     1
 90
       50
176
     1
 90
       50
176
     1
 90
       50
176
     1
290
     0
176
     1
 90
       50
176
     1
 62
   256
176
     0
 40
1.0
176
     0
 90
        2
176
     1
  1
strokes_ogs.tif
176
     1
290
     0
176
     1
 40
1.0
176
     1
 40
1.0
176
     1
  0
DICTIONARYVAR
  5
484
102
{ACAD_REACTORS
330
483
102
}
330
483
100
DictionaryVariables
280
     0
  1
1:1
  0
DICTIONARYVAR
  5
715
102
{ACAD_REACTORS
330
483
102
}
330
483
100
DictionaryVariables
280
     0
  1
STANDARD
  0
DICTIONARYVAR
  5
714
102
{ACAD_REACTORS
330
483
102
}
330
483
100
DictionaryVariables
280
     0
  1
STANDARD
  0
DICTIONARYVAR
  5
716
102
{ACAD_REACTORS
330
483
102
}
330
483
100
DictionaryVariables
280
     0
  1
Imperial24
  0
DICTIONARYVAR
  5
717
102
{ACAD_REACTORS
330
483
102
}
330
483
100
DictionaryVariables
280
     0
  1
Imperial24
  0
DICTIONARYVAR
  5
719
102
{ACAD_REACTORS
330
483
102
}
330
483
100
DictionaryVariables
280
     0
  1
1
  0
DICTIONARYVAR
  5
71A
102
{ACAD_REACTORS
330
483
102
}
330
483
100
DictionaryVariables
280
     0
  1
15
  0
DICTIONARYVAR
  5
718
102
{ACAD_REACTORS
330
483
102
}
330
483
100
DictionaryVariables
280
     0
  1
0
  0
DICTIONARYVAR
  5
485
102
{ACAD_REACTORS
330
483
102
}
330
483
100
DictionaryVariables
280
     0
  1
1
  0
DICTIONARY
  5
711
330
4C5
100
AcDbDictionary
280
     1
281
     1
  3
ACAD_XREC_ROUNDTRIP
360
725
  0
DICTIONARY
  5
70F
330
4C4
100
AcDbDictionary
280
     1
281
     1
  3
ACAD_XREC_ROUNDTRIP
360
724
  0
DICTIONARY
  5
722
330
4C2
100
AcDbDictionary
280
     1
281
     1
  3
ACAD_ROUNDTRIP_2008_TABLESTYLE_CELLSTYLEMAP
360
723
  0
XRECORD
  5
725
102
{ACAD_REACTORS
330
711
102
}
330
711
100
AcDbXrecord
280
     1
102
DISPLAYNAME
  1
Imperial24
102
FLAGS
 90
        0
  0
XRECORD
  5
724
102
{ACAD_REACTORS
330
70F
102
}
330
70F
100
AcDbXrecord
280
     1
102
DISPLAYNAME
  1
Imperial24
102
FLAGS
 90
        0
  0
CELLSTYLEMAP
  5
723
102
{ACAD_REACTORS
330
722
102
}
330
722
100
AcDbCellStyleMap
 90
        3
300
CELLSTYLE
  1
TABLEFORMAT_BEGIN
 90
        5
170
     1
 91
        0
 92
    32768
 62
   257
 93
        1
300
CONTENTFORMAT
  1
CONTENTFORMAT_BEGIN
 90
        0
 91
        0
 92
      512
 93
        0
300

 40
0.0
140
1.0
 94
        5
 62
     0
340
11
144
0.25
309
CONTENTFORMAT_END
171
     0
 94
        0
309
TABLEFORMAT_END
  1
CELLSTYLE_BEGIN
 90
        1
 91
        1
300
_TITLE
309
CELLSTYLE_END
300
CELLSTYLE
  1
TABLEFORMAT_BEGIN
 90
        5
170
     1
 91
        0
 92
        0
 62
   257
 93
        1
300
CONTENTFORMAT
  1
CONTENTFORMAT_BEGIN
 90
        0
 91
        0
 92
      512
 93
        0
300

 40
0.0
140
1.0
 94
        5
 62
     0
340
11
144
0.18
309
CONTENTFORMAT_END
171
     0
 94
        0
309
TABLEFORMAT_END
  1
CELLSTYLE_BEGIN
 90
        2
 91
        1
300
_HEADER
309
CELLSTYLE_END
300
CELLSTYLE
  1
TABLEFORMAT_BEGIN
 90
        5
170
     1
 91
        0
 92
        0
 62
   257
 93
        1
300
CONTENTFORMAT
  1
CONTENTFORMAT_BEGIN
 90
        0
 91
        0
 92
      512
 93
        0
300

 40
0.0
140
1.0
 94
        2
 62
     0
340
11
144
0.18
309
CONTENTFORMAT_END
171
     0
 94
        0
309
TABLEFORMAT_END
  1
CELLSTYLE_BEGIN
 90
        3
 91
        2
300
_DATA
309
CELLSTYLE_END
  0
ENDSEC
  0
SECTION
  2
ACDSDATA
 70
     2
 71
     8
  0
ACDSSCHEMA
 90
        0
  1
AcDb_Thumbnail_Schema
  2
AcDbDs::ID
280
    10
 91
        8
  2
Thumbnail_Data
280
    15
 91
        0
101
ACDSRECORD
 95
        0
 90
        2
  2
AcDbDs::TreatedAsObjectData
280
     1
291
     1
101
ACDSRECORD
 95
        0
 90
        3
  2
AcDbDs::Legacy
280
     1
291
     1
101
ACDSRECORD
  1
AcDbDs::ID
 90
        4
  2
AcDs:Indexable
280
     1
291
     1
101
ACDSRECORD
  1
AcDbDs::ID
 90
        5
  2
AcDbDs::HandleAttribute
280
     7
282
     1
  0
ACDSSCHEMA
 90
        1
  1
AcDb3DSolid_ASM_Data
  2
AcDbDs::ID
280
    10
 91
        8
  2
ASM_Data
280
    15
 91
        0
101
ACDSRECORD
 95
        1
 90
        2
  2
AcDbDs::TreatedAsObjectData
280
     1
291
     1
101
ACDSRECORD
 95
        1
 90
        3
  2
AcDbDs::Legacy
280
     1
291
     1
101
ACDSRECORD
  1
AcDbDs::ID
 90
        4
  2
AcDs:Indexable
280
     1
291
     1
101
ACDSRECORD
  1
AcDbDs::ID
 90
        5
  2
AcDbDs::HandleAttribute
280
     7
282
     1
  0
ACDSSCHEMA
 90
        2
  1
AcDbDs::TreatedAsObjectDataSchema
  2
AcDbDs::TreatedAsObjectData
280
     1
 91
        0
  0
ACDSSCHEMA
 90
        3
  1
AcDbDs::LegacySchema
  2
AcDbDs::Legacy
280
     1
 91
        0
  0
ACDSSCHEMA
 90
        4
  1
AcDbDs::IndexedPropertySchema
  2
AcDs:Indexable
280
     1
 91
        0
  0
ACDSSCHEMA
 90
        5
  1
AcDbDs::HandleAttributeSchema
  2
AcDbDs::HandleAttribute
280
     7
 91
        1
284
     1
  0
ACDSRECORD
 90
        0
  2
AcDbDs::ID
280
    10
320
22
  2
Thumbnail_Data
280
    15
 94
     1529
310
89504E470D0A1A0A0000000D4948445200000100000000670803000000D82A6C0200000300504C5445000000000000C8C8C80000000000000000000000000000000000000000000000000000330000660000990000CC0000FF0033000033330033660033990033CC0033FF0066000066330066660066990066CC0066FF0099
310
000099330099660099990099CC0099FF00CC0000CC3300CC6600CC9900CCCC00CCFF00FF0000FF3300FF6600FF9900FFCC00FFFF3300003300333300663300993300CC3300FF3333003333333333663333993333CC3333FF3366003366333366663366993366CC3366FF3399003399333399663399993399CC3399FF33CC00
310
33CC3333CC6633CC9933CCCC33CCFF33FF0033FF3333FF6633FF9933FFCC33FFFF6600006600336600666600996600CC6600FF6633006633336633666633996633CC6633FF6666006666336666666666996666CC6666FF6699006699336699666699996699CC6699FF66CC0066CC3366CC6666CC9966CCCC66CCFF66FF0066
310
FF3366FF6666FF9966FFCC66FFFF9900009900339900669900999900CC9900FF9933009933339933669933999933CC9933FF9966009966339966669966999966CC9966FF9999009999339999669999999999CC9999FF99CC0099CC3399CC6699CC9999CCCC99CCFF99FF0099FF3399FF6699FF9999FFCC99FFFFCC0000CC00
310
33CC0066CC0099CC00CCCC00FFCC3300CC3333CC3366CC3399CC33CCCC33FFCC6600CC6633CC6666CC6699CC66CCCC66FFCC9900CC9933CC9966CC9999CC99CCCC99FFCCCC00CCCC33CCCC66CCCC99CCCCCCCCCCFFCCFF00CCFF33CCFF66CCFF99CCFFCCCCFFFFFF0000FF0033FF0066FF0099FF00CCFF00FFFF3300FF3333
310
FF3366FF3399FF33CCFF33FFFF6600FF6633FF6666FF6699FF66CCFF66FFFF9900FF9933FF9966FF9999FF99CCFF99FFFFCC00FFCC33FFCC66FFCC99FFCCCCFFCCFFFFFF00FFFF33FFFF66FFFF99FFFFCCFFFFFF0000000D0D0D1A1A1A2828283535354343435050505D5D5D6B6B6B787878868686939393A1A1A1AEAEAEBB
310
BBBBC9C9C9D6D6D6E4E4E4F1F1F1FFFFFF00000000000000000000000000000000000000000000000000000000000008F1915C000002B44944415478DAED9C4B72C4200C05B9FF7D7B9F54122760842D3CD404F160E7A9B10B35A01F8294FEB5F1D99268A36882F25F3ECA11505C0725000455803A802B1E721340500B905B
310
425500943474E5AF1E350070F5BCBCF895C07CFF28233FB52B8C0E812FC56F0090F105E46780B5E0A574C0A1062F7FD800C462013D006747482E1EA67485155362BF765F3635AC9C132E1024E1A62EBF643674B7DD847C9DD93EF45EA119A4E1E09C3F9DDBAC150E0E2390E60ED3E466130ADF66486F0B8F19E6369C75E718
310
BFFE2726F0D7B56CCEBE2CFF3960880020DFF4E255F9CF7361660096297889806900A6258001E032D7711B0C6316D24C0F008FCECA246F4380140A80ADB8F128773C2660F235801F004EE3D6C0343980FBC1750DF7C200F0FB3C6B00701785D2F282A30030CB9DCE3A1EB7DF8B0D60E63CA2456020002677044D02D053155C
310
D5CD104BFE5497BCD9BE4C871A687E79EA49F0D36FA0B32C9E96C3987F767A021C7EBED7E3BBB69947C0106713254BE2A45701A4A1E9A577A981E6A6273E1D62068D81F6D0DB7D7D04C0B208F34F82D1001629A160C03F36800D60035898C0F2F5121BC006200EA02B1FA04740A2644C1E404756588D804ECD24E2F2FBF706
310
852681E20D128EFA000508EC7AF1DD76DB4D44DB398D1DCB1DA63AAABC5D95CEC7FF58C437FA1327B9B6B728B642E3DF29709201CF0CA0F57654778F2E8FFF5413125D1754939EBEA420E115019D37275A578B0437007DD7C6D5B88203E8BC37CFB8648EB556C00300C45E015DB7A5981A83D82B6003A0EDE8DC2F811500F8
310
4ED0D853008FE59C5D7EFF192AC3115C0340C2ADD4CBC821C50690473524577C97C58EF5EB910164A729EE6680752622AA2B60540ABBF201F7DF094AC019D956E74402DBC14216BF20E55BE1C3C127E3080B0C7F3E82DDE318ED88C49D280FE46011F9D3D3DDDFE57606DEF1CE83F60136A20F0819755B990000000049454E
310
44AE426082
  0
ENDSEC
  0
EOF
