  0
SECTION
  2
HEADER
  9
$ACADVER
  1
AC1027
  9
$ACADMAINTVER
 70
   105
  9
$DWGCODEPAGE
  3
ANSI_1252
  9
$LASTSAVEDBY
  1
Sandra
  9
$REQUIREDVERSIONS
160
                 0
  9
$INSBASE
 10
0.0
 20
0.0
 30
0.0
  9
$EXTMIN
 10
-1630.179569163187
 20
-1455.806776008638
 30
0.0
  9
$EXTMAX
 10
1630.17953216929
 20
1671.990100659008
 30
4.185207900610024
  9
$LIMMIN
 10
0.0
 20
0.0
  9
$LIMMAX
 10
12.0
 20
9.0
  9
$ORTHOMODE
 70
     1
  9
$REGENMODE
 70
     1
  9
$FILLMODE
 70
     1
  9
$QTEXTMODE
 70
     0
  9
$MIRRTEXT
 70
     1
  9
$LTSCALE
 40
0.0393700787401575
  9
$ATTMODE
 70
     1
  9
$TEXTSIZE
 40
0.2
  9
$TRACEWID
 40
0.05
  9
$TEXTSTYLE
  7
Standard
  9
$CLAYER
  8
Default
  9
$CELTYPE
  6
ByLayer
  9
$CECOLOR
 62
   256
  9
$CELTSCALE
 40
1.0
  9
$DISPSILH
 70
     0
  9
$DIMSCALE
 40
1.0
  9
$DIMASZ
 40
0.18
  9
$DIMEXO
 40
0.0625
  9
$DIMDLI
 40
0.38
  9
$DIMRND
 40
0.0
  9
$DIMDLE
 40
0.0
  9
$DIMEXE
 40
0.18
  9
$DIMTP
 40
0.0
  9
$DIMTM
 40
0.0
  9
$DIMTXT
 40
0.18
  9
$DIMCEN
 40
0.09
  9
$DIMTSZ
 40
0.0
  9
$DIMTOL
 70
     0
  9
$DIMLIM
 70
     0
  9
$DIMTIH
 70
     1
  9
$DIMTOH
 70
     1
  9
$DIMSE1
 70
     0
  9
$DIMSE2
 70
     0
  9
$DIMTAD
 70
     0
  9
$DIMZIN
 70
     0
  9
$DIMBLK
  1

  9
$DIMASO
 70
     1
  9
$DIMSHO
 70
     1
  9
$DIMPOST
  1

  9
$DIMAPOST
  1

  9
$DIMALT
 70
     0
  9
$DIMALTD
 70
     2
  9
$DIMALTF
 40
25.4
  9
$DIMLFAC
 40
1.0
  9
$DIMTOFL
 70
     0
  9
$DIMTVP
 40
0.0
  9
$DIMTIX
 70
     0
  9
$DIMSOXD
 70
     0
  9
$DIMSAH
 70
     0
  9
$DIMBLK1
  1

  9
$DIMBLK2
  1

  9
$DIMSTYLE
  2
Standard
  9
$DIMCLRD
 70
     0
  9
$DIMCLRE
 70
     0
  9
$DIMCLRT
 70
     0
  9
$DIMTFAC
 40
1.0
  9
$DIMGAP
 40
0.09
  9
$DIMJUST
 70
     0
  9
$DIMSD1
 70
     0
  9
$DIMSD2
 70
     0
  9
$DIMTOLJ
 70
     1
  9
$DIMTZIN
 70
     0
  9
$DIMALTZ
 70
     0
  9
$DIMALTTZ
 70
     0
  9
$DIMUPT
 70
     0
  9
$DIMDEC
 70
     4
  9
$DIMTDEC
 70
     4
  9
$DIMALTU
 70
     2
  9
$DIMALTTD
 70
     2
  9
$DIMTXSTY
  7
Standard
  9
$DIMAUNIT
 70
     0
  9
$DIMADEC
 70
     0
  9
$DIMALTRND
 40
0.0
  9
$DIMAZIN
 70
     0
  9
$DIMDSEP
 70
    46
  9
$DIMATFIT
 70
     3
  9
$DIMFRAC
 70
     0
  9
$DIMLDRBLK
  1

  9
$DIMLUNIT
 70
     2
  9
$DIMLWD
 70
    -2
  9
$DIMLWE
 70
    -2
  9
$DIMTMOVE
 70
     2
  9
$DIMFXL
 40
1.0
  9
$DIMFXLON
 70
     0
  9
$DIMJOGANG
 40
0.7853981633974483
  9
$DIMTFILL
 70
     0
  9
$DIMTFILLCLR
 70
     0
  9
$DIMARCSYM
 70
     0
  9
$DIMLTYPE
  6

  9
$DIMLTEX1
  6

  9
$DIMLTEX2
  6

  9
$DIMTXTDIRECTION
 70
     0
  9
$LUNITS
 70
     2
  9
$LUPREC
 70
     3
  9
$SKETCHINC
 40
0.1
  9
$FILLETRAD
 40
0.5
  9
$AUNITS
 70
     0
  9
$AUPREC
 70
     0
  9
$MENU
  1
.
  9
$ELEVATION
 40
0.0
  9
$PELEVATION
 40
0.0
  9
$THICKNESS
 40
0.0
  9
$LIMCHECK
 70
     0
  9
$CHAMFERA
 40
0.5
  9
$CHAMFERB
 40
0.5
  9
$CHAMFERC
 40
1.0
  9
$CHAMFERD
 40
0.0
  9
$SKPOLY
 70
     0
  9
$TDCREATE
 40
2456535.403213808
  9
$TDUCREATE
 40
2456535.569880474
  9
$TDUPDATE
 40
2457842.443959769
  9
$TDUUPDATE
 40
2457842.610626435
  9
$TDINDWG
 40
0.0179850926
  9
$TDUSRTIMER
 40
0.0179850926
  9
$USRTIMER
 70
     1
  9
$ANGBASE
 50
0.0
  9
$ANGDIR
 70
     0
  9
$PDMODE
 70
     0
  9
$PDSIZE
 40
0.0
  9
$PLINEWID
 40
0.0
  9
$SPLFRAME
 70
     0
  9
$SPLINETYPE
 70
     6
  9
$SPLINESEGS
 70
     8
  9
$HANDSEED
  5
611
  9
$SURFTAB1
 70
     6
  9
$SURFTAB2
 70
     6
  9
$SURFTYPE
 70
     6
  9
$SURFU
 70
     6
  9
$SURFV
 70
     6
  9
$UCSBASE
  2

  9
$UCSNAME
  2

  9
$UCSORG
 10
0.0
 20
0.0
 30
0.0
  9
$UCSXDIR
 10
1.0
 20
0.0
 30
0.0
  9
$UCSYDIR
 10
0.0
 20
1.0
 30
0.0
  9
$UCSORTHOREF
  2

  9
$UCSORTHOVIEW
 70
     0
  9
$UCSORGTOP
 10
0.0
 20
0.0
 30
0.0
  9
$UCSORGBOTTOM
 10
0.0
 20
0.0
 30
0.0
  9
$UCSORGLEFT
 10
0.0
 20
0.0
 30
0.0
  9
$UCSORGRIGHT
 10
0.0
 20
0.0
 30
0.0
  9
$UCSORGFRONT
 10
0.0
 20
0.0
 30
0.0
  9
$UCSORGBACK
 10
0.0
 20
0.0
 30
0.0
  9
$PUCSBASE
  2

  9
$PUCSNAME
  2

  9
$PUCSORG
 10
0.0
 20
0.0
 30
0.0
  9
$PUCSXDIR
 10
1.0
 20
0.0
 30
0.0
  9
$PUCSYDIR
 10
0.0
 20
1.0
 30
0.0
  9
$PUCSORTHOREF
  2

  9
$PUCSORTHOVIEW
 70
     0
  9
$PUCSORGTOP
 10
0.0
 20
0.0
 30
0.0
  9
$PUCSORGBOTTOM
 10
0.0
 20
0.0
 30
0.0
  9
$PUCSORGLEFT
 10
0.0
 20
0.0
 30
0.0
  9
$PUCSORGRIGHT
 10
0.0
 20
0.0
 30
0.0
  9
$PUCSORGFRONT
 10
0.0
 20
0.0
 30
0.0
  9
$PUCSORGBACK
 10
0.0
 20
0.0
 30
0.0
  9
$USERI1
 70
     0
  9
$USERI2
 70
     0
  9
$USERI3
 70
     0
  9
$USERI4
 70
     0
  9
$USERI5
 70
     0
  9
$USERR1
 40
0.0
  9
$USERR2
 40
0.0
  9
$USERR3
 40
0.0
  9
$USERR4
 40
0.0
  9
$USERR5
 40
0.0
  9
$WORLDVIEW
 70
     1
  9
$SHADEDGE
 70
     3
  9
$SHADEDIF
 70
    70
  9
$TILEMODE
 70
     1
  9
$MAXACTVP
 70
    64
  9
$PINSBASE
 10
0.0
 20
0.0
 30
0.0
  9
$PLIMCHECK
 70
     0
  9
$PEXTMIN
 10
1.000000000000000E+20
 20
1.000000000000000E+20
 30
1.000000000000000E+20
  9
$PEXTMAX
 10
-1.000000000000000E+20
 20
-1.000000000000000E+20
 30
-1.000000000000000E+20
  9
$PLIMMIN
 10
0.0
 20
0.0
  9
$PLIMMAX
 10
12.0
 20
9.0
  9
$UNITMODE
 70
     0
  9
$VISRETAIN
 70
     1
  9
$PLINEGEN
 70
     0
  9
$PSLTSCALE
 70
     1
  9
$TREEDEPTH
 70
  3020
  9
$CMLSTYLE
  2
Standard
  9
$CMLJUST
 70
     0
  9
$CMLSCALE
 40
1.0
  9
$PROXYGRAPHICS
 70
     1
  9
$MEASUREMENT
 70
     0
  9
$CELWEIGHT
370
    -1
  9
$ENDCAPS
280
     0
  9
$JOINSTYLE
280
     0
  9
$LWDISPLAY
290
     0
  9
$INSUNITS
 70
     4
  9
$HYPERLINKBASE
  1

  9
$STYLESHEET
  1

  9
$XEDIT
290
     1
  9
$CEPSNTYPE
380
     0
  9
$PSTYLEMODE
290
     1
  9
$FINGERPRINTGUID
  2
{8EF2B514-8F05-4A00-86FD-EFD5FAE2B6B1}
  9
$VERSIONGUID
  2
{527D1BDA-4C2A-4523-82AF-4CFB69A8E477}
  9
$EXTNAMES
290
     1
  9
$PSVPSCALE
 40
0.0
  9
$OLESTARTUP
290
     0
  9
$SORTENTS
280
   127
  9
$INDEXCTL
280
     0
  9
$HIDETEXT
280
     1
  9
$XCLIPFRAME
280
     0
  9
$HALOGAP
280
     0
  9
$OBSCOLOR
 70
   257
  9
$OBSLTYPE
280
     0
  9
$INTERSECTIONDISPLAY
280
     0
  9
$INTERSECTIONCOLOR
 70
   257
  9
$DIMASSOC
280
     2
  9
$PROJECTNAME
  1

  9
$CAMERADISPLAY
290
     0
  9
$LENSLENGTH
 40
50.0
  9
$CAMERAHEIGHT
 40
0.0
  9
$STEPSPERSEC
 40
2.0
  9
$STEPSIZE
 40
6.0
  9
$3DDWFPREC
 40
2.0
  9
$PSOLWIDTH
 40
0.25
  9
$PSOLHEIGHT
 40
4.0
  9
$LOFTANG1
 40
1.570796326794896
  9
$LOFTANG2
 40
1.570796326794896
  9
$LOFTMAG1
 40
0.0
  9
$LOFTMAG2
 40
0.0
  9
$LOFTPARAM
 70
     7
  9
$LOFTNORMALS
280
     1
  9
$LATITUDE
 40
37.795
  9
$LONGITUDE
 40
-122.394
  9
$NORTHDIRECTION
 40
0.0
  9
$TIMEZONE
 70
 -8000
  9
$LIGHTGLYPHDISPLAY
280
     1
  9
$TILEMODELIGHTSYNCH
280
     1
  9
$CMATERIAL
347
DF
  9
$SOLIDHIST
280
     0
  9
$SHOWHIST
280
     1
  9
$DWFFRAME
280
     2
  9
$DGNFRAME
280
     0
  9
$REALWORLDSCALE
290
     1
  9
$INTERFERECOLOR
 62
     1
  9
$INTERFEREOBJVS
345
33
  9
$INTERFEREVPVS
346
F7
  9
$CSHADOW
280
     0
  9
$SHADOWPLANELOCATION
 40
0.0
  0
ENDSEC
  0
SECTION
  2
CLASSES
  0
CLASS
  1
ACDBDICTIONARYWDFLT
  2
AcDbDictionaryWithDefault
  3
ObjectDBX Classes
 90
        0
 91
        1
280
     0
281
     0
  0
CLASS
  1
VISUALSTYLE
  2
AcDbVisualStyle
  3
ObjectDBX Classes
 90
     4095
 91
       26
280
     0
281
     0
  0
CLASS
  1
MATERIAL
  2
AcDbMaterial
  3
ObjectDBX Classes
 90
     1153
 91
        3
280
     0
281
     0
  0
CLASS
  1
TABLESTYLE
  2
AcDbTableStyle
  3
ObjectDBX Classes
 90
     4095
 91
        1
280
     0
281
     0
  0
CLASS
  1
SCALE
  2
AcDbScale
  3
ObjectDBX Classes
 90
     1153
 91
       17
280
     0
281
     0
  0
CLASS
  1
MLEADERSTYLE
  2
AcDbMLeaderStyle
  3
ACDB_MLEADERSTYLE_CLASS
 90
     4095
 91
        1
280
     0
281
     0
  0
CLASS
  1
ACDBSECTIONVIEWSTYLE
  2
AcDbSectionViewStyle
  3
ObjectDBX Classes
 90
     1025
 91
        1
280
     0
281
     0
  0
CLASS
  1
ACDBDETAILVIEWSTYLE
  2
AcDbDetailViewStyle
  3
ObjectDBX Classes
 90
     1025
 91
        1
280
     0
281
     0
  0
CLASS
  1
SOLID_BACKGROUND
  2
AcDbSolidBackground
  3
SCENEOE
 90
     4095
 91
        0
280
     0
281
     0
  0
CLASS
  1
NPOCOLLECTION
  2
AcDbImpNonPersistentObjectsCollection
  3
ObjectDBX Classes
 90
     1153
 91
        0
280
     0
281
     0
  0
CLASS
  1
DICTIONARYVAR
  2
AcDbDictionaryVar
  3
ObjectDBX Classes
 90
        0
 91
        9
280
     0
281
     0
  0
CLASS
  1
SORTENTSTABLE
  2
AcDbSortentsTable
  3
ObjectDBX Classes
 90
        0
 91
        1
280
     0
281
     0
  0
CLASS
  1
ACARRAYJIGENTITY
  2
AcArrayJigEntity
  3
ACAD_ARRAY
 90
      129
 91
        0
280
     0
281
     1
  0
CLASS
  1
ACDBASSOCNETWORK
  2
AcDbAssocNetwork
  3
ObjectDBX Classes
 90
     1025
 91
        0
280
     0
281
     0
  0
CLASS
  1
ACDBASSOCACTION
  2
AcDbAssocAction
  3
ObjectDBX Classes
 90
     1025
 91
        0
280
     0
281
     0
  0
CLASS
  1
ACDBASSOCARRAYACTIONBODY
  2
AcDbAssocArrayActionBody
  3
ObjectDBX Classes
 90
     1025
 91
        0
280
     0
281
     0
  0
CLASS
  1
ACDBASSOCVERTEXACTIONPARAM
  2
AcDbAssocVertexActionParam
  3
ObjectDBX Classes
 90
     1025
 91
        0
280
     0
281
     0
  0
CLASS
  1
ACDBASSOCDEPENDENCY
  2
AcDbAssocDependency
  3
ObjectDBX Classes
 90
     1025
 91
        0
280
     0
281
     0
  0
CLASS
  1
ACDBASSOCARRAYPOLARPARAMETERS
  2
AcDbAssocArrayPolarParameters
  3
ObjectDBX Classes
 90
     1025
 91
        0
280
     0
281
     0
  0
CLASS
  1
CELLSTYLEMAP
  2
AcDbCellStyleMap
  3
ObjectDBX Classes
 90
     1152
 91
        1
280
     0
281
     0
  0
ENDSEC
  0
SECTION
  2
TABLES
  0
TABLE
  2
VPORT
  5
8
330
0
100
AcDbSymbolTable
 70
     1
  0
VPORT
  5
29
330
8
100
AcDbSymbolTableRecord
100
AcDbViewportTableRecord
  2
*Active
 70
     0
 10
0.0
 20
0.0
 11
1.0
 21
1.0
 12
-191.012437226148
 22
418.1364036390455
 13
0.0
 23
0.0
 14
0.5
 24
0.5
 15
0.5
 25
0.5
 16
-0.000000000000199
 26
0.0
 36
901.8907098282783
 17
56.48805205049885
 27
-17.99089464348957
 37
20.01949882507324
 40
4919.835658819014
 41
2.334549878345498
 42
50.0
 43
0.0
 44
0.0
 50
0.0
 51
0.0
 71
     0
 72
   100
 73
     1
 74
     3
 75
     0
 76
     0
 77
     0
 78
     0
281
     0
 65
     1
110
0.0
120
0.0
130
0.0
111
1.0
121
0.0
131
0.0
112
0.0
122
1.0
132
0.0
 79
     0
146
0.0
348
2F
 60
     3
 61
     5
292
     1
282
     1
141
0.0
142
0.0
 63
   250
421
  3355443
1001
ACAD_NAV_VCDISPLAY
1070
     3
  0
ENDTAB
  0
TABLE
  2
LTYPE
  5
5
330
0
100
AcDbSymbolTable
 70
     1
  0
LTYPE
  5
14
330
5
100
AcDbSymbolTableRecord
100
AcDbLinetypeTableRecord
  2
ByBlock
 70
     0
  3

 72
    65
 73
     0
 40
0.0
  0
LTYPE
  5
15
330
5
100
AcDbSymbolTableRecord
100
AcDbLinetypeTableRecord
  2
ByLayer
 70
     0
  3

 72
    65
 73
     0
 40
0.0
  0
LTYPE
  5
16
330
5
100
AcDbSymbolTableRecord
100
AcDbLinetypeTableRecord
  2
Continuous
 70
     0
  3
Solid line
 72
    65
 73
     0
 40
0.0
  0
ENDTAB
  0
TABLE
  2
LAYER
  5
2
102
{ACAD_XDICTIONARY
360
474
102
}
330
0
100
AcDbSymbolTable
 70
     2
  0
LAYER
  5
10
102
{ACAD_XDICTIONARY
360
121
102
}
330
2
100
AcDbSymbolTableRecord
100
AcDbLayerTableRecord
  2
0
 70
     0
 62
     7
  6
Continuous
370
    -3
390
F
347
EF
348
0
  0
LAYER
  5
3B
102
{ACAD_XDICTIONARY
360
123
102
}
330
2
100
AcDbSymbolTableRecord
100
AcDbLayerTableRecord
  2
Default
 70
     0
 62
     7
  6
Continuous
370
    -3
390
F
347
EF
348
0
  0
ENDTAB
  0
TABLE
  2
STYLE
  5
3
330
0
100
AcDbSymbolTable
 70
     1
  0
STYLE
  5
11
330
3
100
AcDbSymbolTableRecord
100
AcDbTextStyleTableRecord
  2
Standard
 70
     0
 40
0.0
 41
1.0
 50
0.0
 71
     0
 42
0.2
  3
txt
  4

  0
ENDTAB
  0
TABLE
  2
VIEW
  5
6
330
0
100
AcDbSymbolTable
 70
     0
  0
ENDTAB
  0
TABLE
  2
UCS
  5
7
330
0
100
AcDbSymbolTable
 70
     0
  0
ENDTAB
  0
TABLE
  2
APPID
  5
9
330
0
100
AcDbSymbolTable
 70
     3
  0
APPID
  5
12
330
9
100
AcDbSymbolTableRecord
100
AcDbRegAppTableRecord
  2
ACAD
 70
     0
  0
APPID
  5
125
330
9
100
AcDbSymbolTableRecord
100
AcDbRegAppTableRecord
  2
ACAD_NAV_VCDISPLAY
 70
     0
  0
APPID
  5
5D2
330
9
100
AcDbSymbolTableRecord
100
AcDbRegAppTableRecord
  2
ACAD_EXEMPT_FROM_CAD_STANDARDS
 70
     0
  0
ENDTAB
  0
TABLE
  2
DIMSTYLE
  5
A
330
0
100
AcDbSymbolTable
 70
     1
100
AcDbDimStyleTable
 71
     1
340
27
  0
DIMSTYLE
105
27
330
A
100
AcDbSymbolTableRecord
100
AcDbDimStyleTableRecord
  2
Standard
 70
     0
340
11
  0
ENDTAB
  0
TABLE
  2
BLOCK_RECORD
  5
1
330
0
100
AcDbSymbolTable
 70
     1
  0
BLOCK_RECORD
  5
1F
102
{ACAD_XDICTIONARY
360
363
102
}
330
1
100
AcDbSymbolTableRecord
100
AcDbBlockTableRecord
  2
*Model_Space
340
22
 70
     0
280
     1
281
     0
  0
BLOCK_RECORD
  5
1B
330
1
100
AcDbSymbolTableRecord
100
AcDbBlockTableRecord
  2
*Paper_Space
340
1E
 70
     0
280
     1
281
     0
  0
BLOCK_RECORD
  5
23
330
1
100
AcDbSymbolTableRecord
100
AcDbBlockTableRecord
  2
*Paper_Space0
340
26
 70
     0
280
     1
281
     0
  0
ENDTAB
  0
ENDSEC
  0
SECTION
  2
BLOCKS
  0
BLOCK
  5
20
330
1F
100
AcDbEntity
  8
0
100
AcDbBlockBegin
  2
*Model_Space
 70
     0
 10
0.0
 20
0.0
 30
0.0
  3
*Model_Space
  1

  0
ENDBLK
  5
21
330
1F
100
AcDbEntity
  8
0
100
AcDbBlockEnd
  0
BLOCK
  5
1C
330
1B
100
AcDbEntity
 67
     1
  8
0
100
AcDbBlockBegin
  2
*Paper_Space
 70
     0
 10
0.0
 20
0.0
 30
0.0
  3
*Paper_Space
  1

  0
ENDBLK
  5
1D
330
1B
100
AcDbEntity
 67
     1
  8
0
100
AcDbBlockEnd
  0
BLOCK
  5
24
330
23
100
AcDbEntity
 67
     1
  8
0
100
AcDbBlockBegin
  2
*Paper_Space0
 70
     0
 10
0.0
 20
0.0
 30
0.0
  3
*Paper_Space0
  1

  0
ENDBLK
  5
25
330
23
100
AcDbEntity
 67
     1
  8
0
100
AcDbBlockEnd
  0
ENDSEC
  0
SECTION
  2
ENTITIES
  0
CIRCLE
  5
2A8
330
1F
100
AcDbEntity
  8
Default
100
AcDbCircle
 10
-357.229920643586
 20
1018.940421182128
 30
4.185207900610024
 40
199.9375
  0
SPLINE
  5
2A9
330
1F
100
AcDbEntity
  8
Default
100
AcDbSpline
210
0.0
220
0.0
230
1.0
 70
     8
 71
     3
 72
    21
 73
    17
 74
     0
 42
0.000000001
 43
0.0000000001
 40
0.0
 40
0.0
 40
0.0
 40
0.0
 40
0.2588469591229587
 40
0.6477254461891114
 40
1.024641027840087
 40
1.817983982162573
 40
2.582167143679937
 40
4.062052734317923
 40
7.850412104674
 40
9.497260537102542
 40
10.543391206404
 40
10.8432833113025
 40
12.15829953678302
 40
13.34949093133962
 40
14.77372714428499
 40
15.46884750610318
 40
15.46884750610318
 40
15.46884750610318
 40
15.46884750610318
 10
-196.4759589025438
 20
1583.143969867166
 30
4.185207900610024
 10
-196.2727395302867
 20
1580.947148283288
 30
4.185207900610024
 10
-197.2561383367784
 20
1575.502325149268
 30
4.185207900610024
 10
-200.4173913276409
 20
1567.414870443668
 30
4.185207900610024
 10
-206.1124722780349
 20
1555.507491231436
 30
4.185207900610024
 10
-213.9317125503136
 20
1541.119403643513
 30
4.185207900610024
 10
-225.1898553858249
 20
1518.005422118327
 30
4.185207900610024
 10
-246.8041319383917
 20
1471.752565859764
 30
4.185207900610024
 10
-269.121977376688
 20
1417.624011484444
 30
4.185207900610024
 10
-288.9210891718908
 20
1366.480849863945
 30
4.185207900610024
 10
-297.8102336329267
 20
1342.761697617102
 30
4.185207900610024
 10
-305.4621999088868
 20
1321.568432433885
 30
4.185207900610024
 10
-309.9944966382618
 20
1298.12391180308
 30
4.185207900610024
 10
-311.7424431677958
 20
1264.902567933815
 30
4.185207900610024
 10
-311.4437779201443
 20
1236.858533863843
 30
4.185207900610024
 10
-310.118669777755
 20
1218.96611100591
 30
4.185207900610024
 10
-309.5551862398852
 20
1213.110768057718
 30
4.185207900610024
  0
SPLINE
  5
2AA
330
1F
100
AcDbEntity
  8
Default
100
AcDbSpline
210
0.0
220
0.0
230
1.0
 70
     8
 71
     3
 72
    10
 73
     6
 74
     0
 42
0.000000001
 43
0.0000000001
 40
-6.708248473681532
 40
-6.708248473681532
 40
-6.708248473681532
 40
-6.708248473681532
 40
-3.774519558109396
 40
-1.88935509827327
 40
0.0
 40
0.0
 40
0.0
 40
0.0
 10
-157.4419039776721
 20
1011.210459801133
 30
4.185207900610024
 10
-138.2103246234502
 20
995.5132768811415
 30
4.185207900610024
 10
-102.6543126435882
 20
974.5766096147013
 30
4.185207900610024
 10
-47.93308805624444
 20
958.5413480440342
 30
4.185207900610024
 10
-15.98756385692495
 20
955.4689517036024
 30
4.185207900610024
 10
0.00065063606283
 20
955.4672311773005
 30
4.185207900610024
  0
SPLINE
  5
2AB
330
1F
100
AcDbEntity
  8
Default
100
AcDbSpline
210
0.0
220
0.0
230
1.0
 70
     8
 71
     3
 72
     8
 73
     4
 74
     0
 42
0.000000001
 43
0.0000000001
 40
-14.89017236839833
 40
-14.89017236839833
 40
-14.89017236839833
 40
-14.89017236839833
 40
-14.55234360913006
 40
-14.55234360913006
 40
-14.55234360913006
 40
-14.55234360913006
 10
-244.367076301188
 20
1192.443026671741
 30
4.185207900610024
 10
-244.3678425887342
 20
1189.583610963491
 30
4.185207900610024
 10
-244.3142633849352
 20
1186.724298448401
 30
4.185207900610024
 10
-244.2068257589329
 20
1183.867022823418
 30
4.185207900610024
  0
SPLINE
  5
2AC
330
1F
100
AcDbEntity
  8
Default
100
AcDbSpline
210
0.0
220
0.0
230
1.0
 70
     8
 71
     3
 72
    34
 73
    30
 74
     0
 42
0.000000001
 43
0.0000000001
 40
49.54977648871967
 40
49.54977648871967
 40
49.54977648871967
 40
49.54977648871967
 40
50.0
 40
51.0
 40
52.0
 40
53.0
 40
53.0
 40
53.0
 40
54.0
 40
55.0
 40
56.0
 40
57.0
 40
58.0
 40
59.0
 40
60.0
 40
60.0
 40
60.0
 40
61.0
 40
62.0
 40
63.0
 40
64.0
 40
65.0
 40
66.0
 40
67.0
 40
68.0
 40
69.0
 40
70.0
 40
71.0
 40
72.0
 40
72.0
 40
72.0
 40
72.0
 10
-302.3193249010203
 20
1211.189817491834
 30
4.185207900610024
 10
-302.6470036047499
 20
1216.213137715759
 30
4.185207900610024
 10
-303.4515264866997
 20
1232.409397235988
 30
4.185207900610024
 10
-303.5118783584922
 20
1259.802736583711
 30
4.185207900610024
 10
-302.1381927720309
 20
1293.367253403184
 30
4.185207900610024
 10
-297.7819736616674
 20
1315.391444406282
 30
4.185207900610024
 10
-294.3767590574775
 20
1326.048765196957
 30
4.185207900610024
 10
-291.0537110281978
 20
1336.517872226584
 30
4.185207900610024
 10
-284.3045255122338
 20
1357.423782512967
 30
4.185207900610024
 10
-273.6570588946968
 20
1388.609276361246
 30
4.185207900610024
 10
-262.4050032559143
 20
1419.582061278972
 30
4.185207900610024
 10
-250.4693134460096
 20
1450.29891556654
 30
4.185207900610024
 10
-237.7473128079727
 20
1480.697966615841
 30
4.185207900610024
 10
-224.2145487870196
 20
1510.748727982978
 30
4.185207900610024
 10
-214.3715648808499
 20
1530.392783432455
 30
4.185207900610024
 10
-209.3096794993432
 20
1540.140456072211
 30
4.185207900610024
 10
-208.2750790420645
 20
1542.142358654082
 30
4.185207900610024
 10
-206.2162455664146
 20
1546.151633093494
 30
4.185207900610024
 10
-203.2550520742541
 20
1552.229764206755
 30
4.185207900610024
 10
-200.5071233594731
 20
1558.407601866055
 30
4.185207900610024
 10
-198.1079533309636
 20
1564.734567670781
 30
4.185207900610024
 10
-196.2821325890304
 20
1571.24544899026
 30
4.185207900610024
 10
-195.3498581265848
 20
1577.995957773593
 30
4.185207900610024
 10
-196.4971837576459
 20
1584.733543775011
 30
4.185207900610024
 10
-199.4481321039546
 20
1590.854645088071
 30
4.185207900610024
 10
-202.388134887901
 20
1596.93324156068
 30
4.185207900610024
 10
-205.841159248613
 20
1602.758272648318
 30
4.185207900610024
 10
-209.8000853280789
 20
1608.24277075978
 30
4.185207900610024
 10
-216.4881589557392
 20
1615.20153664027
 30
4.185207900610024
 10
-217.9101536364594
 20
1616.94979294077
 30
4.185207900610024
  0
SPLINE
  5
2AD
330
1F
100
AcDbEntity
  8
Default
100
AcDbSpline
210
0.0
220
0.0
230
1.0
 70
     8
 71
     3
 72
    12
 73
     8
 74
     0
 42
0.000000001
 43
0.0000000001
 40
36.00001859054296
 40
36.00001859054296
 40
36.00001859054296
 40
36.00001859054296
 40
37.0
 40
38.0
 40
39.0
 40
40.0
 40
40.99791129719946
 40
40.99791129719946
 40
40.99791129719946
 40
40.99791129719946
 10
-0.0000003280947276
 20
939.6516008858807
 30
4.185207900610024
 10
-11.18023697695168
 20
939.6326834409391
 30
4.185207900610024
 10
-33.54314973666343
 20
940.5477956768649
 30
4.185207900610024
 10
-66.84309372280494
 20
944.8278960386973
 30
4.185207900610024
 10
-99.61624449835568
 20
952.146252270214
 30
4.185207900610024
 10
-131.4838085493944
 20
962.6736392128583
 30
4.185207900610024
 10
-151.8520204100666
 20
971.940151601016
 30
4.185207900610024
 10
-161.7035258135115
 20
977.1740132565742
 30
4.185207900610024
  0
SPLINE
  5
2AE
330
1F
100
AcDbEntity
  8
Default
100
AcDbSpline
210
0.0
220
0.0
230
1.0
 70
     8
 71
     3
 72
    12
 73
     8
 74
     0
 42
0.000000001
 43
0.0000000001
 40
0.0
 40
0.0
 40
0.0
 40
0.0
 40
1.918305221504867
 40
3.868777778011241
 40
7.624449324857683
 40
11.42846767657462
 40
15.35241906764609
 40
15.35241906764609
 40
15.35241906764609
 40
15.35241906764609
 10
0.0006495897942767
 20
1442.573248796539
 30
4.185207900610024
 10
-16.23232242352252
 20
1442.586722290245
 30
4.185207900610024
 10
-48.98023909845298
 20
1439.41792824207
 30
4.185207900610024
 10
-111.0796480350009
 20
1420.780325056857
 30
4.185207900610024
 10
-179.1195301420476
 20
1374.706946778545
 30
4.185207900610024
 10
-232.5499425104265
 20
1291.185227231204
 30
4.185207900610024
 10
-244.3676184234911
 20
1225.636019851342
 30
4.185207900610024
 10
-244.367076301188
 20
1192.443026671741
 30
4.185207900610024
  0
SPLINE
  5
2AF
330
1F
100
AcDbEntity
  8
Default
100
AcDbSpline
210
0.0
220
0.0
230
1.0
 70
     8
 71
     3
 72
    47
 73
    43
 74
     0
 42
0.000000001
 43
0.0000000001
 40
36.00001859054296
 40
36.00001859054296
 40
36.00001859054296
 40
36.00001859054296
 40
37.0
 40
38.0
 40
39.0
 40
40.0
 40
41.0
 40
42.0
 40
43.0
 40
44.0
 40
45.0
 40
46.0
 40
47.0
 40
48.0
 40
49.0
 40
50.0
 40
51.0
 40
52.0
 40
53.0
 40
53.0
 40
53.0
 40
54.0
 40
55.0
 40
56.0
 40
57.0
 40
58.0
 40
59.0
 40
60.0
 40
60.0
 40
60.0
 40
61.0
 40
62.0
 40
63.0
 40
64.0
 40
65.0
 40
66.0
 40
67.0
 40
68.0
 40
69.0
 40
70.0
 40
71.0
 40
72.0
 40
72.0
 40
72.0
 40
72.0
 10
-0.0000003280947276
 20
939.6516008858807
 30
4.185207900610024
 10
11.18023632076223
 20
939.6326834409391
 30
4.185207900610024
 10
33.54314908047398
 20
940.5477956768649
 30
4.185207900610024
 10
66.8430930666155
 20
944.8278960386973
 30
4.185207900610024
 10
99.61624384216621
 20
952.146252270214
 30
4.185207900610024
 10
131.5060106416125
 20
962.6809738470118
 30
4.185207900610024
 10
162.088904311032
 20
976.5988070052546
 30
4.185207900610024
 10
190.7306565091966
 20
994.1651129510361
 30
4.185207900610024
 10
217.137240020702
 20
1014.952380738884
 30
4.185207900610024
 10
240.5875792397387
 20
1039.034258593336
 30
4.185207900610024
 10
260.7917356711689
 20
1065.894550891362
 30
4.185207900610024
 10
277.1223232085577
 20
1095.300314785588
 30
4.185207900610024
 10
288.7912801441989
 20
1126.838779955266
 30
4.185207900610024
 10
296.4594037733131
 20
1159.538751007295
 30
4.185207900610024
 10
301.1708011134104
 20
1192.772039359541
 30
4.185207900610024
 10
303.4379841923664
 20
1226.262931882291
 30
4.185207900610024
 10
303.5118777023027
 20
1259.802736583711
 30
4.185207900610024
 10
302.1381921158415
 20
1293.367253403184
 30
4.185207900610024
 10
297.7819730054779
 20
1315.391444406282
 30
4.185207900610024
 10
294.376758401288
 20
1326.048765196957
 30
4.185207900610024
 10
291.0537103720083
 20
1336.517872226584
 30
4.185207900610024
 10
284.3045248560443
 20
1357.423782512967
 30
4.185207900610024
 10
273.6570582385073
 20
1388.609276361246
 30
4.185207900610024
 10
262.4050025997248
 20
1419.582061278972
 30
4.185207900610024
 10
250.46931278982
 20
1450.29891556654
 30
4.185207900610024
 10
237.7473121517832
 20
1480.697966615841
 30
4.185207900610024
 10
224.2145481308302
 20
1510.748727982978
 30
4.185207900610024
 10
214.3715642246604
 20
1530.392783432455
 30
4.185207900610024
 10
209.3096788431537
 20
1540.140456072211
 30
4.185207900610024
 10
208.275078385875
 20
1542.142358654082
 30
4.185207900610024
 10
206.2162449102251
 20
1546.151633093494
 30
4.185207900610024
 10
203.2550514180646
 20
1552.229764206755
 30
4.185207900610024
 10
200.5071227032836
 20
1558.407601866055
 30
4.185207900610024
 10
198.1079526747741
 20
1564.734567670781
 30
4.185207900610024
 10
196.282131932841
 20
1571.24544899026
 30
4.185207900610024
 10
195.3498574703953
 20
1577.995957773593
 30
4.185207900610024
 10
196.4971831014564
 20
1584.733543775011
 30
4.185207900610024
 10
199.4481314477652
 20
1590.854645088071
 30
4.185207900610024
 10
202.3881342317115
 20
1596.93324156068
 30
4.185207900610024
 10
205.8411585924235
 20
1602.758272648318
 30
4.185207900610024
 10
209.8000846718894
 20
1608.24277075978
 30
4.185207900610024
 10
216.4881582995497
 20
1615.20153664027
 30
4.185207900610024
 10
217.9101529802699
 20
1616.94979294077
 30
4.185207900610024
  0
SPLINE
  5
2C9
330
1F
100
AcDbEntity
  8
Default
100
AcDbSpline
210
0.0
220
0.0
230
1.0
 70
     8
 71
     3
 72
    12
 73
     8
 74
     0
 42
0.000000001
 43
0.0000000001
 40
-14.89017236839833
 40
-14.89017236839833
 40
-14.89017236839833
 40
-14.89017236839833
 40
-11.21816917573749
 40
-7.516682162771167
 40
-3.774519558109396
 40
-1.88935509827327
 40
0.0
 40
0.0
 40
0.0
 40
0.0
 10
244.3670756449985
 20
1192.443026671741
 30
4.185207900610024
 10
244.3754047473613
 20
1161.362831982035
 30
4.185207900610024
 10
231.4993537153551
 20
1098.977369923701
 30
4.185207900610024
 10
176.8623158823553
 20
1020.098595450008
 30
4.185207900610024
 10
109.2489516520162
 20
976.5090731657984
 30
4.185207900610024
 10
47.93308740005499
 20
958.5413480440342
 30
4.185207900610024
 10
15.9875632007355
 20
955.4689517036024
 30
4.185207900610024
 10
-0.0006512922522852
 20
955.4672311773005
 30
4.185207900610024
  0
SPLINE
  5
2CA
330
1F
100
AcDbEntity
  8
Default
100
AcDbSpline
210
0.0
220
0.0
230
1.0
 70
     8
 71
     3
 72
    12
 73
     8
 74
     0
 42
0.000000001
 43
0.0000000001
 40
0.0
 40
0.0
 40
0.0
 40
0.0
 40
1.918305221504867
 40
3.868777778011241
 40
7.624449324857683
 40
11.42846767657462
 40
15.35241906764609
 40
15.35241906764609
 40
15.35241906764609
 40
15.35241906764609
 10
-0.000650245983732
 20
1442.573248796539
 30
4.185207900610024
 10
16.23232176733306
 20
1442.586722290245
 30
4.185207900610024
 10
48.98023844226351
 20
1439.41792824207
 30
4.185207900610024
 10
111.0796473788115
 20
1420.780325056857
 30
4.185207900610024
 10
179.1195294858582
 20
1374.706946778545
 30
4.185207900610024
 10
232.549941854237
 20
1291.185227231204
 30
4.185207900610024
 10
244.3676177673016
 20
1225.636019851342
 30
4.185207900610024
 10
244.3670756449985
 20
1192.443026671741
 30
4.185207900610024
  0
SPLINE
  5
2CC
330
1F
100
AcDbEntity
  8
Default
100
AcDbSpline
210
0.0
220
0.0
230
1.0
 70
    12
 71
     2
 72
     6
 73
     3
 74
     0
 42
0.000000001
 43
0.0000000001
 40
0.0
 40
0.0
 40
0.0
 40
1.278324852146924
 40
1.278324852146924
 40
1.278324852146924
 10
-9.368500328123586
 20
907.3022663963111
 30
4.185207900610024
 41
1.0
 10
-9.547417013494488
 20
923.5289038547884
 30
4.185207900610024
 41
0.9999999996076647
 10
-9.726646759766216
 20
939.7555378584023
 30
4.185207900610024
 41
0.9999999993083845
  0
SPLINE
  5
2CD
330
1F
100
AcDbEntity
  8
Default
100
AcDbSpline
210
0.0
220
0.0
230
1.0
 70
     8
 71
     3
 72
    14
 73
    10
 74
     0
 42
0.000000001
 43
0.0000000001
 40
0.0
 40
0.0
 40
0.0
 40
0.0
 40
1.0
 40
2.0
 40
3.0
 40
4.0
 40
5.0
 40
6.0
 40
7.0
 40
7.0
 40
7.0
 40
7.0
 10
9.374316488654883
 20
907.2037868690147
 30
4.185207900610024
 10
9.347660980528083
 20
905.418805471149
 30
4.185207900610024
 10
8.832341012481487
 20
902.0513262667504
 30
4.185207900610024
 10
6.654358818084132
 20
897.4209725162941
 30
4.185207900610024
 10
2.607497716001103
 20
893.9982699305195
 30
4.185207900610024
 10
-2.805095143951197
 20
894.0840161877757
 30
4.185207900610024
 10
-6.76973186709148
 20
897.5869545334909
 30
4.185207900610024
 10
-8.887689088544398
 20
902.2430044713448
 30
4.185207900610024
 10
-9.367742644256452
 20
905.6155959729805
 30
4.185207900610024
 10
-9.368500328123586
 20
907.3022663963111
 30
4.185207900610024
  0
SPLINE
  5
2CE
330
1F
100
AcDbEntity
  8
Default
100
AcDbSpline
210
0.0
220
0.0
230
1.0
 70
    12
 71
     2
 72
     6
 73
     3
 74
     0
 42
0.000000001
 43
0.0000000001
 40
-1.281345128275034
 40
-1.281345128275034
 40
-1.281345128275034
 40
0.0
 40
0.0
 40
0.0
 10
9.734857985788025
 20
939.7557563899553
 30
4.185207900610024
 41
0.9999999993069707
 10
9.554478880927053
 20
923.4804691457256
 30
4.185207900610024
 41
0.9999999996067375
 10
9.374316488654883
 20
907.2037868690147
 30
4.185207900610024
 41
1.0
  0
SPLINE
  5
2CF
330
1F
100
AcDbEntity
  8
Default
100
AcDbSpline
210
0.0
220
0.0
230
1.0
 70
    12
 71
     2
 72
     6
 73
     3
 74
     0
 42
0.000000001
 43
0.0000000001
 40
0.0
 40
0.0
 40
0.0
 40
1.112498698414412
 40
1.112498698414412
 40
1.112498698414412
 10
339.3986663385711
 20
1237.332433062949
 30
4.185207900610024
 41
1.0
 10
325.2769718248785
 20
1237.176725709489
 30
4.185207900610024
 41
0.9999999996585591
 10
311.1552799275504
 20
1237.020781248473
 30
4.185207900610024
 41
0.9999999993875963
  0
SPLINE
  5
2D0
330
1F
100
AcDbEntity
  8
Default
100
AcDbSpline
210
0.0
220
0.0
230
1.0
 70
     8
 71
     3
 72
    14
 73
    10
 74
     0
 42
0.000000001
 43
0.0000000001
 40
0.0
 40
0.0
 40
0.0
 40
0.0
 40
1.0
 40
2.0
 40
3.0
 40
4.0
 40
5.0
 40
6.0
 40
7.0
 40
7.0
 40
7.0
 40
7.0
 10
339.4971458658674
 20
1256.075249879727
 30
4.185207900610024
 10
341.2821272637331
 20
1256.048594371601
 30
4.185207900610024
 10
344.6496064681318
 20
1255.533274403554
 30
4.185207900610024
 10
349.2799602185882
 20
1253.355292209157
 30
4.185207900610024
 10
352.7026628043627
 20
1249.308431107074
 30
4.185207900610024
 10
352.6169165471066
 20
1243.895838247121
 30
4.185207900610024
 10
349.1139782013914
 20
1239.931201523981
 30
4.185207900610024
 10
344.4579282635372
 20
1237.813244302528
 30
4.185207900610024
 10
341.0853367619015
 20
1237.333190746816
 30
4.185207900610024
 10
339.3986663385711
 20
1237.332433062949
 30
4.185207900610024
  0
SPLINE
  5
2D1
330
1F
100
AcDbEntity
  8
Default
100
AcDbSpline
210
0.0
220
0.0
230
1.0
 70
    12
 71
     2
 72
     6
 73
     3
 74
     0
 42
0.000000001
 43
0.0000000001
 40
-1.102413928352738
 40
-1.102413928352738
 40
-1.102413928352738
 40
0.0
 40
0.0
 40
0.0
 10
311.4906716072496
 20
1256.385418153407
 30
4.185207900610024
 41
0.9999999993925147
 10
325.4933924256144
 20
1256.230253809748
 30
4.185207900610024
 41
0.9999999996616539
 10
339.4971458658674
 20
1256.075249879727
 30
4.185207900610024
 41
1.0
  0
SPLINE
  5
2D2
330
1F
100
AcDbEntity
  8
Default
100
AcDbSpline
210
0.0
220
0.0
230
1.0
 70
    12
 71
     2
 72
     6
 73
     3
 74
     0
 42
0.000000001
 43
0.0000000001
 40
0.0
 40
0.0
 40
0.0
 40
5.654573080352872
 40
5.654573080352872
 40
5.654573080352872
 10
-0.0011765868213336
 20
1671.990100659008
 30
4.185207900610024
 41
1.0
 10
-71.93833831909905
 20
1671.834109517386
 30
4.185207900610024
 41
0.9967681786255456
 10
-142.9215509120991
 20
1660.159884785485
 30
4.185207900610024
 41
1.0
  0
SPLINE
  5
2D3
330
1F
100
AcDbEntity
  8
Default
100
AcDbSpline
210
0.0
220
0.0
230
1.0
 70
    12
 71
     2
 72
     6
 73
     3
 74
     0
 42
0.000000001
 43
0.0000000001
 40
-5.654573080352872
 40
-5.654573080352872
 40
-5.654573080352872
 40
0.0
 40
0.0
 40
0.0
 10
142.9191977384568
 20
1660.159884785485
 30
4.185207900610024
 41
1.0
 10
71.93598514545638
 20
1671.834109517386
 30
4.185207900610024
 41
0.9967681786255456
 10
-0.0011765868213336
 20
1671.990100659008
 30
4.185207900610024
 41
1.0
  0
SPLINE
  5
2D4
330
1F
100
AcDbEntity
  8
Default
100
AcDbSpline
210
0.0
220
0.0
230
1.0
 70
    12
 71
     2
 72
     6
 73
     3
 74
     0
 42
0.000000001
 43
0.0000000001
 40
0.0
 40
0.0
 40
0.0
 40
0.443505275079806
 40
0.443505275079806
 40
0.443505275079806
 10
223.1358268962969
 20
1627.000524050379
 30
4.185207900610024
 41
1.0
 10
221.5110504774934
 20
1621.376878233232
 30
4.185207900610024
 41
0.9799943751373794
 10
217.9101529802699
 20
1616.94979294077
 30
4.185207900610024
 41
1.0
  0
SPLINE
  5
2D5
330
1F
100
AcDbEntity
  8
Default
100
AcDbSpline
210
0.0
220
0.0
230
1.0
 70
     8
 71
     3
 72
    12
 73
     8
 74
     0
 42
0.000000001
 43
0.0000000001
 40
0.0
 40
0.0
 40
0.0
 40
0.0
 40
0.8495817757806477
 40
1.391422022197968
 40
2.191064820612614
 40
2.689385262996221
 40
3.111933853859593
 40
3.111933853859593
 40
3.111933853859593
 40
3.111933853859593
 10
157.6047928551398
 20
1657.792800679589
 30
4.185207900610024
 10
164.7083154945153
 20
1656.521450190806
 30
4.185207900610024
 10
176.2966252992941
 20
1654.745260792292
 30
4.185207900610024
 10
194.4973963447978
 20
1650.90090517828
 30
4.185207900610024
 10
209.4911262605403
 20
1646.849451181507
 30
4.185207900610024
 10
222.3246184109801
 20
1639.109772478946
 30
4.185207900610024
 10
224.2466118868287
 20
1630.515917012381
 30
4.185207900610024
 10
223.1358268962969
 20
1627.000524050379
 30
4.185207900610024
  0
SPLINE
  5
2D6
330
1F
100
AcDbEntity
  8
Default
100
AcDbSpline
210
0.0
220
0.0
230
1.0
 70
    12
 71
     2
 72
     6
 73
     3
 74
     0
 42
0.000000001
 43
0.0000000001
 40
-6.233889429224446
 40
-6.233889429224446
 40
-6.233889429224446
 40
0.0
 40
0.0
 40
0.0
 10
-0.0011765868213336
 20
1670.27427503751
 30
4.185207900610024
 41
1.0
 10
79.30791709396489
 20
1670.421595183423
 30
4.185207900610024
 41
0.996730330589404
 10
157.6047928551398
 20
1657.792800679589
 30
4.185207900610024
 41
1.0
  0
SPLINE
  5
2D7
330
1F
100
AcDbEntity
  8
Default
100
AcDbSpline
210
0.0
220
0.0
230
1.0
 70
    12
 71
     2
 72
     6
 73
     3
 74
     0
 42
0.000000001
 43
0.0000000001
 40
0.0
 40
0.0
 40
0.0
 40
6.233889429224446
 40
6.233889429224446
 40
6.233889429224446
 10
-157.6059697700562
 20
1657.792800679589
 30
4.185207900610024
 41
0.9999999519924591
 10
-79.30968612107955
 20
1670.421594098339
 30
4.185207900610024
 41
0.9967303545933507
 10
-0.0011765868213336
 20
1670.27427503751
 30
4.185207900610024
 41
1.0
  0
SPLINE
  5
2D8
330
1F
100
AcDbEntity
  8
Default
100
AcDbSpline
210
0.0
220
0.0
230
1.0
 70
     8
 71
     3
 72
    12
 73
     8
 74
     0
 42
0.000000001
 43
0.0000000001
 40
-3.111933853859593
 40
-3.111933853859593
 40
-3.111933853859593
 40
-3.111933853859593
 40
-2.689379093202719
 40
-2.191051374651839
 40
-1.391396900347014
 40
-0.8495487423131249
 40
0.0
 40
0.0
 40
0.0
 40
0.0
 10
-223.1358275524871
 20
1627.000524050379
 30
4.185207900610024
 10
-224.2466125430188
 20
1630.515917012381
 30
4.185207900610024
 10
-222.3246190671703
 20
1639.109772478946
 30
4.185207900610024
 10
-209.4911269167305
 20
1646.849451181507
 30
4.185207900610024
 10
-194.497397000988
 20
1650.90090517828
 30
4.185207900610024
 10
-176.2970033995033
 20
1654.7451810688
 30
4.185207900610024
 10
-164.7090729996139
 20
1656.52133418465
 30
4.185207900610024
 10
-157.6059697700562
 20
1657.792800679589
 30
4.185207900610024
  0
SPLINE
  5
2D9
330
1F
100
AcDbEntity
  8
Default
100
AcDbSpline
210
0.0
220
0.0
230
1.0
 70
    12
 71
     2
 72
     6
 73
     3
 74
     0
 42
0.000000001
 43
0.0000000001
 40
-0.443505275079806
 40
-0.443505275079806
 40
-0.443505275079806
 40
0.0
 40
0.0
 40
0.0
 10
-217.9101536364601
 20
1616.94979294077
 30
4.185207900610024
 41
1.0
 10
-221.5110511336836
 20
1621.376878233232
 30
4.185207900610024
 41
0.9799943751373794
 10
-223.1358275524871
 20
1627.000524050379
 30
4.185207900610024
 41
1.0
  0
SPLINE
  5
2DA
330
1F
100
AcDbEntity
  8
Default
100
AcDbSpline
210
0.0
220
0.0
230
1.0
 70
     8
 71
     3
 72
    19
 73
    15
 74
     0
 42
0.000000001
 43
0.0000000001
 40
0.0
 40
0.0
 40
0.0
 40
0.0
 40
1.0
 40
2.0
 40
3.0
 40
4.0
 40
5.0
 40
6.0
 40
7.0
 40
8.0
 40
9.0
 40
10.0
 40
11.0
 40
12.0
 40
12.0
 40
12.0
 40
12.0
 10
-0.0011765868213336
 20
1656.876901113532
 30
4.185207900610024
 10
-6.330977991529537
 20
1656.876083937963
 30
4.185207900610024
 10
-18.99063192204472
 20
1656.80651163384
 30
4.185207900610024
 10
-37.97737860515937
 20
1656.462663757276
 30
4.185207900610024
 10
-56.95726969761623
 20
1655.843517556069
 30
4.185207900610024
 10
-75.92465493400346
 20
1654.913281648323
 30
4.185207900610024
 10
-94.87179846175347
 20
1653.635972667864
 30
4.185207900610024
 10
-113.7902456142286
 20
1651.97678629253
 30
4.185207900610024
 10
-132.6641921545013
 20
1649.892448044721
 30
4.185207900610024
 10
-151.4935730378956
 20
1647.365288993625
 30
4.185207900610024
 10
-170.2060740780056
 20
1644.276696465829
 30
4.185207900610024
 10
-188.9827058901232
 20
1640.872624942631
 30
4.185207900610024
 10
-207.0901934021529
 20
1636.288146985257
 30
4.185207900610024
 10
-219.9062689797145
 20
1632.222363588532
 30
4.185207900610024
 10
-223.0999221400861
 20
1626.86098973296
 30
4.185207900610024
  0
SPLINE
  5
2DB
330
1F
100
AcDbEntity
  8
Default
100
AcDbSpline
210
0.0
220
0.0
230
1.0
 70
     8
 71
     3
 72
    19
 73
    15
 74
     0
 42
0.000000001
 43
0.0000000001
 40
-12.0
 40
-12.0
 40
-12.0
 40
-12.0
 40
-11.0
 40
-10.0
 40
-9.0
 40
-8.0
 40
-7.0
 40
-6.0
 40
-5.0
 40
-4.0
 40
-3.0
 40
-2.0
 40
-1.0
 40
0.0
 40
0.0
 40
0.0
 40
0.0
 10
223.0975689664434
 20
1626.86098973296
 30
4.185207900610024
 10
219.9039158060718
 20
1632.222363588532
 30
4.185207900610024
 10
207.0878402285103
 20
1636.288146985257
 30
4.185207900610024
 10
188.9803527164809
 20
1640.872624942631
 30
4.185207900610024
 10
170.203720904363
 20
1644.276696465829
 30
4.185207900610024
 10
151.491219864253
 20
1647.365288993625
 30
4.185207900610024
 10
132.6618389808587
 20
1649.892448044721
 30
4.185207900610024
 10
113.7878924405859
 20
1651.97678629253
 30
4.185207900610024
 10
94.86944528811116
 20
1653.635972667864
 30
4.185207900610024
 10
75.92230176036117
 20
1654.913281648323
 30
4.185207900610024
 10
56.95491652397357
 20
1655.843517556069
 30
4.185207900610024
 10
37.9750254315167
 20
1656.462663757276
 30
4.185207900610024
 10
18.98827874840242
 20
1656.80651163384
 30
4.185207900610024
 10
6.328624817887232
 20
1656.876083937963
 30
4.185207900610024
 10
-0.0011765868213336
 20
1656.876901113532
 30
4.185207900610024
  0
SPLINE
  5
2DC
330
1F
100
AcDbEntity
  8
Default
100
AcDbSpline
210
0.0
220
0.0
230
1.0
 70
     8
 71
     3
 72
    22
 73
    18
 74
     0
 42
0.000000001
 43
0.0000000001
 40
0.0
 40
0.0
 40
0.0
 40
0.0
 40
0.2588469591229587
 40
0.6477254461891114
 40
1.024641027840087
 40
1.817983982162573
 40
2.582167143679937
 40
4.062052734317923
 40
7.850412104674
 40
9.497260537102542
 40
10.543391206404
 40
10.8432833113025
 40
12.15829953678302
 40
13.34949093133962
 40
14.77372714428499
 40
17.25709974516987
 40
21.82793658798906
 40
21.82793658798906
 40
21.82793658798906
 40
21.82793658798906
 10
196.4759582463543
 20
1583.143969867166
 30
4.185207900610024
 10
196.2727388740972
 20
1580.947148283288
 30
4.185207900610024
 10
197.2561376805889
 20
1575.502325149268
 30
4.185207900610024
 10
200.4173906714514
 20
1567.414870443668
 30
4.185207900610024
 10
206.1124716218455
 20
1555.507491231436
 30
4.185207900610024
 10
213.9317118941241
 20
1541.119403643513
 30
4.185207900610024
 10
225.1898547296354
 20
1518.005422118327
 30
4.185207900610024
 10
246.8041312822023
 20
1471.752565859764
 30
4.185207900610024
 10
269.1219767204986
 20
1417.624011484444
 30
4.185207900610024
 10
288.9210885157013
 20
1366.480849863945
 30
4.185207900610024
 10
297.8102329767372
 20
1342.761697617102
 30
4.185207900610024
 10
305.4621992526973
 20
1321.568432433885
 30
4.185207900610024
 10
309.9944959820723
 20
1298.12391180308
 30
4.185207900610024
 10
311.7424425116063
 20
1264.902567933815
 30
4.185207900610024
 10
311.282447839704
 20
1221.710042682671
 30
4.185207900610024
 10
302.1538825993306
 20
1150.337283744014
 30
4.185207900610024
 10
279.4631444621523
 20
1094.049465674931
 30
4.185207900610024
 10
257.4723214594575
 20
1062.119266961605
 30
4.185207900610024
  0
SPLINE
  5
34A
330
1F
100
AcDbEntity
  8
Default
100
AcDbSpline
210
0.0
220
0.0
230
1.0
 70
    12
 71
     2
 72
     6
 73
     3
 74
     0
 42
0.000000001
 43
0.0000000001
 40
0.0
 40
0.0
 40
0.0
 40
0.0586712320260919
 40
0.0586712320260919
 40
0.0586712320260919
 10
-0.0000003258833978
 20
875.0887559989781
 30
4.185207900610024
 41
1.0
 10
-0.7487337049410411
 20
875.0898599383667
 30
4.185207900610024
 41
0.9921343149382712
 10
-1.473728323271256
 20
875.2769045720489
 30
4.185207900610024
 41
1.0
  0
SPLINE
  5
34B
330
1F
100
AcDbEntity
  8
Default
100
AcDbSpline
210
0.0
220
0.0
230
1.0
 70
    24
 71
     2
 72
     6
 73
     3
 74
     0
 42
0.000000001
 43
0.0000000001
 40
0.0
 40
0.0
 40
0.0
 40
0.0114467396849787
 40
0.0114467396849787
 40
0.0114467396849787
 10
-0.0000003258833978
 20
875.0887559989781
 30
4.185207900610024
 10
-0.0000002603888535
 20
874.9434459979772
 30
4.185207900610024
 10
-0.0000001948943092
 20
874.7981359969761
 30
4.185207900610024
  0
SPLINE
  5
34C
330
1F
100
AcDbEntity
  8
Default
100
AcDbSpline
210
0.0
220
0.0
230
1.0
 70
    12
 71
     2
 72
     6
 73
     3
 74
     0
 42
0.000000001
 43
0.0000000001
 40
0.0
 40
0.0
 40
0.0
 40
0.0587632096241838
 40
0.0587632096241838
 40
0.0587632096241838
 10
1.476004149845131
 20
875.2774876423508
 30
4.185207900610024
 41
1.0
 10
0.7499334666334977
 20
875.0898679671786
 30
4.185207900610024
 41
0.9921107855315545
 10
0.0000144422994727
 20
875.0887559989978
 30
4.185207900610024
 41
1.0
  0
SPLINE
  5
34D
330
1F
100
AcDbEntity
  8
Default
100
AcDbSpline
210
0.0
220
0.0
230
1.0
 70
    12
 71
     2
 72
     6
 73
     3
 74
     0
 42
0.000000001
 43
0.0000000001
 40
-0.1297405451143296
 40
-0.1297405451143296
 40
-0.1297405451143296
 40
0.0
 40
0.0
 40
0.0
 10
344.5108594699491
 20
1255.983130578497
 30
4.185207900610024
 41
0.9999960316975588
 10
342.8641370717641
 20
1256.012518798273
 30
4.185207900610024
 41
0.999996865512317
 10
341.2175114025231
 20
1256.046902363277
 30
4.185207900610024
 41
1.0
  0
ARC
  5
34E
330
1F
100
AcDbEntity
  8
Default
100
AcDbCircle
 10
344.7373747146763
 20
1268.67555393249
 30
4.185207900610024
 40
12.69444444444444
100
AcDbArc
 50
268.9775798079559
 51
281.7179678781668
  0
SPLINE
  5
34F
330
1F
100
AcDbEntity
  8
Default
100
AcDbSpline
210
0.0
220
0.0
230
1.0
 70
     8
 71
     3
 72
    14
 73
    10
 74
     0
 42
0.000000001
 43
0.0000000001
 40
-7.0
 40
-7.0
 40
-7.0
 40
-7.0
 40
-6.0
 40
-5.0
 40
-4.0
 40
-3.0
 40
-2.0
 40
-1.0
 40
-0.2482205602640466
 40
-0.2482205602640466
 40
-0.2482205602640466
 40
-0.2482205602640466
 10
371.5463570575798
 20
1246.700945815907
 30
4.185207900610024
 10
371.5592420635837
 20
1248.140089533618
 30
4.185207900610024
 10
370.4111513415214
 20
1250.882329337982
 30
4.185207900610024
 10
367.0862354246844
 20
1253.677775687567
 30
4.185207900610024
 10
363.1797096768281
 20
1255.467397187508
 30
4.185207900610024
 10
359.0223858717646
 20
1256.521781596645
 30
4.185207900610024
 10
354.7627316852859
 20
1256.979147035628
 30
4.185207900610024
 10
350.8328311455952
 20
1256.857484908948
 30
4.185207900610024
 10
348.3646260855979
 20
1256.463269657005
 30
4.185207900610024
 10
347.3155448902359
 20
1256.245672263748
 30
4.185207900610024
  0
SPLINE
  5
350
330
1F
100
AcDbEntity
  8
Default
100
AcDbSpline
210
0.0
220
0.0
230
1.0
 70
     8
 71
     3
 72
    14
 73
    10
 74
     0
 42
0.000000001
 43
0.0000000001
 40
0.2772630823298201
 40
0.2772630823298201
 40
0.2772630823298201
 40
0.2772630823298201
 40
1.0
 40
2.0
 40
3.0
 40
4.0
 40
5.0
 40
6.0
 40
7.0
 40
7.0
 40
7.0
 40
7.0
 10
347.4371735093915
 20
1237.131218248219
 30
4.185207900610024
 10
348.4464754085146
 20
1236.925637754432
 30
4.185207900610024
 10
350.8743076612971
 20
1236.543122690088
 30
4.185207900610024
 10
354.7627316852859
 20
1236.422744596185
 30
4.185207900610024
 10
359.0223858717646
 20
1236.88011003517
 30
4.185207900610024
 10
363.1797096768281
 20
1237.934494444307
 30
4.185207900610024
 10
367.0862354246844
 20
1239.724115944247
 30
4.185207900610024
 10
370.4111513415214
 20
1242.519562293833
 30
4.185207900610024
 10
371.5592420635837
 20
1245.261802098196
 30
4.185207900610024
 10
371.5463570575798
 20
1246.700945815907
 30
4.185207900610024
  0
ARC
  5
351
330
1F
100
AcDbEntity
  8
Default
100
AcDbCircle
 10
344.903518988631
 20
1224.692186351704
 30
4.185207900610024
 40
12.69444444444444
100
AcDbArc
 50
78.48715217353502
 51
90.94225522513259
  0
SPLINE
  5
352
330
1F
100
AcDbEntity
  8
Default
100
AcDbSpline
210
0.0
220
0.0
230
1.0
 70
    12
 71
     2
 72
     6
 73
     3
 74
     0
 42
0.000000001
 43
0.0000000001
 40
0.0
 40
0.0
 40
0.0
 40
0.1369528492222414
 40
0.1369528492222414
 40
0.1369528492222414
 10
341.2175114025231
 20
1237.367703876254
 30
4.185207900610024
 41
1.0
 10
342.9556429941176
 20
1237.403998197229
 30
4.185207900610024
 41
0.9999966913238282
 10
344.6947624702553
 20
1237.384914209384
 30
4.185207900610024
 41
0.9999959461296658
  0
SPLINE
  5
353
330
1F
100
AcDbEntity
  8
Default
100
AcDbSpline
210
0.0
220
0.0
230
1.0
 70
     8
 71
     3
 72
    12
 73
     8
 74
     0
 42
0.000000001
 43
0.0000000001
 40
-1.014583801502342
 40
-1.014583801502342
 40
-1.014583801502342
 40
-1.014583801502342
 40
-0.8249401141264362
 40
-0.5900965017365678
 40
-0.3037660471064116
 40
-0.1510110321465192
 40
0.0
 40
0.0
 40
0.0
 40
0.0
 10
371.930798358273
 20
1246.700933208799
 30
4.185207900610024
 10
371.9626228148189
 20
1248.33472707976
 30
4.185207900610024
 10
370.3188312323045
 20
1251.732198024467
 30
4.185207900610024
 10
365.2193519347374
 20
1255.153295655667
 30
4.185207900610024
 10
359.6809365712448
 20
1256.688113310442
 30
4.185207900610024
 10
354.6933447221737
 20
1257.125103926052
 30
4.185207900610024
 10
352.1214539781562
 20
1257.027870105437
 30
4.185207900610024
 10
350.8489568644419
 20
1256.903052682188
 30
4.185207900610024
  0
SPLINE
  5
354
330
1F
100
AcDbEntity
  8
Default
100
AcDbSpline
210
0.0
220
0.0
230
1.0
 70
     8
 71
     3
 72
    12
 73
     8
 74
     0
 42
0.000000001
 43
0.0000000001
 40
0.0
 40
0.0
 40
0.0
 40
0.0
 40
0.1510110321465192
 40
0.3037660471064116
 40
0.5900965017365678
 40
0.8249401141264362
 40
1.014583801502342
 40
1.014583801502342
 40
1.014583801502342
 40
1.014583801502342
 10
350.8489568644419
 20
1236.49881373541
 30
4.185207900610024
 10
352.1214539781562
 20
1236.373996312161
 30
4.185207900610024
 10
354.6933447221737
 20
1236.276762491545
 30
4.185207900610024
 10
359.6809365712448
 20
1236.713753107155
 30
4.185207900610024
 10
365.2193519347374
 20
1238.248570761931
 30
4.185207900610024
 10
370.3188312323045
 20
1241.66966839313
 30
4.185207900610024
 10
371.9626228148189
 20
1245.067139337838
 30
4.185207900610024
 10
371.930798358273
 20
1246.700933208799
 30
4.185207900610024
  0
SPLINE
  5
355
330
1F
100
AcDbEntity
  8
Default
100
AcDbSpline
210
0.0
220
0.0
230
1.0
 70
    12
 71
     2
 72
     6
 73
     3
 74
     0
 42
0.000000001
 43
0.0000000001
 40
0.0
 40
0.0
 40
0.0
 40
0.0853474550214741
 40
0.0853474550214741
 40
0.0853474550214741
 10
351.7387465657521
 20
1256.978220118927
 30
4.185207900610024
 41
1.0
 10
352.81996384271
 20
1257.054066326093
 30
4.185207900610024
 41
0.9993970637774639
 10
353.9038379372591
 20
1257.054694257648
 30
4.185207900610024
 41
1.0
  0
SPLINE
  5
356
330
1F
100
AcDbEntity
  8
Default
100
AcDbSpline
210
0.0
220
0.0
230
1.0
 70
    12
 71
     2
 72
     6
 73
     3
 74
     0
 42
0.000000001
 43
0.0000000001
 40
0.0
 40
0.0
 40
0.0
 40
0.0853474550214741
 40
0.0853474550214741
 40
0.0853474550214741
 10
10.27728672785481
 20
894.96218616913
 30
4.185207900610024
 41
1.0
 10
10.35313293501992
 20
893.8809688921722
 30
4.185207900610024
 41
0.9993970637774639
 10
10.35376086657545
 20
892.7970947976229
 30
4.185207900610024
 41
1.0
  0
SPLINE
  5
357
330
1F
100
AcDbEntity
  8
Default
100
AcDbSpline
210
0.0
220
0.0
230
1.0
 70
    12
 71
     2
 72
     6
 73
     3
 74
     0
 42
0.000000001
 43
0.0000000001
 40
-0.1297405451143296
 40
-0.1297405451143296
 40
-0.1297405451143296
 40
0.0
 40
0.0
 40
0.0
 10
9.282197187424634
 20
902.1900732649328
 30
4.185207900610024
 41
0.9999960316975588
 10
9.311585407201011
 20
903.8367956631178
 30
4.185207900610024
 41
0.999996865512317
 10
9.345968972204556
 20
905.4834213323591
 30
4.185207900610024
 41
1.0
  0
ARC
  5
358
330
1F
100
AcDbEntity
  8
Default
100
AcDbCircle
 10
21.97462054141791
 20
901.9635580202059
 30
4.185207900610024
 40
12.69444444444444
100
AcDbArc
 50
178.9775798079559
 51
191.7179678781667
  0
SPLINE
  5
359
330
1F
100
AcDbEntity
  8
Default
100
AcDbSpline
210
0.0
220
0.0
230
1.0
 70
     8
 71
     3
 72
    14
 73
    10
 74
     0
 42
0.000000001
 43
0.0000000001
 40
-7.0
 40
-7.0
 40
-7.0
 40
-7.0
 40
-6.0
 40
-5.0
 40
-4.0
 40
-3.0
 40
-2.0
 40
-1.0
 40
-0.2482205602640466
 40
-0.2482205602640466
 40
-0.2482205602640466
 40
-0.2482205602640466
 10
0.0000124248346492
 20
875.1545756773023
 30
4.185207900610024
 10
1.43915614254583
 20
875.1416906712984
 30
4.185207900610024
 10
4.181395946908684
 20
876.2897813933607
 30
4.185207900610024
 10
6.976842296494777
 20
879.6146973101974
 30
4.185207900610024
 10
8.766463796434941
 20
883.5212230580538
 30
4.185207900610024
 10
9.820848205572474
 20
887.6785468631176
 30
4.185207900610024
 10
10.27821364455595
 20
891.9382010495962
 30
4.185207900610024
 10
10.15655151787531
 20
895.8681015892869
 30
4.185207900610024
 10
9.762336265932269
 20
898.336306649284
 30
4.185207900610024
 10
9.544738872675175
 20
899.385387844646
 30
4.185207900610024
  0
SPLINE
  5
35A
330
1F
100
AcDbEntity
  8
Default
100
AcDbSpline
210
0.0
220
0.0
230
1.0
 70
     8
 71
     3
 72
    14
 73
    10
 74
     0
 42
0.000000001
 43
0.0000000001
 40
0.2772630823298201
 40
0.2772630823298201
 40
0.2772630823298201
 40
0.2772630823298201
 40
1.0
 40
2.0
 40
3.0
 40
4.0
 40
5.0
 40
6.0
 40
7.0
 40
7.0
 40
7.0
 40
7.0
 10
-9.569715142853462
 20
899.2637592254904
 30
4.185207900610024
 10
-9.775295636640835
 20
898.2544573263673
 30
4.185207900610024
 10
-10.15781070098396
 20
895.8266250735848
 30
4.185207900610024
 10
-10.27818879488665
 20
891.9382010495962
 30
4.185207900610024
 10
-9.820823355903177
 20
887.6785468631176
 30
4.185207900610024
 10
-8.766438946765642
 20
883.5212230580538
 30
4.185207900610024
 10
-6.976817446825477
 20
879.6146973101974
 30
4.185207900610024
 10
-4.181371097239385
 20
876.2897813933607
 30
4.185207900610024
 10
-1.439131292876532
 20
875.1416906712984
 30
4.185207900610024
 10
0.0000124248346492
 20
875.1545756773023
 30
4.185207900610024
  0
ARC
  5
35B
330
1F
100
AcDbEntity
  8
Default
100
AcDbCircle
 10
-22.00874703936845
 20
901.7974137462511
 30
4.185207900610024
 40
12.69444444444444
100
AcDbArc
 50
348.4871521735349
 51
0.9422552251325814
  0
SPLINE
  5
35C
330
1F
100
AcDbEntity
  8
Default
100
AcDbSpline
210
0.0
220
0.0
230
1.0
 70
    12
 71
     2
 72
     6
 73
     3
 74
     0
 42
0.000000001
 43
0.0000000001
 40
0.0
 40
0.0
 40
0.0
 40
0.1369528492222414
 40
0.1369528492222414
 40
0.1369528492222414
 10
-9.333229514817752
 20
905.4834213323591
 30
4.185207900610024
 41
1.0
 10
-9.29693519384347
 20
903.7452897407639
 30
4.185207900610024
 41
0.9999966913238282
 10
-9.316019181688867
 20
902.006170264627
 30
4.185207900610024
 41
0.9999959461296658
  0
SPLINE
  5
35D
330
1F
100
AcDbEntity
  8
Default
100
AcDbSpline
210
0.0
220
0.0
230
1.0
 70
     8
 71
     3
 72
    12
 73
     8
 74
     0
 42
0.000000001
 43
0.0000000001
 40
-1.014583801502342
 40
-1.014583801502342
 40
-1.014583801502342
 40
-1.014583801502342
 40
-0.8249401141264362
 40
-0.5900965017365678
 40
-0.3037660471064116
 40
-0.1510110321465192
 40
0.0
 40
0.0
 40
0.0
 40
0.0
 10
-0.0000001822736018
 20
874.7701343766092
 30
4.185207900610024
 10
1.63379368868706
 20
874.7383099200632
 30
4.185207900610024
 10
5.031264633395214
 20
876.3821015025769
 30
4.185207900610024
 10
8.452362264594505
 20
881.4815808001448
 30
4.185207900610024
 10
9.987179919369594
 20
887.0199961636373
 30
4.185207900610024
 10
10.42417053498043
 20
892.0075880127084
 30
4.185207900610024
 10
10.32693671436452
 20
894.5794787567258
 30
4.185207900610024
 10
10.2021192911157
 20
895.8519758704399
 30
4.185207900610024
  0
SPLINE
  5
35E
330
1F
100
AcDbEntity
  8
Default
100
AcDbSpline
210
0.0
220
0.0
230
1.0
 70
     8
 71
     3
 72
    12
 73
     8
 74
     0
 42
0.000000001
 43
0.0000000001
 40
0.0
 40
0.0
 40
0.0
 40
0.0
 40
0.1510110321465192
 40
0.3037660471064116
 40
0.5900965017365678
 40
0.8249401141264362
 40
1.014583801502342
 40
1.014583801502342
 40
1.014583801502342
 40
1.014583801502342
 10
-10.20211965566327
 20
895.8519758704399
 30
4.185207900610024
 10
-10.32693707891209
 20
894.5794787567258
 30
4.185207900610024
 10
-10.424170899528
 20
892.0075880127084
 30
4.185207900610024
 10
-9.987180283917158
 20
887.0199961636373
 30
4.185207900610024
 10
-8.452362629142069
 20
881.4815808001448
 30
4.185207900610024
 10
-5.031264997942417
 20
876.3821015025769
 30
4.185207900610024
 10
-1.633794053234624
 20
874.7383099200632
 30
4.185207900610024
 10
-0.0000001822736018
 20
874.7701343766092
 30
4.185207900610024
  0
CIRCLE
  5
4B3
330
1F
100
AcDbEntity
  8
Default
100
AcDbCircle
 10
0.0
 20
0.0
 30
0.0
 40
609.4999999999999
  0
CIRCLE
  5
4FA
330
1F
100
AcDbEntity
  8
Default
100
AcDbCircle
 10
-1079.460043659873
 20
-24.87593744283879
 30
4.185207900610024
 40
199.9375
  0
SPLINE
  5
4FB
330
1F
100
AcDbEntity
  8
Default
100
AcDbSpline
210
0.0
220
0.0
230
1.0
 70
     8
 71
     3
 72
    21
 73
    17
 74
     0
 42
0.000000001
 43
0.0000000001
 40
0.0
 40
0.0
 40
0.0
 40
0.0
 40
0.2588469591229587
 40
0.6477254461891114
 40
1.024641027840087
 40
1.817983982162573
 40
2.582167143679937
 40
4.062052734317923
 40
7.850412104674
 40
9.497260537102542
 40
10.543391206404
 40
10.8432833113025
 40
12.15829953678302
 40
13.34949093133962
 40
14.77372714428499
 40
15.46884750610318
 40
15.46884750610318
 40
15.46884750610318
 40
15.46884750610318
 10
-1566.373799062546
 20
302.3586502215709
 30
4.185207900610024
 10
-1564.221699340447
 20
301.8730681267653
 30
4.185207900610024
 10
-1559.347251762218
 20
299.2552574039567
 30
4.185207900610024
 10
-1552.63250616191
 20
293.7495662020713
 30
4.185207900610024
 10
-1543.067792368132
 20
284.6536398183239
 30
4.185207900610024
 10
-1531.800186037848
 20
272.7709368236726
 30
4.185207900610024
 10
-1513.296440752067
 20
254.9211936196269
 30
4.185207900610024
 10
-1475.98653918596
 20
220.0718764370248
 30
4.185207900610024
 10
-1431.403818347943
 20
182.1197009203428
 30
4.185207900610024
 10
-1388.882043243079
 20
147.4855205438602
 30
4.185207900610024
 10
-1369.070685641636
 20
131.701820643462
 30
4.185207900610024
 10
-1351.279280307221
 20
117.8752891463304
 30
4.185207900610024
 10
-1330.382772902805
 20
106.3200635081821
 30
4.185207900610024
 10
-1299.327542518743
 20
94.39170773955652
 30
4.185207900610024
 10
-1272.563788536139
 20
86.00967215107493
 30
4.185207900610024
 10
-1255.137602249411
 20
81.74086215104614
 30
4.185207900610024
 10
-1249.394714194137
 20
80.46736636267723
 30
4.185207900610024
  0
SPLINE
  5
4FC
330
1F
100
AcDbEntity
  8
Default
100
AcDbSpline
210
0.0
220
0.0
230
1.0
 70
     8
 71
     3
 72
    10
 73
     6
 74
     0
 42
0.000000001
 43
0.0000000001
 40
-6.708248473681532
 40
-6.708248473681532
 40
-6.708248473681532
 40
-6.708248473681532
 40
-3.774519558109396
 40
-1.88935509827327
 40
0.0
 40
0.0
 40
0.0
 40
0.0
 10
-1010.370521095535
 20
162.7450682523736
 30
4.185207900610024
 10
-989.4987281428756
 20
176.1846908297642
 30
4.185207900610024
 10
-958.5993623556475
 20
203.5306817257768
 30
4.185207900610024
 10
-926.4391339978699
 20
250.618490614637
 30
4.185207900610024
 10
-913.645401565855
 20
280.0510668882155
 30
4.185207900610024
 10
-908.703135260059
 20
295.2562307938296
 30
4.185207900610024
  0
SPLINE
  5
4FD
330
1F
100
AcDbEntity
  8
Default
100
AcDbSpline
210
0.0
220
0.0
230
1.0
 70
     8
 71
     3
 72
     8
 73
     4
 74
     0
 42
0.000000001
 43
0.0000000001
 40
-14.89017236839833
 40
-14.89017236839833
 40
-14.89017236839833
 40
-14.89017236839833
 40
-14.55234360913006
 40
-14.55234360913006
 40
-14.55234360913006
 40
-14.55234360913006
 10
-1209.594290269661
 20
136.0782597812268
 30
4.185207900610024
 10
-1206.875061123408
 20
135.1939229506306
 30
4.185207900610024
 10
-1204.139136439289
 20
134.36130364215
 30
4.185207900610024
 10
-1201.388505785027
 20
133.5805361707217
 30
4.185207900610024
  0
SPLINE
  5
4FE
330
1F
100
AcDbEntity
  8
Default
100
AcDbSpline
210
0.0
220
0.0
230
1.0
 70
     8
 71
     3
 72
    34
 73
    30
 74
     0
 42
0.000000001
 43
0.0000000001
 40
49.54977648871967
 40
49.54977648871967
 40
49.54977648871967
 40
49.54977648871967
 40
50.0
 40
51.0
 40
52.0
 40
53.0
 40
53.0
 40
53.0
 40
54.0
 40
55.0
 40
56.0
 40
57.0
 40
58.0
 40
59.0
 40
60.0
 40
60.0
 40
60.0
 40
61.0
 40
62.0
 40
63.0
 40
64.0
 40
65.0
 40
66.0
 40
67.0
 40
68.0
 40
69.0
 40
70.0
 40
71.0
 40
72.0
 40
72.0
 40
72.0
 40
72.0
 10
-1245.331777518324
 20
86.75547306980082
 30
4.185207900610024
 10
-1250.210497238871
 20
87.9961234207475
 30
4.185207900610024
 10
-1265.862666638079
 20
92.23589612841852
 30
4.185207900610024
 10
-1291.933930281842
 20
100.643505478606
 30
4.185207900610024
 10
-1323.431190528155
 20
112.3219642121515
 30
4.185207900610024
 10
-1343.031295161457
 20
123.2708240907895
 30
4.185207900610024
 10
-1352.114740363488
 20
129.8026688683119
 30
4.185207900610024
 10
-1361.044574509635
 20
136.1982073386049
 30
4.185207900610024
 10
-1378.841663693959
 20
149.0773457646178
 30
4.185207900610024
 10
-1405.210582700388
 20
168.8405358503548
 30
4.185207900610024
 10
-1431.190375210164
 20
189.1129935900321
 30
4.185207900610024
 10
-1456.715508649595
 20
209.956539148817
 30
4.185207900610024
 10
-1481.695409839619
 20
231.4497041430387
 30
4.185207900610024
 10
-1506.093528194126
 20
253.6063235050024
 30
4.185207900610024
 10
-1521.734485833448
 20
269.0379044610855
 30
4.185207900610024
 10
-1529.440864809737
 20
276.864240039195
 30
4.185207900610024
 10
-1531.025078181526
 20
278.4668254647332
 30
4.185207900610024
 10
-1534.201910230181
 20
281.6638263946079
 30
4.185207900610024
 10
-1539.067497319634
 20
286.3583345693748
 30
4.185207900610024
 10
-1544.093813409926
 20
290.880826905095
 30
4.185207900610024
 10
-1549.369731155683
 20
295.1177131508985
 30
4.185207900610024
 10
-1554.997737623458
 20
298.8661448411782
 30
4.185207900610024
 10
-1561.129764337838
 20
301.8388124783901
 30
4.185207900610024
 10
-1567.892132526664
 20
302.8296695361577
 30
4.185207900610024
 10
-1574.625539005885
 20
301.9146752121768
 30
4.185207900610024
 10
-1581.315138614838
 20
300.9969560185624
 30
4.185207900610024
 10
-1587.922115597808
 20
299.5129682982239
 30
4.185207900610024
 10
-1594.361558703352
 20
297.4426089748762
 30
4.185207900610024
 10
-1603.046466749943
 20
293.2322498867762
 30
4.185207900610024
 10
-1605.148577818941
 20
292.4200934869178
 30
4.185207900610024
  0
SPLINE
  5
4FF
330
1F
100
AcDbEntity
  8
Default
100
AcDbSpline
210
0.0
220
0.0
230
1.0
 70
     8
 71
     3
 72
    12
 73
     8
 74
     0
 42
0.000000001
 43
0.0000000001
 40
36.00001859054296
 40
36.00001859054296
 40
36.00001859054296
 40
36.00001859054296
 40
37.0
 40
38.0
 40
39.0
 40
40.0
 40
40.99791129719946
 40
40.99791129719946
 40
40.99791129719946
 40
40.99791129719946
 10
-893.6617781710767
 20
290.3683131533258
 30
4.185207900610024
 10
-897.0986697374238
 20
279.7294304227313
 30
4.185207900610024
 10
-904.8795132790177
 20
258.743821751929
 30
4.185207900610024
 10
-919.2403792219872
 20
228.3963167810821
 30
4.185207900610024
 10
-936.328010153398
 20
199.4886946228994
 30
4.185207900610024
 10
-956.1877689658636
 20
172.4339816453438
 30
4.185207900610024
 10
-971.2948695659276
 20
155.926170836498
 30
4.185207900610024
 10
-979.3168503886747
 20
148.1741846250098
 30
4.185207900610024
  0
SPLINE
  5
500
330
1F
100
AcDbEntity
  8
Default
100
AcDbSpline
210
0.0
220
0.0
230
1.0
 70
     8
 71
     3
 72
    12
 73
     8
 74
     0
 42
0.000000001
 43
0.0000000001
 40
0.0
 40
0.0
 40
0.0
 40
0.0
 40
1.918305221504867
 40
3.868777778011241
 40
7.624449324857683
 40
11.42846767657462
 40
15.35241906764609
 40
15.35241906764609
 40
15.35241906764609
 40
15.35241906764609
 10
-1371.968487766732
 20
445.7802673054163
 30
4.185207900610024
 10
-1376.997566042046
 20
430.3459570318433
 30
4.185207900610024
 10
-1384.103526596661
 20
398.2216262704998
 30
4.185207900610024
 10
-1385.567885341274
 20
333.4022426246712
 30
4.185207900610024
 10
-1362.774978568299
 20
254.4550125025464
 30
4.185207900610024
 10
-1299.852008378914
 20
177.8300399117155
 30
4.185207900610024
 10
-1241.162870253466
 20
146.3349431789463
 30
4.185207900610024
 10
-1209.594290269661
 20
136.0782597812268
 30
4.185207900610024
  0
SPLINE
  5
501
330
1F
100
AcDbEntity
  8
Default
100
AcDbSpline
210
0.0
220
0.0
230
1.0
 70
     8
 71
     3
 72
    47
 73
    43
 74
     0
 42
0.000000001
 43
0.0000000001
 40
36.00001859054296
 40
36.00001859054296
 40
36.00001859054296
 40
36.00001859054296
 40
37.0
 40
38.0
 40
39.0
 40
40.0
 40
41.0
 40
42.0
 40
43.0
 40
44.0
 40
45.0
 40
46.0
 40
47.0
 40
48.0
 40
49.0
 40
50.0
 40
51.0
 40
52.0
 40
53.0
 40
53.0
 40
53.0
 40
54.0
 40
55.0
 40
56.0
 40
57.0
 40
58.0
 40
59.0
 40
60.0
 40
60.0
 40
60.0
 40
61.0
 40
62.0
 40
63.0
 40
64.0
 40
65.0
 40
66.0
 40
67.0
 40
68.0
 40
69.0
 40
70.0
 40
71.0
 40
72.0
 40
72.0
 40
72.0
 40
72.0
 10
-893.6617781710767
 20
290.3683131533258
 30
4.185207900610024
 10
-890.1889034861628
 20
300.995504259966
 30
4.185207900610024
 10
-884.1487068548063
 20
322.5466833960914
 30
4.185207900610024
 10
-877.9290755908727
 20
355.5394358658114
 30
4.185207900610024
 10
-874.7617854245682
 20
388.970050916851
 30
4.185207900610024
 10
-874.9264211398539
 20
422.5544294328362
 30
4.185207900610024
 10
-878.7124331766969
 20
455.9413367150715
 30
4.185207900610024
 10
-886.5681947357579
 20
488.6095488468832
 30
4.185207900610024
 10
-898.1779781529269
 20
520.1473211816606
 30
4.185207900610024
 10
-913.8346516684878
 20
549.8916286187445
 30
4.185207900610024
 10
-933.1368799937962
 20
577.4072100430714
 30
4.185207900610024
 10
-956.0569942848559
 20
602.0254025113265
 30
4.185207900610024
 10
-982.4459510986827
 20
622.8691617572685
 30
4.185207900610024
 10
-1011.175891134014
 20
640.2668274731402
 30
4.185207900610024
 10
-1041.326724733989
 20
655.0172834941022
 30
4.185207900610024
 10
-1072.477858203535
 20
667.5227576812922
 30
4.185207900610024
 10
-1104.353273669743
 20
677.9574042261847
 30
4.185207900610024
 10
-1136.699518298345
 20
687.0229577030406
 30
4.185207900610024
 10
-1158.991914404294
 20
689.6857964390371
 30
4.185207900610024
 10
-1170.179897970702
 20
689.7405381391632
 30
4.185207900610024
 10
-1181.163488745192
 20
689.8152636450397
 30
4.185207900610024
 10
-1203.13180397476
 20
689.8566883417677
 30
4.185207900610024
 10
-1236.081219244907
 20
689.3671934102173
 30
4.185207900610024
 10
-1269.015164582756
 20
688.2369694759354
 30
4.185207900610024
 10
-1301.916960003884
 20
686.377483894345
 30
4.185207900610024
 10
-1334.759489993113
 20
683.6719656743346
 30
4.185207900610024
 10
-1367.5213164743
 20
680.0877382250744
 30
4.185207900610024
 10
-1389.245572718353
 20
676.7968512136554
 30
4.185207900610024
 10
-1400.080368907569
 20
674.9949086381225
 30
4.185207900610024
 10
-1402.304000526733
 20
674.6295670503471
 30
4.185207900610024
 10
-1406.753261640515
 20
673.9104339942548
 30
4.185207900610024
 10
-1413.448966955389
 20
672.9724174355617
 30
4.185207900610024
 10
-1420.173596390077
 20
672.2680387502678
 30
4.185207900610024
 10
-1426.932282758244
 20
671.9414324174433
 30
4.185207900610024
 10
-1433.688708501898
 20
672.2169466793184
 30
4.185207900610024
 10
-1440.396912520912
 20
673.4163229115613
 30
4.185207900610024
 10
-1446.450194473579
 20
676.5895230047951
 30
4.185207900610024
 10
-1451.359814575736
 20
681.2875659888288
 30
4.185207900610024
 10
-1456.23239253719
 20
685.9620644064104
 30
4.185207900610024
 10
-1460.705283101259
 20
691.0461193244341
 30
4.185207900610024
 10
-1464.697975330745
 20
696.5060848919002
 30
4.185207900610024
 10
-1469.24942655618
 20
705.0171978138962
 30
4.185207900610024
 10
-1470.472696580671
 20
706.9098360285099
 30
4.185207900610024
  0
SPLINE
  5
502
330
1F
100
AcDbEntity
  8
Default
100
AcDbSpline
210
0.0
220
0.0
230
1.0
 70
     8
 71
     3
 72
    12
 73
     8
 74
     0
 42
0.000000001
 43
0.0000000001
 40
-14.89017236839833
 40
-14.89017236839833
 40
-14.89017236839833
 40
-14.89017236839833
 40
-11.21816917573749
 40
-7.516682162771167
 40
-3.774519558109396
 40
-1.88935509827327
 40
0.0
 40
0.0
 40
0.0
 40
0.0
 10
-1058.567131586862
 20
600.8920597256331
 30
4.185207900610024
 10
-1029.005536065318
 20
591.2956728251089
 30
4.185207900610024
 10
-973.6523544419831
 20
559.7716526090116
 30
4.185207900610024
 10
-915.5179551941058
 20
483.4338599390325
 30
4.185207900610024
 10
-894.9555345775534
 20
405.6598261366246
 30
4.185207900610024
 10
-896.8148565961429
 20
341.792641474645
 30
4.185207900610024
 10
-903.7645439077397
 20
310.461219835769
 30
4.185207900610024
 10
-908.7035375780338
 20
295.2549925864218
 30
4.185207900610024
  0
SPLINE
  5
503
330
1F
100
AcDbEntity
  8
Default
100
AcDbSpline
210
0.0
220
0.0
230
1.0
 70
     8
 71
     3
 72
    12
 73
     8
 74
     0
 42
0.000000001
 43
0.0000000001
 40
0.0
 40
0.0
 40
0.0
 40
0.0
 40
1.918305221504867
 40
3.868777778011241
 40
7.624449324857683
 40
11.42846767657462
 40
15.35241906764609
 40
15.35241906764609
 40
15.35241906764609
 40
15.35241906764609
 10
-1371.968889438077
 20
445.7790310881295
 30
4.185207900610024
 10
-1366.965439270736
 20
461.22166843876
 30
4.185207900610024
 10
-1353.832074259494
 20
491.3875767749831
 30
4.185207900610024
 10
-1316.916887600041
 20
544.6882881835174
 30
4.185207900610024
 10
-1252.073021094376
 20
595.1606045531141
 30
4.185207900610024
 10
-1156.12824002841
 20
620.166315664851
 30
4.185207900610024
 10
-1090.135376520658
 20
611.1497743012505
 30
4.185207900610024
 10
-1058.567131586862
 20
600.8920597256331
 30
4.185207900610024
  0
SPLINE
  5
504
330
1F
100
AcDbEntity
  8
Default
100
AcDbSpline
210
0.0
220
0.0
230
1.0
 70
    12
 71
     2
 72
     6
 73
     3
 74
     0
 42
0.000000001
 43
0.0000000001
 40
0.0
 40
0.0
 40
0.0
 40
1.278324852146924
 40
1.278324852146924
 40
1.278324852146924
 10
-865.7907585187706
 20
271.4618460663905
 30
4.185207900610024
 41
1.0
 10
-881.2784961075713
 20
276.3059929231252
 30
4.185207900610024
 41
0.9999999996076647
 10
-896.7663271517402
 20
281.1498409736386
 30
4.185207900610024
 41
0.9999999993083845
  0
SPLINE
  5
505
330
1F
100
AcDbEntity
  8
Default
100
AcDbSpline
210
0.0
220
0.0
230
1.0
 70
     8
 71
     3
 72
    14
 73
    10
 74
     0
 42
0.000000001
 43
0.0000000001
 40
0.0
 40
0.0
 40
0.0
 40
0.0
 40
1.0
 40
2.0
 40
3.0
 40
4.0
 40
5.0
 40
6.0
 40
7.0
 40
7.0
 40
7.0
 40
7.0
 10
-859.9052500037725
 20
289.2568922861815
 30
4.185207900610024
 10
-858.2158688188714
 20
288.6799518048986
 30
4.185207900610024
 10
-855.172448405707
 20
287.1492450889476
 30
4.185207900610024
 10
-851.4417538100987
 20
283.6470029317323
 30
4.185207900610024
 10
-849.4371190669761
 20
278.7405360443595
 30
4.185207900610024
 10
-851.1912517810452
 20
273.6193513855454
 30
4.185207900610024
 10
-855.7478842448913
 20
270.9312252743334
 30
4.185207900610024
 10
-860.830535653271
 20
270.3557268150916
 30
4.185207900610024
 10
-864.1864054846283
 20
270.9413568418509
 30
4.185207900610024
 10
-865.7907585187706
 20
271.4618460663905
 30
4.185207900610024
  0
SPLINE
  5
506
330
1F
100
AcDbEntity
  8
Default
100
AcDbSpline
210
0.0
220
0.0
230
1.0
 70
    12
 71
     2
 72
     6
 73
     3
 74
     0
 42
0.000000001
 43
0.0000000001
 40
-1.281345128275034
 40
-1.281345128275034
 40
-1.281345128275034
 40
0.0
 40
0.0
 40
0.0
 10
-890.752599285113
 20
299.6588994087708
 30
4.185207900610024
 41
0.9999999993069707
 10
-875.3296215057449
 20
294.4580083388884
 30
4.185207900610024
 41
0.9999999996067375
 10
-859.9052500037725
 20
289.2568922861815
 30
4.185207900610024
 41
1.0
  0
SPLINE
  5
507
330
1F
100
AcDbEntity
  8
Default
100
AcDbSpline
210
0.0
220
0.0
230
1.0
 70
    12
 71
     2
 72
     6
 73
     3
 74
     0
 42
0.000000001
 43
0.0000000001
 40
0.0
 40
0.0
 40
0.0
 40
1.112498698414412
 40
1.112498698414412
 40
1.112498698414412
 10
-1071.893117521043
 20
705.1440627509357
 30
4.185207900610024
 41
1.0
 10
-1076.108874622003
 20
691.6654169441906
 30
4.185207900610024
 41
0.9999999996585591
 10
-1080.324405411775
 20
678.1867003554916
 30
4.185207900610024
 41
0.9999999993875963
  0
SPLINE
  5
508
330
1F
100
AcDbEntity
  8
Default
100
AcDbSpline
210
0.0
220
0.0
230
1.0
 70
     8
 71
     3
 72
    14
 73
    10
 74
     0
 42
0.000000001
 43
0.0000000001
 40
0.0
 40
0.0
 40
0.0
 40
0.0
 40
1.0
 40
2.0
 40
3.0
 40
4.0
 40
5.0
 40
6.0
 40
7.0
 40
7.0
 40
7.0
 40
7.0
 10
-1089.688163740835
 20
711.0295712659337
 30
4.185207900610024
 10
-1089.111223259552
 20
712.7189524508346
 30
4.185207900610024
 10
-1087.580516543601
 20
715.7623728639994
 30
4.185207900610024
 10
-1084.078274386385
 20
719.4930674596077
 30
4.185207900610024
 10
-1079.171807499013
 20
721.4977022027303
 30
4.185207900610024
 10
-1074.050622840198
 20
719.743569488661
 30
4.185207900610024
 10
-1071.362496728986
 20
715.186937024815
 30
4.185207900610024
 10
-1070.786998269745
 20
710.1042856164351
 30
4.185207900610024
 10
-1071.372628296504
 20
706.7484157850777
 30
4.185207900610024
 10
-1071.893117521043
 20
705.1440627509357
 30
4.185207900610024
  0
SPLINE
  5
509
330
1F
100
AcDbEntity
  8
Default
100
AcDbSpline
210
0.0
220
0.0
230
1.0
 70
    12
 71
     2
 72
     6
 73
     3
 74
     0
 42
0.000000001
 43
0.0000000001
 40
-1.102413928352738
 40
-1.102413928352738
 40
-1.102413928352738
 40
0.0
 40
0.0
 40
0.0
 10
-1098.637627797103
 20
684.4896786915057
 30
4.185207900610024
 41
0.9999999993925147
 10
-1094.162979036608
 20
697.7591091525619
 30
4.185207900610024
 41
0.9999999996616539
 10
-1089.688163740835
 20
711.0295712659337
 30
4.185207900610024
 41
1.0
  0
SPLINE
  5
50A
330
1F
100
AcDbEntity
  8
Default
100
AcDbSpline
210
0.0
220
0.0
230
1.0
 70
    12
 71
     2
 72
     6
 73
     3
 74
     0
 42
0.000000001
 43
0.0000000001
 40
0.0
 40
0.0
 40
0.0
 40
5.654573080352872
 40
5.654573080352872
 40
5.654573080352872
 10
-1590.157443998062
 20
516.6722365297489
 30
4.185207900610024
 41
1.0
 10
-1612.238893108711
 20
448.2077261867547
 30
4.185207900610024
 41
0.9967681786255456
 10
-1623.07106461131
 20
377.0911454643083
 30
4.185207900610024
 41
1.0
  0
SPLINE
  5
50B
330
1F
100
AcDbEntity
  8
Default
100
AcDbSpline
210
0.0
220
0.0
230
1.0
 70
    12
 71
     2
 72
     6
 73
     3
 74
     0
 42
0.000000001
 43
0.0000000001
 40
-5.654573080352872
 40
-5.654573080352872
 40
-5.654573080352872
 40
0.0
 40
0.0
 40
0.0
 10
-1534.741415593431
 20
648.9418520911047
 30
4.185207900610024
 41
1.0
 10
-1567.779282103965
 20
585.0403390452767
 30
4.185207900610024
 41
0.9967681786255456
 10
-1590.157443998062
 20
516.6722365297489
 30
4.185207900610024
 41
1.0
  0
SPLINE
  5
50C
330
1F
100
AcDbEntity
  8
Default
100
AcDbSpline
210
0.0
220
0.0
230
1.0
 70
    12
 71
     2
 72
     6
 73
     3
 74
     0
 42
0.000000001
 43
0.0000000001
 40
0.0
 40
0.0
 40
0.0
 40
0.443505275079806
 40
0.443505275079806
 40
0.443505275079806
 10
-1478.41668784888
 20
714.9855939771428
 30
4.185207900610024
 41
1.0
 10
-1473.570366374618
 20
711.7025376486733
 30
4.185207900610024
 41
0.9799943751373794
 10
-1470.472696580671
 20
706.9098360285099
 30
4.185207900610024
 41
1.0
  0
SPLINE
  5
50D
330
1F
100
AcDbEntity
  8
Default
100
AcDbSpline
210
0.0
220
0.0
230
1.0
 70
     8
 71
     3
 72
    12
 73
     8
 74
     0
 42
0.000000001
 43
0.0000000001
 40
0.0
 40
0.0
 40
0.0
 40
0.0
 40
0.8495817757806477
 40
1.391422022197968
 40
2.191064820612614
 40
2.689385262996221
 40
3.111933853859593
 40
3.111933853859593
 40
3.111933853859593
 40
3.111933853859593
 10
-1527.952086366334
 20
662.1772138066615
 30
4.185207900610024
 10
-1524.547850983989
 20
668.540196394649
 30
4.185207900610024
 10
-1519.277609816598
 20
679.0124612379614
 30
4.185207900610024
 10
-1509.997062795149
 20
695.1344519252334
 30
4.185207900610024
 10
-1501.510583718015
 20
708.1423683282387
 30
4.185207900610024
 10
-1490.18394468225
 20
717.9560524146438
 30
4.185207900610024
 10
-1481.41677379356
 20
717.1283294477559
 30
4.185207900610024
 10
-1478.41668784888
 20
714.9855939771428
 30
4.185207900610024
  0
SPLINE
  5
50E
330
1F
100
AcDbEntity
  8
Default
100
AcDbSpline
210
0.0
220
0.0
230
1.0
 70
    12
 71
     2
 72
     6
 73
     3
 74
     0
 42
0.000000001
 43
0.0000000001
 40
-6.233889429224446
 40
-6.233889429224446
 40
-6.233889429224446
 40
0.0
 40
0.0
 40
0.0
 10
-1588.525596859911
 20
516.1420172533221
 30
4.185207900610024
 41
1.0
 10
-1564.157848888825
 20
591.6149720285975
 30
4.185207900610024
 41
0.996730330589404
 10
-1527.952086366334
 20
662.1772138066615
 30
4.185207900610024
 41
1.0
  0
SPLINE
  5
50F
330
1F
100
AcDbEntity
  8
Default
100
AcDbSpline
210
0.0
220
0.0
230
1.0
 70
    12
 71
     2
 72
     6
 73
     3
 74
     0
 42
0.000000001
 43
0.0000000001
 40
0.0
 40
0.0
 40
0.0
 40
6.233889429224446
 40
6.233889429224446
 40
6.233889429224446
 10
-1625.357568827407
 20
362.393964005604
 30
4.185207900610024
 41
0.9999999519924591
 10
-1613.17338285732
 20
440.7606665565013
 30
4.185207900610024
 41
0.9967303545933507
 10
-1588.525596859911
 20
516.1420172533221
 30
4.185207900610024
 41
1.0
  0
SPLINE
  5
510
330
1F
100
AcDbEntity
  8
Default
100
AcDbSpline
210
0.0
220
0.0
230
1.0
 70
     8
 71
     3
 72
    12
 73
     8
 74
     0
 42
0.000000001
 43
0.0000000001
 40
-3.111933853859593
 40
-3.111933853859593
 40
-3.111933853859593
 40
-3.111933853859593
 40
-2.689379093202719
 40
-2.191051374651839
 40
-1.391396900347014
 40
-0.8495487423131249
 40
0.0
 40
0.0
 40
0.0
 40
0.0
 10
-1616.322213181378
 20
290.5560289758079
 30
4.185207900610024
 10
-1620.0088020044
 20
290.5859258395247
 30
4.185207900610024
 10
-1627.58811559886
 20
295.0694976453779
 30
4.185207900610024
 10
-1630.983220291298
 20
309.6665662319694
 30
4.185207900610024
 10
-1630.203064662367
 20
325.1784189088373
 30
4.185207900610024
 10
-1628.234957371311
 20
343.6759684239024
 30
4.185207900610024
 10
-1626.343311942878
 20
355.2456066385015
 30
4.185207900610024
 10
-1625.357568827407
 20
362.3939640056039
 30
4.185207900610024
  0
SPLINE
  5
511
330
1F
100
AcDbEntity
  8
Default
100
AcDbSpline
210
0.0
220
0.0
230
1.0
 70
    12
 71
     2
 72
     6
 73
     3
 74
     0
 42
0.000000001
 43
0.0000000001
 40
-0.443505275079806
 40
-0.443505275079806
 40
-0.443505275079806
 40
0.0
 40
0.0
 40
0.0
 10
-1605.148577818941
 20
292.4200934869171
 30
4.185207900610024
 41
1.0
 10
-1610.471724656176
 20
290.3634810485899
 30
4.185207900610024
 41
0.9799943751373794
 10
-1616.322213181378
 20
290.5560289758079
 30
4.185207900610024
 41
1.0
  0
SPLINE
  5
512
330
1F
100
AcDbEntity
  8
Default
100
AcDbSpline
210
0.0
220
0.0
230
1.0
 70
     8
 71
     3
 72
    19
 73
    15
 74
     0
 42
0.000000001
 43
0.0000000001
 40
0.0
 40
0.0
 40
0.0
 40
0.0
 40
1.0
 40
2.0
 40
3.0
 40
4.0
 40
5.0
 40
6.0
 40
7.0
 40
8.0
 40
9.0
 40
10.0
 40
11.0
 40
12.0
 40
12.0
 40
12.0
 40
12.0
 10
-1575.783937088268
 20
512.0020010308171
 30
4.185207900610024
 10
-1577.739176113192
 20
505.9817496368772
 30
4.185207900610024
 10
-1581.585057127437
 20
493.9202042479073
 30
4.185207900610024
 10
-1587.125265756791
 20
475.7564802543477
 30
4.185207900610024
 10
-1592.401531626549
 20
457.5142044541187
 30
4.185207900610024
 10
-1597.378069081695
 20
439.1876904237006
 30
4.185207900610024
 10
-1602.018265397443
 20
420.7731759244249
 30
4.185207900610024
 10
-1606.286407060733
 20
402.2679466950643
 30
4.185207900610024
 10
-1610.13645381986
 20
383.673660909133
 30
4.185207900610024
 10
-1613.551581423128
 20
364.9849204279
 30
4.185207900610024
 10
-1616.396636202041
 20
346.2338467977356
 30
4.185207900610024
 10
-1618.961470125033
 20
327.32429280801
 30
4.185207900610024
 10
-1620.196893856511
 20
308.6863672167953
 30
4.185207900610024
 10
-1620.290489217871
 20
295.2411588603886
 30
4.185207900610024
 10
-1616.178412776929
 20
290.5470585768613
 30
4.185207900610024
  0
SPLINE
  5
513
330
1F
100
AcDbEntity
  8
Default
100
AcDbSpline
210
0.0
220
0.0
230
1.0
 70
     8
 71
     3
 72
    19
 73
    15
 74
     0
 42
0.000000001
 43
0.0000000001
 40
-12.0
 40
-12.0
 40
-12.0
 40
-12.0
 40
-11.0
 40
-10.0
 40
-9.0
 40
-8.0
 40
-7.0
 40
-6.0
 40
-5.0
 40
-4.0
 40
-3.0
 40
-2.0
 40
-1.0
 40
0.0
 40
0.0
 40
0.0
 40
0.0
 10
-1478.295805177547
 20
714.906090048275
 30
4.185207900610024
 10
-1484.381667819877
 20
713.5255010338863
 30
4.185207900610024
 10
-1492.208842767837
 20
702.5930850075505
 30
4.185207900610024
 10
-1502.164461769658
 20
686.7885226146679
 30
4.185207900610024
 10
-1511.204224500797
 20
669.9828005264143
 30
4.185207900610024
 10
-1519.924131379189
 20
653.1405820558261
 30
4.185207900610024
 10
-1528.146201148977
 20
636.0137117631479
 30
4.185207900610024
 10
-1535.960894853588
 20
618.7076178584138
 30
4.185207900610024
 10
-1543.384996544896
 20
601.2278222026807
 30
4.185207900610024
 10
-1550.45477891902
 20
583.6027280674641
 30
4.185207900610024
 10
-1557.200730217674
 20
565.8511314455886
 30
4.185207900610024
 10
-1563.654682145826
 20
547.9915090417107
 30
4.185207900610024
 10
-1569.848928302421
 20
530.0402947228276
 30
4.185207900610024
 10
-1573.827143703046
 20
518.0217473824816
 30
4.185207900610024
 10
-1575.783937088268
 20
512.0020010308171
 30
4.185207900610024
  0
SPLINE
  5
514
330
1F
100
AcDbEntity
  8
Default
100
AcDbSpline
210
0.0
220
0.0
230
1.0
 70
     8
 71
     3
 72
    22
 73
    18
 74
     0
 42
0.000000001
 43
0.0000000001
 40
0.0
 40
0.0
 40
0.0
 40
0.0
 40
0.2588469591229587
 40
0.6477254461891114
 40
1.024641027840087
 40
1.817983982162573
 40
2.582167143679937
 40
4.062052734317923
 40
7.850412104674
 40
9.497260537102542
 40
10.543391206404
 40
10.8432833113025
 40
12.15829953678302
 40
13.34949093133962
 40
14.77372714428499
 40
17.25709974516987
 40
21.82793658798906
 40
21.82793658798906
 40
21.82793658798906
 40
21.82793658798906
 10
-1444.94497869132
 20
676.0781316167038
 30
4.185207900610024
 10
-1442.918475448449
 20
675.2060033054531
 30
4.185207900610024
 10
-1437.436253983311
 20
674.4587282687062
 30
4.185207900610024
 10
-1428.767746587613
 20
674.9660975800552
 30
4.185207900610024
 10
-1415.683279197809
 20
676.7028588937091
 30
4.185207900610024
 10
-1399.583116613055
 20
679.6932347259139
 30
4.185207900610024
 10
-1374.121456404728
 20
683.2577517320576
 30
4.185207900610024
 10
-1323.453197286894
 20
689.521231670104
 30
4.185207900610024
 10
-1265.077289412343
 20
694.0201208209414
 30
4.185207900610024
 10
-1210.318990270984
 20
697.0460890238266
 30
4.185207900610024
 10
-1185.013839261713
 20
698.1705466513426
 30
4.185207900610024
 10
-1162.493258687988
 20
698.8989199326563
 30
4.185207900610024
 10
-1138.795637857717
 20
695.9646349710185
 30
4.185207900610024
 10
-1106.660117107887
 20
687.3610710764905
 30
4.185207900610024
 10
-1065.723730683483
 20
673.5763658137443
 30
4.185207900610024
 10
-1000.665085002446
 20
642.8391889099903
 30
4.185207900610024
 10
-954.1440125391083
 20
603.8651221854479
 30
4.185207900610024
 10
-930.572127014325
 20
573.0836326338551
 30
4.185207900610024
  0
SPLINE
  5
515
330
1F
100
AcDbEntity
  8
Default
100
AcDbSpline
210
0.0
220
0.0
230
1.0
 70
    12
 71
     2
 72
     6
 73
     3
 74
     0
 42
0.000000001
 43
0.0000000001
 40
0.0
 40
0.0
 40
0.0
 40
0.0586712320260919
 40
0.0586712320260919
 40
0.0586712320260919
 10
-832.2588638301514
 20
270.4172968801823
 30
4.185207900610024
 41
1.0
 10
-832.4912850772852
 20
269.7055502570937
 30
4.185207900610024
 41
0.9921343149382712
 10
-832.893210752881
 20
269.0738393715662
 30
4.185207900610024
 41
1.0
  0
SPLINE
  5
516
330
1F
100
AcDbEntity
  8
Default
100
AcDbSpline
210
0.0
220
0.0
230
1.0
 70
    24
 71
     2
 72
     6
 73
     3
 74
     0
 42
0.000000001
 43
0.0000000001
 40
0.0
 40
0.0
 40
0.0
 40
0.0114467396849787
 40
0.0114467396849787
 40
0.0114467396849787
 10
-832.2588638301514
 20
270.4172968801823
 30
4.185207900610024
 10
-832.1206657865777
 20
270.3723936827094
 30
4.185207900610024
 10
-831.9824677430037
 20
270.3274904852364
 30
4.185207900610024
  0
SPLINE
  5
517
330
1F
100
AcDbEntity
  8
Default
100
AcDbSpline
210
0.0
220
0.0
230
1.0
 70
    12
 71
     2
 72
     6
 73
     3
 74
     0
 42
0.000000001
 43
0.0000000001
 40
0.0
 40
0.0
 40
0.0
 40
0.0587632096241838
 40
0.0587632096241838
 40
0.0587632096241838
 10
-831.9822478226384
 20
271.8793818400832
 30
4.185207900610024
 41
1.0
 10
-832.0281790882106
 20
271.1308699174165
 30
4.185207900610024
 41
0.9921107855315545
 10
-832.2588592665507
 20
270.4173109255649
 30
4.185207900610024
 41
1.0
  0
SPLINE
  5
518
330
1F
100
AcDbEntity
  8
Default
100
AcDbSpline
210
0.0
220
0.0
230
1.0
 70
    12
 71
     2
 72
     6
 73
     3
 74
     0
 42
0.000000001
 43
0.0000000001
 40
-0.1297405451143296
 40
-0.1297405451143296
 40
-0.1297405451143296
 40
0.0
 40
0.0
 40
0.0
 10
-1088.051230370533
 20
715.7694298303431
 30
4.185207900610024
 41
0.9999960316975588
 10
-1088.58804543451
 20
714.2123852223654
 30
4.185207900610024
 41
0.999996865512317
 10
-1089.12958146323
 20
712.6569762556482
 30
4.185207900610024
 41
1.0
  0
ARC
  5
519
330
1F
100
AcDbEntity
  8
Default
100
AcDbCircle
 10
-1100.052445248819
 20
719.9070331460664
 30
4.185207900610024
 40
12.69444444444444
100
AcDbArc
 50
340.9775798079559
 51
353.7179678781667
  0
SPLINE
  5
51A
330
1F
100
AcDbEntity
  8
Default
100
AcDbSpline
210
0.0
220
0.0
230
1.0
 70
     8
 71
     3
 72
    14
 73
    10
 74
     0
 42
0.000000001
 43
0.0000000001
 40
-7.0
 40
-7.0
 40
-7.0
 40
-7.0
 40
-6.0
 40
-5.0
 40
-4.0
 40
-3.0
 40
-2.0
 40
-1.0
 40
-0.2482205602640466
 40
-0.2482205602640466
 40
-0.2482205602640466
 40
-0.2482205602640466
 10
-1070.868919860655
 20
738.6133631457728
 30
4.185207900610024
 10
-1072.233645185441
 20
739.0703373808158
 30
4.185207900610024
 10
-1075.196449764827
 20
738.8258369205003
 30
4.185207900610024
 10
-1078.882532754724
 20
736.5274944005443
 30
4.185207900610024
 10
-1081.791746788995
 20
733.3651910889511
 30
4.185207900610024
 10
-1084.07920965887
 20
729.7371638948241
 30
4.185207900610024
 10
-1085.830495573725
 20
725.827325716895
 30
4.185207900610024
 10
-1086.929194068327
 20
722.0521725355145
 30
4.185207900610024
 10
-1087.316990393285
 20
719.582950817359
 30
4.185207900610024
 10
-1087.434226892346
 20
718.5179740179393
 30
4.185207900610024
  0
SPLINE
  5
51B
330
1F
100
AcDbEntity
  8
Default
100
AcDbSpline
210
0.0
220
0.0
230
1.0
 70
     8
 71
     3
 72
    14
 73
    10
 74
     0
 42
0.000000001
 43
0.0000000001
 40
0.2772630823298201
 40
0.2772630823298201
 40
0.2772630823298201
 40
0.2772630823298201
 40
1.0
 40
2.0
 40
3.0
 40
4.0
 40
5.0
 40
6.0
 40
7.0
 40
7.0
 40
7.0
 40
7.0
 10
-1069.217715535131
 20
712.7269585797582
 30
4.185207900610024
 10
-1068.710305427608
 20
713.6233338615364
 30
4.185207900610024
 10
-1067.596270557481
 20
715.8141358905298
 30
4.185207900610024
 10
-1066.280195082108
 20
719.4750480198968
 30
4.185207900610024
 10
-1065.398869929399
 20
723.667553584397
 30
4.185207900610024
 10
-1065.116965385505
 20
727.947226180579
 30
4.185207900610024
 10
-1065.611813729674
 20
732.2155764061328
 30
4.185207900610024
 10
-1067.242985673231
 20
736.2415997838596
 30
4.185207900610024
 10
-1069.496231164213
 20
738.1808976485747
 30
4.185207900610024
 10
-1070.868919860655
 20
738.6133631457728
 30
4.185207900610024
  0
ARC
  5
51C
330
1F
100
AcDbEntity
  8
Default
100
AcDbCircle
 10
-1058.170435498337
 20
706.4734376881531
 30
4.185207900610024
 40
12.69444444444444
100
AcDbArc
 50
150.487152173535
 51
162.9422552251326
  0
SPLINE
  5
51D
330
1F
100
AcDbEntity
  8
Default
100
AcDbSpline
210
0.0
220
0.0
230
1.0
 70
    12
 71
     2
 72
     6
 73
     3
 74
     0
 42
0.000000001
 43
0.0000000001
 40
0.0
 40
0.0
 40
0.0
 40
0.1369528492222414
 40
0.1369528492222414
 40
0.1369528492222414
 10
-1071.364608022977
 20
706.8847864818553
 30
4.185207900610024
 41
1.0
 10
-1070.862013773181
 20
708.5490634202001
 30
4.185207900610024
 41
0.9999966913238282
 10
-1070.306446348809
 20
710.1971670540322
 30
4.185207900610024
 41
0.9999959461296658
  0
SPLINE
  5
51E
330
1F
100
AcDbEntity
  8
Default
100
AcDbSpline
210
0.0
220
0.0
230
1.0
 70
     8
 71
     3
 72
    12
 73
     8
 74
     0
 42
0.000000001
 43
0.0000000001
 40
-1.014583801502342
 40
-1.014583801502342
 40
-1.014583801502342
 40
-1.014583801502342
 40
-0.8249401141264362
 40
-0.5900965017365678
 40
-0.3037660471064116
 40
-0.1510110321465192
 40
0.0
 40
0.0
 40
0.0
 40
0.0
 10
-1070.750108975329
 20
738.9789846541193
 30
4.185207900610024
 10
-1072.29410498468
 20
739.5141215823273
 30
4.185207900610024
 10
-1076.033251399775
 20
739.0006591461558
 30
4.185207900610024
 10
-1080.862734360221
 20
735.2079434379488
 30
4.185207900610024
 10
-1084.033897161346
 20
730.4148821551421
 30
4.185207900610024
 10
-1085.990750576251
 20
725.8064379530686
 30
4.185207900610024
 10
-1086.693033665127
 20
723.3303775987733
 30
4.185207900610024
 10
-1086.96754847483
 20
722.0815902218308
 30
4.185207900610024
  0
SPLINE
  5
51F
330
1F
100
AcDbEntity
  8
Default
100
AcDbSpline
210
0.0
220
0.0
230
1.0
 70
     8
 71
     3
 72
    12
 73
     8
 74
     0
 42
0.000000001
 43
0.0000000001
 40
0.0
 40
0.0
 40
0.0
 40
0.0
 40
0.1510110321465192
 40
0.3037660471064116
 40
0.5900965017365678
 40
0.8249401141264362
 40
1.014583801502342
 40
1.014583801502342
 40
1.014583801502342
 40
1.014583801502342
 10
-1067.561964064453
 20
715.7763336299888
 30
4.185207900610024
 10
-1067.050032407295
 20
716.9479795969755
 30
4.185207900610024
 10
-1066.162799601016
 20
719.3639461452741
 30
4.185207900610024
 10
-1065.037151731184
 20
724.2424654005599
 30
4.185207900610024
 10
-1064.785385593856
 20
729.9840961605509
 30
4.185207900610024
 10
-1066.463217023478
 20
735.8911664836707
 30
4.185207900610024
 10
-1069.186444370159
 20
738.5043814394621
 30
4.185207900610024
 10
-1070.750108975329
 20
738.9789846541193
 30
4.185207900610024
  0
SPLINE
  5
520
330
1F
100
AcDbEntity
  8
Default
100
AcDbSpline
210
0.0
220
0.0
230
1.0
 70
    12
 71
     2
 72
     6
 73
     3
 74
     0
 42
0.000000001
 43
0.0000000001
 40
0.0
 40
0.0
 40
0.0
 40
0.0853474550214741
 40
0.0853474550214741
 40
0.0853474550214741
 10
-1086.76407681623
 20
722.95105853077
 30
4.185207900610024
 41
1.0
 10
-1086.502096332599
 20
724.0027950345247
 30
4.185207900610024
 41
0.9993970637774639
 10
-1086.167758016018
 20
725.0338145965108
 30
4.185207900610024
 41
1.0
  0
SPLINE
  5
521
330
1F
100
AcDbEntity
  8
Default
100
AcDbSpline
210
0.0
220
0.0
230
1.0
 70
    12
 71
     2
 72
     6
 73
     3
 74
     0
 42
0.000000001
 43
0.0000000001
 40
0.0
 40
0.0
 40
0.0
 40
0.0853474550214741
 40
0.0853474550214741
 40
0.0853474550214741
 10
-847.9837627389363
 20
286.3328053615766
 30
4.185207900610024
 41
1.0
 10
-846.9320262351818
 20
286.0708248779454
 30
4.185207900610024
 41
0.9993970637774639
 10
-845.9010066731952
 20
285.7364865613646
 30
4.185207900610024
 41
1.0
  0
SPLINE
  5
522
330
1F
100
AcDbEntity
  8
Default
100
AcDbSpline
210
0.0
220
0.0
230
1.0
 70
    12
 71
     2
 72
     6
 73
     3
 74
     0
 42
0.000000001
 43
0.0000000001
 40
-0.1297405451143296
 40
-0.1297405451143296
 40
-0.1297405451143296
 40
0.0
 40
0.0
 40
0.0
 10
-855.1653914393629
 20
287.6199589158797
 30
4.185207900610024
 41
0.9999960316975588
 10
-856.7224360473407
 20
288.1567739798574
 30
4.185207900610024
 41
0.999996865512317
 10
-858.2778450140581
 20
288.6983100085771
 30
4.185207900610024
 41
1.0
  0
ARC
  5
523
330
1F
100
AcDbEntity
  8
Default
100
AcDbCircle
 10
-851.0277881236397
 20
299.6211737941662
 30
4.185207900610024
 40
12.69444444444444
100
AcDbArc
 50
250.9775798079559
 51
263.7179678781667
  0
SPLINE
  5
524
330
1F
100
AcDbEntity
  8
Default
100
AcDbSpline
210
0.0
220
0.0
230
1.0
 70
     8
 71
     3
 72
    14
 73
    10
 74
     0
 42
0.000000001
 43
0.0000000001
 40
-7.0
 40
-7.0
 40
-7.0
 40
-7.0
 40
-6.0
 40
-5.0
 40
-4.0
 40
-3.0
 40
-2.0
 40
-1.0
 40
-0.2482205602640466
 40
-0.2482205602640466
 40
-0.2482205602640466
 40
-0.2482205602640466
 10
-832.3214581239334
 20
270.4376484060022
 30
4.185207900610024
 10
-831.8644838888902
 20
271.8023737307888
 30
4.185207900610024
 10
-832.108984349206
 20
274.7651783101736
 30
4.185207900610024
 10
-834.4073268691616
 20
278.4512613000712
 30
4.185207900610024
 10
-837.5696301807549
 20
281.3604753343422
 30
4.185207900610024
 10
-841.1976573748823
 20
283.6479382042166
 30
4.185207900610024
 10
-845.107495552811
 20
285.3992241190723
 30
4.185207900610024
 10
-848.8826487341917
 20
286.4979226136741
 30
4.185207900610024
 10
-851.351870452347
 20
286.8857189386321
 30
4.185207900610024
 10
-852.4168472517668
 20
287.0029554376921
 30
4.185207900610024
  0
SPLINE
  5
525
330
1F
100
AcDbEntity
  8
Default
100
AcDbSpline
210
0.0
220
0.0
230
1.0
 70
     8
 71
     3
 72
    14
 73
    10
 74
     0
 42
0.000000001
 43
0.0000000001
 40
0.2772630823298201
 40
0.2772630823298201
 40
0.2772630823298201
 40
0.2772630823298201
 40
1.0
 40
2.0
 40
3.0
 40
4.0
 40
5.0
 40
6.0
 40
7.0
 40
7.0
 40
7.0
 40
7.0
 10
-858.2078626899479
 20
268.7864440804781
 30
4.185207900610024
 10
-857.3114874081699
 20
268.2790339729545
 30
4.185207900610024
 10
-855.1206853791761
 20
267.1649991028285
 30
4.185207900610024
 10
-851.4597732498094
 20
265.8489236274548
 30
4.185207900610024
 10
-847.2672676853093
 20
264.967598474746
 30
4.185207900610024
 10
-842.987595089127
 20
264.685693930852
 30
4.185207900610024
 10
-838.719244863573
 20
265.1805422750211
 30
4.185207900610024
 10
-834.6932214858465
 20
266.8117142185782
 30
4.185207900610024
 10
-832.7539236211316
 20
269.0649597095599
 30
4.185207900610024
 10
-832.3214581239334
 20
270.4376484060022
 30
4.185207900610024
  0
ARC
  5
526
330
1F
100
AcDbEntity
  8
Default
100
AcDbCircle
 10
-864.461383581553
 20
257.7391640436842
 30
4.185207900610024
 40
12.69444444444444
100
AcDbArc
 50
60.48715217353489
 51
72.94225522513257
  0
SPLINE
  5
527
330
1F
100
AcDbEntity
  8
Default
100
AcDbSpline
210
0.0
220
0.0
230
1.0
 70
    12
 71
     2
 72
     6
 73
     3
 74
     0
 42
0.000000001
 43
0.0000000001
 40
0.0
 40
0.0
 40
0.0
 40
0.1369528492222414
 40
0.1369528492222414
 40
0.1369528492222414
 10
-864.0500347878509
 20
270.933336568324
 30
4.185207900610024
 41
1.0
 10
-862.3857578495053
 20
270.4307423185281
 30
4.185207900610024
 41
0.9999966913238282
 10
-860.7376542156741
 20
269.8751748941561
 30
4.185207900610024
 41
0.9999959461296658
  0
SPLINE
  5
528
330
1F
100
AcDbEntity
  8
Default
100
AcDbSpline
210
0.0
220
0.0
230
1.0
 70
     8
 71
     3
 72
    12
 73
     8
 74
     0
 42
0.000000001
 43
0.0000000001
 40
-1.014583801502342
 40
-1.014583801502342
 40
-1.014583801502342
 40
-1.014583801502342
 40
-0.8249401141264362
 40
-0.5900965017365678
 40
-0.3037660471064116
 40
-0.1510110321465192
 40
0.0
 40
0.0
 40
0.0
 40
0.0
 10
-831.955836615587
 20
270.318837520676
 30
4.185207900610024
 10
-831.4206996873791
 20
271.8628335300268
 30
4.185207900610024
 10
-831.9341621235498
 20
275.6019799451221
 30
4.185207900610024
 10
-835.7268778317573
 20
280.4314629055678
 30
4.185207900610024
 10
-840.5199391145639
 20
283.6026257066929
 30
4.185207900610024
 10
-845.1283833166375
 20
285.5594791215984
 30
4.185207900610024
 10
-847.6044436709328
 20
286.2617622104744
 30
4.185207900610024
 10
-848.8532310478754
 20
286.5362770201772
 30
4.185207900610024
  0
SPLINE
  5
529
330
1F
100
AcDbEntity
  8
Default
100
AcDbSpline
210
0.0
220
0.0
230
1.0
 70
     8
 71
     3
 72
    12
 73
     8
 74
     0
 42
0.000000001
 43
0.0000000001
 40
0.0
 40
0.0
 40
0.0
 40
0.0
 40
0.1510110321465192
 40
0.3037660471064116
 40
0.5900965017365678
 40
0.8249401141264362
 40
1.014583801502342
 40
1.014583801502342
 40
1.014583801502342
 40
1.014583801502342
 10
-855.1584876397173
 20
267.1306926097997
 30
4.185207900610024
 10
-853.9868416727307
 20
266.618760952641
 30
4.185207900610024
 10
-851.570875124432
 20
265.7315281463629
 30
4.185207900610024
 10
-846.6923558691462
 20
264.6058802765305
 30
4.185207900610024
 10
-840.9507251091552
 20
264.3541141392027
 30
4.185207900610024
 10
-835.0436547860345
 20
266.0319455688253
 30
4.185207900610024
 10
-832.4304398302441
 20
268.755172915506
 30
4.185207900610024
 10
-831.955836615587
 20
270.318837520676
 30
4.185207900610024
  0
CIRCLE
  5
52A
330
1F
100
AcDbEntity
  8
Default
100
AcDbCircle
 10
-309.9130758356613
 20
-1034.314596023819
 30
4.185207900610024
 40
199.9375
  0
SPLINE
  5
52B
330
1F
100
AcDbEntity
  8
Default
100
AcDbSpline
210
0.0
220
0.0
230
1.0
 70
     8
 71
     3
 72
    21
 73
    17
 74
     0
 42
0.000000001
 43
0.0000000001
 40
0.0
 40
0.0
 40
0.0
 40
0.0
 40
0.2588469591229587
 40
0.6477254461891114
 40
1.024641027840087
 40
1.817983982162573
 40
2.582167143679937
 40
4.062052734317923
 40
7.850412104674
 40
9.497260537102542
 40
10.543391206404
 40
10.8432833113025
 40
12.15829953678302
 40
13.34949093133962
 40
14.77372714428499
 40
15.46884750610318
 40
15.46884750610318
 40
15.46884750610318
 40
15.46884750610318
 10
-771.5962880054081
 20
-1396.276047237694
 30
4.185207900610024
 10
-770.4694366022288
 20
-1394.379331892734
 30
4.185207900610024
 10
-766.4734635160113
 20
-1390.552404761524
 30
4.185207900610024
 10
-759.1622695183501
 20
-1385.867654350251
 30
4.185207900610024
 10
-747.5558703507362
 20
-1379.581866802341
 30
4.185207900610024
 10
-732.7728663944886
 20
-1372.537693543334
 30
4.185207900610024
 10
-710.0787800531943
 20
-1360.455460008705
 30
4.185207900610024
 10
-665.4057162158604
 20
-1335.740666253715
 30
4.185207900610024
 10
-615.5342339887212
 20
-1305.067846294707
 30
4.185207900610024
 10
-569.4552199167329
 20
-1275.329785319369
 30
4.185207900610024
 10
-548.3219830947271
 20
-1261.365496079201
 30
4.185207900610024
 10
-529.6743236144727
 20
-1248.717497307732
 30
4.185207900610024
 10
-512.2272750630043
 20
-1232.414498868976
 30
4.185207900610024
 10
-491.2861406276618
 20
-1206.565284294623
 30
4.185207900610024
 10
-475.0438962475236
 20
-1183.701633113243
 30
4.185207900610024
 10
-465.5990289704278
 20
-1168.447479926844
 30
4.185207900610024
 10
-462.6132124965526
 20
-1163.379200660393
 30
4.185207900610024
  0
SPLINE
  5
52C
330
1F
100
AcDbEntity
  8
Default
100
AcDbSpline
210
0.0
220
0.0
230
1.0
 70
     8
 71
     3
 72
    10
 73
     6
 74
     0
 42
0.000000001
 43
0.0000000001
 40
-6.708248473681532
 40
-6.708248473681532
 40
-6.708248473681532
 40
-6.708248473681532
 40
-3.774519558109396
 40
-1.88935509827327
 40
0.0
 40
0.0
 40
0.0
 40
0.0
 10
-467.0014192903114
 20
-910.6284761197446
 30
4.185207900610024
 10
-473.3335211936389
 20
-886.6251496509555
 30
4.185207900610024
 10
-489.7926748861785
 20
-848.7877305547344
 30
4.185207900610024
 10
-524.6377852624574
 20
-803.650602634992
 30
4.185207900610024
 10
-548.6763479758198
 20
-782.3878737810152
 30
4.185207900610024
 10
-561.6100739103723
 20
-772.9888451565307
 30
4.185207900610024
  0
SPLINE
  5
52D
330
1F
100
AcDbEntity
  8
Default
100
AcDbSpline
210
0.0
220
0.0
230
1.0
 70
     8
 71
     3
 72
     8
 73
     4
 74
     0
 42
0.000000001
 43
0.0000000001
 40
-14.89017236839833
 40
-14.89017236839833
 40
-14.89017236839833
 40
-14.89017236839833
 40
-14.55234360913006
 40
-14.55234360913006
 40
-14.55234360913006
 40
-14.55234360913006
 10
-503.2033076832691
 20
-1108.342036997005
 30
4.185207900610024
 10
-501.5219653601387
 20
-1106.029171507567
 30
4.185207900610024
 10
-499.8846501184925
 20
-1103.684446024808
 30
4.185207900610024
 10
-498.2921045096637
 20
-1101.309711234478
 30
4.185207900610024
  0
SPLINE
  5
52E
330
1F
100
AcDbEntity
  8
Default
100
AcDbSpline
210
0.0
220
0.0
230
1.0
 70
     8
 71
     3
 72
    34
 73
    30
 74
     0
 42
0.000000001
 43
0.0000000001
 40
49.54977648871967
 40
49.54977648871967
 40
49.54977648871967
 40
49.54977648871967
 40
50.0
 40
51.0
 40
52.0
 40
53.0
 40
53.0
 40
53.0
 40
54.0
 40
55.0
 40
56.0
 40
57.0
 40
58.0
 40
59.0
 40
60.0
 40
60.0
 40
60.0
 40
61.0
 40
62.0
 40
63.0
 40
64.0
 40
65.0
 40
66.0
 40
67.0
 40
68.0
 40
69.0
 40
70.0
 40
71.0
 40
72.0
 40
72.0
 40
72.0
 40
72.0
 10
-467.3380408756259
 20
-1157.571986424622
 30
4.185207900610024
 10
-470.0255767807791
 20
-1161.828542563506
 30
4.185207900610024
 10
-478.8946265852106
 20
-1175.404478445821
 30
4.185207900610024
 10
-494.9472017749229
 20
-1197.601629450997
 30
4.185207900610024
 10
-515.7872647461065
 20
-1223.948461836925
 30
4.185207900610024
 10
-532.2570147029055
 20
-1239.205885296965
 30
4.185207900610024
 10
-541.2761071768978
 20
-1245.826304005893
 30
4.185207900610024
 10
-550.1180962223952
 20
-1252.342750884521
 30
4.185207900610024
 10
-567.8664877550848
 20
-1265.288915877814
 30
4.185207900610024
 10
-594.8108425651879
 20
-1284.260086526981
 30
4.185207900610024
 10
-622.1192929956819
 20
-1302.703803526092
 30
4.185207900610024
 10
-649.8303828385315
 20
-1320.538638212273
 30
4.185207900610024
 10
-677.9908114476175
 20
-1337.654182769336
 30
4.185207900610024
 10
-706.6024418731982
 20
-1354.011400294986
 30
4.185207900610024
 10
-726.1120692170666
 20
-1364.118214213457
 30
4.185207900610024
 10
-735.936758736107
 20
-1369.028945458579
 30
4.185207900610024
 10
-737.950456902584
 20
-1370.040395777593
 30
4.185207900610024
 10
-741.9726805608522
 20
-1372.073814980277
 30
4.185207900610024
 10
-747.9409722495175
 20
-1375.250580481068
 30
4.185207900610024
 10
-753.7953351462996
 20
-1378.633364163032
 30
4.185207900610024
 10
-759.4552016635357
 20
-1382.341790261384
 30
4.185207900610024
 10
-764.759321691458
 20
-1386.536013391763
 30
4.185207900610024
 10
-769.4813970833124
 20
-1391.449312538043
 30
4.185207900610024
 10
-772.5134448373875
 20
-1397.574515199767
 30
4.185207900610024
 10
-773.723970555306
 20
-1404.26111410456
 30
4.185207900610024
 10
-774.91836770082
 20
-1410.906892230951
 30
4.185207900610024
 10
-775.5486796784723
 20
-1417.649078168646
 30
4.185207900610024
 10
-775.5695483068535
 20
-1424.413128710862
 30
4.185207900610024
 10
-774.2490430411538
 20
-1433.97403961264
 30
4.185207900610024
 10
-774.1262244492018
 20
-1436.224236172433
 30
4.185207900610024
  0
SPLINE
  5
52F
330
1F
100
AcDbEntity
  8
Default
100
AcDbSpline
210
0.0
220
0.0
230
1.0
 70
     8
 71
     3
 72
    12
 73
     8
 74
     0
 42
0.000000001
 43
0.0000000001
 40
36.00001859054296
 40
36.00001859054296
 40
36.00001859054296
 40
36.00001859054296
 40
37.0
 40
38.0
 40
39.0
 40
40.0
 40
40.99791129719946
 40
40.99791129719946
 40
40.99791129719946
 40
40.99791129719946
 10
-552.3133530282994
 20
-760.1941141011524
 30
4.185207900610024
 10
-543.2572321830928
 20
-766.7503877860424
 30
4.185207900610024
 10
-525.7031451932313
 20
-780.6353194551287
 30
4.185207900610024
 10
-501.2787044677256
 20
-803.6712093627008
 30
4.185207900610024
 10
-479.0662903950009
 20
-828.855458621914
 30
4.185207900610024
 10
-459.4727322984411
 20
-856.1035777405605
 30
4.185207900610024
 10
-448.4412220800724
 20
-875.5724782884378
 30
4.185207900610024
 10
-443.5475734821851
 20
-885.5973309030161
 30
4.185207900610024
  0
SPLINE
  5
530
330
1F
100
AcDbEntity
  8
Default
100
AcDbSpline
210
0.0
220
0.0
230
1.0
 70
     8
 71
     3
 72
    12
 73
     8
 74
     0
 42
0.000000001
 43
0.0000000001
 40
0.0
 40
0.0
 40
0.0
 40
0.0
 40
1.918305221504867
 40
3.868777778011241
 40
7.624449324857683
 40
11.42846767657462
 40
15.35241906764609
 40
15.35241906764609
 40
15.35241906764609
 40
15.35241906764609
 10
-847.9238065234293
 20
-1167.065892087778
 30
4.185207900610024
 10
-834.7989758163402
 20
-1176.618293923464
 30
4.185207900610024
 10
-806.4427842868774
 20
-1193.303428151643
 30
4.185207900610024
 10
-745.2483988262234
 20
-1214.726407189372
 30
4.185207900610024
 10
-663.1217256310708
 20
-1217.445100444192
 30
4.185207900610024
 10
-570.8027790125554
 20
-1181.280218345013
 30
4.185207900610024
 10
-522.7132209675271
 20
-1135.196051224969
 30
4.185207900610024
 10
-503.2033076832691
 20
-1108.342036997005
 30
4.185207900610024
  0
SPLINE
  5
531
330
1F
100
AcDbEntity
  8
Default
100
AcDbSpline
210
0.0
220
0.0
230
1.0
 70
     8
 71
     3
 72
    47
 73
    43
 74
     0
 42
0.000000001
 43
0.0000000001
 40
36.00001859054296
 40
36.00001859054296
 40
36.00001859054296
 40
36.00001859054296
 40
37.0
 40
38.0
 40
39.0
 40
40.0
 40
41.0
 40
42.0
 40
43.0
 40
44.0
 40
45.0
 40
46.0
 40
47.0
 40
48.0
 40
49.0
 40
50.0
 40
51.0
 40
52.0
 40
53.0
 40
53.0
 40
53.0
 40
54.0
 40
55.0
 40
56.0
 40
57.0
 40
58.0
 40
59.0
 40
60.0
 40
60.0
 40
60.0
 40
61.0
 40
62.0
 40
63.0
 40
64.0
 40
65.0
 40
66.0
 40
67.0
 40
68.0
 40
69.0
 40
70.0
 40
71.0
 40
72.0
 40
72.0
 40
72.0
 40
72.0
 10
-552.3133530282994
 20
-760.1941141011524
 30
4.185207900610024
 10
-561.3472350832105
 20
-753.6072313473665
 30
4.185207900610024
 10
-579.9771010260114
 20
-741.2029823795293
 30
4.185207900610024
 10
-609.4331014935503
 20
-725.0924403326625
 30
4.185207900610024
 10
-640.2487592940916
 20
-711.7495401978231
 30
4.185207900610024
 10
-672.2402765613468
 20
-701.5279743607002
 30
4.185207900610024
 10
-705.1630543513514
 20
-694.8115640392802
 30
4.185207900610024
 10
-738.6599342005306
 20
-692.1878045359106
 30
4.185207900610024
 10
-772.2417584658711
 20
-693.4836570914101
 30
4.185207900610024
 10
-805.3684540682848
 20
-699.182541977918
 30
4.185207900610024
 10
-837.5020436633667
 20
-709.0372697354949
 30
4.185207900610024
 10
-867.9980408586626
 20
-723.2281539427524
 30
4.185207900610024
 10
-895.9762700329021
 20
-741.884467445118
 30
4.185207900610024
 10
-921.4004730985969
 20
-763.8320897598298
 30
4.185207900610024
 10
-944.7461103926219
 20
-787.9490949415603
 30
4.185207900610024
 10
-966.2657527438414
 20
-813.7111793711927
 30
4.185207900610024
 10
-986.0397364174186
 20
-840.8020178472778
 30
4.185207900610024
 10
-1004.657129419852
 20
-868.7637144912232
 30
4.185207900610024
 10
-1014.07836879364
 20
-889.1421806489162
 30
4.185207900610024
 10
-1017.587708299066
 20
-899.7656692083118
 30
4.185207900610024
 10
-1021.052892686941
 20
-910.18859333548
 30
4.185207900610024
 10
-1027.880872658422
 20
-931.0689017513116
 30
4.185207900610024
 10
-1037.59726458727
 20
-962.5569201046088
 30
4.185207900610024
 10
-1046.699506550909
 20
-994.2282218286205
 30
4.185207900610024
 10
-1055.098244602157
 20
-1026.094301407201
 30
4.185207900610024
 10
-1062.674043774002
 20
-1058.16545467365
 30
4.185207900610024
 10
-1069.389202051949
 20
-1090.431390427841
 30
4.185207900610024
 10
-1072.972546884916
 20
-1112.10932590351
 30
4.185207900610024
 10
-1074.606933809523
 20
-1122.970660300721
 30
4.185207900610024
 10
-1074.946613271346
 20
-1125.198356401342
 30
4.185207900610024
 10
-1075.637574388837
 20
-1129.652079511852
 30
4.185207900610024
 10
-1076.814554359922
 20
-1136.309936740396
 30
4.185207900610024
 10
-1078.222675197526
 20
-1142.923104368158
 30
4.185207900610024
 10
-1080.000603063844
 20
-1149.451923987511
 30
4.185207900610024
 10
-1082.350483073954
 20
-1155.792528128765
 30
4.185207900610024
 10
-1085.564106698728
 20
-1161.801781635274
 30
4.185207900610024
 10
-1090.452566320024
 20
-1166.578222125969
 30
4.185207900610024
 10
-1096.437826761315
 20
-1169.795773194288
 30
4.185207900610024
 10
-1102.389248338274
 20
-1172.985370764473
 30
4.185207900610024
 10
-1108.606671095539
 20
-1175.668283112102
 30
4.185207900610024
 10
-1115.033216679445
 20
-1177.778336925466
 30
4.185207900610024
 10
-1124.534241862561
 20
-1179.476945738074
 30
4.185207900610024
 10
-1126.712258995836
 20
-1180.055487293536
 30
4.185207900610024
  0
SPLINE
  5
532
330
1F
100
AcDbEntity
  8
Default
100
AcDbSpline
210
0.0
220
0.0
230
1.0
 70
     8
 71
     3
 72
    12
 73
     8
 74
     0
 42
0.000000001
 43
0.0000000001
 40
-14.89017236839833
 40
-14.89017236839833
 40
-14.89017236839833
 40
-14.89017236839833
 40
-11.21816917573749
 40
-7.516682162771167
 40
-3.774519558109396
 40
-1.88935509827327
 40
0.0
 40
0.0
 40
0.0
 40
0.0
 10
-898.5975423391618
 20
-821.0713101913681
 30
4.185207900610024
 10
-880.3358006475335
 20
-795.9220087753808
 30
4.185207900610024
 10
-833.2496019868603
 20
-753.0194626726328
 30
4.185207900610024
 10
-742.6835295031159
 20
-721.3200386951296
 30
4.185207900610024
 10
-662.361890440776
 20
-725.7975127429915
 30
4.185207900610024
 10
-602.195150392334
 20
-747.3018785080966
 30
4.185207900610024
 10
-574.5447691627654
 20
-763.5933656563443
 30
4.185207900610024
 10
-561.6090206282398
 20
-772.9896104107938
 30
4.185207900610024
  0
SPLINE
  5
533
330
1F
100
AcDbEntity
  8
Default
100
AcDbSpline
210
0.0
220
0.0
230
1.0
 70
     8
 71
     3
 72
    12
 73
     8
 74
     0
 42
0.000000001
 43
0.0000000001
 40
0.0
 40
0.0
 40
0.0
 40
0.0
 40
1.918305221504867
 40
3.868777778011241
 40
7.624449324857683
 40
11.42846767657462
 40
15.35241906764609
 40
15.35241906764609
 40
15.35241906764609
 40
15.35241906764609
 10
-847.9227549341949
 20
-1167.066656112079
 30
4.185207900610024
 10
-861.0634246830782
 20
-1157.536054847156
 30
4.185207900610024
 10
-885.6944753944024
 20
-1135.723704145682
 30
4.185207900610024
 10
-924.979044274362
 20
-1084.144449685446
 30
4.185207900610024
 10
-952.9432129189467
 20
-1006.877464399785
 30
4.185207900610024
 10
-947.076489545391
 20
-907.9013654725295
 30
4.185207900610024
 10
-918.1083327957322
 20
-847.9246871163425
 30
4.185207900610024
 10
-898.5975423391618
 20
-821.0713101913681
 30
4.185207900610024
  0
SPLINE
  5
534
330
1F
100
AcDbEntity
  8
Default
100
AcDbSpline
210
0.0
220
0.0
230
1.0
 70
    12
 71
     2
 72
     6
 73
     3
 74
     0
 42
0.000000001
 43
0.0000000001
 40
0.0
 40
0.0
 40
0.0
 40
1.278324852146924
 40
1.278324852146924
 40
1.278324852146924
 10
-525.719615582029
 20
-739.5296188784899
 30
4.185207900610024
 41
1.0
 10
-535.1126471353763
 20
-752.7624089330093
 30
4.185207900610024
 41
0.9999999996076647
 10
-544.5054233864168
 20
-765.995380205066
 30
4.185207900610024
 41
0.9999999993083845
  0
SPLINE
  5
535
330
1F
100
AcDbEntity
  8
Default
100
AcDbSpline
210
0.0
220
0.0
230
1.0
 70
     8
 71
     3
 72
    14
 73
    10
 74
     0
 42
0.000000001
 43
0.0000000001
 40
0.0
 40
0.0
 40
0.0
 40
0.0
 40
1.0
 40
2.0
 40
3.0
 40
4.0
 40
5.0
 40
6.0
 40
7.0
 40
7.0
 40
7.0
 40
7.0
 10
-540.8249880954619
 20
-728.4331959559875
 30
4.185207900610024
 10
-539.7542375951116
 20
-727.0047833850402
 30
4.185207900610024
 10
-537.3579803696741
 20
-724.5833329579071
 30
4.185207900610024
 10
-532.8743021135453
 20
-722.1174838974426
 30
4.185207900610024
 10
-527.5885086051837
 20
-721.7271446127404
 30
4.185207900610024
 10
-523.2600293833042
 20
-724.9779570518081
 30
4.185207900610024
 10
-522.1115463970619
 20
-730.1422487002984
 30
4.185207900610024
 10
-523.134840498955
 20
-735.153976246437
 30
4.185207900610024
 10
-524.7288285608423
 20
-738.164628486703
 30
4.185207900610024
 10
-525.719615582029
 20
-739.5296188784899
 30
4.185207900610024
  0
SPLINE
  5
536
330
1F
100
AcDbEntity
  8
Default
100
AcDbSpline
210
0.0
220
0.0
230
1.0
 70
    12
 71
     2
 72
     6
 73
     3
 74
     0
 42
0.000000001
 43
0.0000000001
 40
-1.281345128275034
 40
-1.281345128275034
 40
-1.281345128275034
 40
0.0
 40
0.0
 40
0.0
 10
-560.250239911303
 20
-754.5563715239495
 30
4.185207900610024
 41
0.9999999993069707
 10
-550.5379363310582
 20
-741.4954117326926
 30
4.185207900610024
 41
0.9999999996067375
 10
-540.8249880954619
 20
-728.4331959559875
 30
4.185207900610024
 41
1.0
  0
SPLINE
  5
537
330
1F
100
AcDbEntity
  8
Default
100
AcDbSpline
210
0.0
220
0.0
230
1.0
 70
    12
 71
     2
 72
     6
 73
     3
 74
     0
 42
0.000000001
 43
0.0000000001
 40
0.0
 40
0.0
 40
0.0
 40
1.112498698414412
 40
1.112498698414412
 40
1.112498698414412
 10
-1001.865045273661
 20
-801.529435317682
 30
4.185207900610024
 41
1.0
 10
-990.3488319366756
 20
-809.7039891951121
 30
4.185207900610024
 41
0.9999999996585591
 10
-978.832481348048
 20
-817.8783497106385
 30
4.185207900610024
 41
0.9999999993875963
  0
SPLINE
  5
538
330
1F
100
AcDbEntity
  8
Default
100
AcDbSpline
210
0.0
220
0.0
230
1.0
 70
     8
 71
     3
 72
    14
 73
    10
 74
     0
 42
0.000000001
 43
0.0000000001
 40
0.0
 40
0.0
 40
0.0
 40
0.0
 40
1.0
 40
2.0
 40
3.0
 40
4.0
 40
5.0
 40
6.0
 40
7.0
 40
7.0
 40
7.0
 40
7.0
 10
-1012.961468196164
 20
-816.634807831115
 30
4.185207900610024
 10
-1014.389880767111
 20
-815.5640573307648
 30
4.185207900610024
 10
-1016.811331194245
 20
-813.1678001053275
 30
4.185207900610024
 10
-1019.277180254709
 20
-808.6841218491981
 30
4.185207900610024
 10
-1019.667519539411
 20
-803.3983283408367
 30
4.185207900610024
 10
-1016.416707100343
 20
-799.0698491189568
 30
4.185207900610024
 10
-1011.252415451853
 20
-797.9213661327146
 30
4.185207900610024
 10
-1006.240687905714
 20
-798.9446602346084
 30
4.185207900610024
 10
-1003.230035665448
 20
-800.5386482964954
 30
4.185207900610024
 10
-1001.865045273661
 20
-801.529435317682
 30
4.185207900610024
  0
SPLINE
  5
539
330
1F
100
AcDbEntity
  8
Default
100
AcDbSpline
210
0.0
220
0.0
230
1.0
 70
    12
 71
     2
 72
     6
 73
     3
 74
     0
 42
0.000000001
 43
0.0000000001
 40
-1.102413928352738
 40
-1.102413928352738
 40
-1.102413928352738
 40
0.0
 40
0.0
 40
0.0
 10
-990.4860669054155
 20
-833.3475317735619
 30
4.185207900610024
 41
0.9999999993925147
 10
-1001.723302702076
 20
-824.9914083936177
 30
4.185207900610024
 41
0.9999999996616539
 10
-1012.961468196164
 20
-816.634807831115
 30
4.185207900610024
 41
1.0
  0
SPLINE
  5
53A
330
1F
100
AcDbEntity
  8
Default
100
AcDbSpline
210
0.0
220
0.0
230
1.0
 70
    12
 71
     2
 72
     6
 73
     3
 74
     0
 42
0.000000001
 43
0.0000000001
 40
0.0
 40
0.0
 40
0.0
 40
5.654573080352872
 40
5.654573080352872
 40
5.654573080352872
 10
-982.7701712676388
 20
-1352.669097440198
 30
4.185207900610024
 41
1.0
 10
-924.4800956065933
 20
-1394.826500713665
 30
4.185207900610024
 41
0.9967681786255456
 10
-860.1915331741674
 20
-1427.104740031913
 30
4.185207900610024
 41
1.0
  0
SPLINE
  5
53B
330
1F
100
AcDbEntity
  8
Default
100
AcDbSpline
210
0.0
220
0.0
230
1.0
 70
    12
 71
     2
 72
     6
 73
     3
 74
     0
 42
0.000000001
 43
0.0000000001
 40
-5.654573080352872
 40
-5.654573080352872
 40
-5.654573080352872
 40
0.0
 40
0.0
 40
0.0
 10
-1091.441556517325
 20
-1259.091763470876
 30
4.185207900610024
 41
1.0
 10
-1040.876868343617
 20
-1310.259295197642
 30
4.185207900610024
 41
0.9967681786255456
 10
-982.7701712676388
 20
-1352.669097440198
 30
4.185207900610024
 41
1.0
  0
SPLINE
  5
53C
330
1F
100
AcDbEntity
  8
Default
100
AcDbSpline
210
0.0
220
0.0
230
1.0
 70
    12
 71
     2
 72
     6
 73
     3
 74
     0
 42
0.000000001
 43
0.0000000001
 40
0.0
 40
0.0
 40
0.0
 40
0.443505275079806
 40
0.443505275079806
 40
0.443505275079806
 10
-1136.847589521948
 20
-1185.115125505972
 30
4.185207900610024
 41
1.0
 10
-1132.227621711642
 20
-1181.520520086801
 30
4.185207900610024
 41
0.9799943751373794
 10
-1126.712258995836
 20
-1180.055487293536
 30
4.185207900610024
 41
1.0
  0
SPLINE
  5
53D
330
1F
100
AcDbEntity
  8
Default
100
AcDbSpline
210
0.0
220
0.0
230
1.0
 70
     8
 71
     3
 72
    12
 73
     8
 74
     0
 42
0.000000001
 43
0.0000000001
 40
0.0
 40
0.0
 40
0.0
 40
0.0
 40
0.8495817757806477
 40
1.391422022197968
 40
2.191064820612614
 40
2.689385262996221
 40
3.111933853859593
 40
3.111933853859593
 40
3.111933853859593
 40
3.111933853859593
 10
-1101.931115410849
 20
-1248.544775971366
 30
4.185207900610024
 10
-1106.93070487823
 20
-1243.340885973384
 30
4.185207900610024
 10
-1115.261826512653
 20
-1235.092480962511
 30
4.185207900610024
 10
-1127.726904064709
 20
-1221.284187137456
 30
4.185207900610024
 10
-1137.475701465968
 20
-1209.193398680808
 30
4.185207900610024
 10
-1143.308945714004
 20
-1195.388529657995
 30
4.185207900610024
 10
-1139.812529595463
 20
-1187.306235118236
 30
4.185207900610024
 10
-1136.847589521948
 20
-1185.115125505972
 30
4.185207900610024
  0
SPLINE
  5
53E
330
1F
100
AcDbEntity
  8
Default
100
AcDbSpline
210
0.0
220
0.0
230
1.0
 70
    12
 71
     2
 72
     6
 73
     3
 74
     0
 42
0.000000001
 43
0.0000000001
 40
-6.233889429224446
 40
-6.233889429224446
 40
-6.233889429224446
 40
0.0
 40
0.0
 40
0.0
 10
-981.7616342718167
 20
-1351.280965353022
 30
4.185207900610024
 41
1.0
 10
-1046.010631477181
 20
-1304.783434216431
 30
4.185207900610024
 41
0.996730330589404
 10
-1101.931115410849
 20
-1248.544775971366
 30
4.185207900610024
 41
1.0
  0
SPLINE
  5
53F
330
1F
100
AcDbEntity
  8
Default
100
AcDbSpline
210
0.0
220
0.0
230
1.0
 70
    12
 71
     2
 72
     6
 73
     3
 74
     0
 42
0.000000001
 43
0.0000000001
 40
0.0
 40
0.0
 40
0.0
 40
6.233889429224446
 40
6.233889429224446
 40
6.233889429224446
 10
-846.9202516371785
 20
-1433.82101360632
 30
4.185207900610024
 41
0.9999999519924591
 10
-917.6862942313915
 20
-1398.016521262363
 30
4.185207900610024
 41
0.9967303545933507
 10
-981.7616342718167
 20
-1351.280965353022
 30
4.185207900610024
 41
1.0
  0
SPLINE
  5
540
330
1F
100
AcDbEntity
  8
Default
100
AcDbSpline
210
0.0
220
0.0
230
1.0
 70
     8
 71
     3
 72
    12
 73
     8
 74
     0
 42
0.000000001
 43
0.0000000001
 40
-3.111933853859593
 40
-3.111933853859593
 40
-3.111933853859593
 40
-3.111933853859593
 40
-2.689379093202719
 40
-2.191051374651839
 40
-1.391396900347014
 40
-0.8495487423131249
 40
0.0
 40
0.0
 40
0.0
 40
0.0
 10
-775.8062369650583
 20
-1447.42702250713
 30
4.185207900610024
 10
-776.9738891696995
 20
-1450.923938191199
 30
4.185207900610024
 10
-783.5801560583186
 20
-1456.746793890746
 30
4.185207900610024
 10
-798.5119383040491
 20
-1455.46498807068
 30
4.185207900610024
 10
-813.0235055245977
 20
-1449.929589884668
 30
4.185207900610024
 10
-830.0075419267029
 20
-1442.341751466293
 30
4.185207900610024
 10
-840.4263711571573
 20
-1436.967474927981
 30
4.185207900610024
 10
-846.9202516371781
 20
-1433.82101360632
 30
4.185207900610024
  0
SPLINE
  5
541
330
1F
100
AcDbEntity
  8
Default
100
AcDbSpline
210
0.0
220
0.0
230
1.0
 70
    12
 71
     2
 72
     6
 73
     3
 74
     0
 42
0.000000001
 43
0.0000000001
 40
-0.443505275079806
 40
-0.443505275079806
 40
-0.443505275079806
 40
0.0
 40
0.0
 40
0.0
 10
-774.1262244492011
 20
-1436.224236172434
 30
4.185207900610024
 41
1.0
 10
-773.8152126244953
 20
-1441.922377853468
 30
4.185207900610024
 41
0.9799943751373794
 10
-775.8062369650583
 20
-1447.42702250713
 30
4.185207900610024
 41
1.0
  0
SPLINE
  5
542
330
1F
100
AcDbEntity
  8
Default
100
AcDbSpline
210
0.0
220
0.0
230
1.0
 70
     8
 71
     3
 72
    19
 73
    15
 74
     0
 42
0.000000001
 43
0.0000000001
 40
0.0
 40
0.0
 40
0.0
 40
0.0
 40
1.0
 40
2.0
 40
3.0
 40
4.0
 40
5.0
 40
6.0
 40
7.0
 40
8.0
 40
9.0
 40
10.0
 40
11.0
 40
12.0
 40
12.0
 40
12.0
 40
12.0
 10
-973.8868554598548
 20
-1340.442262168528
 30
4.185207900610024
 10
-968.7654582286798
 20
-1344.162164975233
 30
4.185207900610024
 10
-958.4826894816556
 20
-1351.547037678343
 30
4.185207900610024
 10
-942.9199800362475
 20
-1362.428988592071
 30
4.185207900610024
 10
-927.201000584982
 20
-1373.084188867556
 30
4.185207900610024
 10
-911.3092846421618
 20
-1383.480361525909
 30
4.185207900610024
 10
-895.2299401520162
 20
-1393.58384839233
 30
4.185207900610024
 10
-878.9493496162535
 20
-1403.361522650349
 30
4.185207900610024
 10
-862.4548628313975
 20
-1412.769085014775
 30
4.185207900610024
 10
-845.7361468827407
 20
-1421.792202788006
 30
4.185207900610024
 10
-828.7819863958542
 20
-1430.292411089205
 30
4.185207900610024
 10
-811.590509123645
 20
-1438.575086643758
 30
4.185207900610024
 10
-794.2465554681766
 20
-1445.509480181546
 30
4.185207900610024
 10
-781.4883250051249
 20
-1449.753292534905
 30
4.185207900610024
 10
-775.7532688399134
 20
-1447.293032201154
 30
4.185207900610024
  0
SPLINE
  5
543
330
1F
100
AcDbEntity
  8
Default
100
AcDbSpline
210
0.0
220
0.0
230
1.0
 70
     8
 71
     3
 72
    19
 73
    15
 74
     0
 42
0.000000001
 43
0.0000000001
 40
-12.0
 40
-12.0
 40
-12.0
 40
-12.0
 40
-11.0
 40
-10.0
 40
-9.0
 40
-8.0
 40
-7.0
 40
-6.0
 40
-5.0
 40
-4.0
 40
-3.0
 40
-2.0
 40
-1.0
 40
0.0
 40
0.0
 40
0.0
 40
0.0
 10
-1136.73462199256
 20
-1185.024727318833
 30
4.185207900610024
 10
-1137.302238796012
 20
-1191.239352109792
 30
4.185207900610024
 10
-1129.323623372181
 20
-1202.061740189947
 30
4.185207900610024
 10
-1117.369046782322
 20
-1216.413974883441
 30
4.185207900610024
 10
-1104.179295588282
 20
-1230.204553862664
 30
4.185207900610024
 10
-1090.855993377753
 20
-1243.702209851234
 30
4.185207900610024
 10
-1077.10813106996
 20
-1256.814356864117
 30
4.185207900610024
 10
-1063.063930850806
 20
-1269.594449357549
 30
4.185207900610024
 10
-1048.733830879496
 20
-1282.056743564529
 30
4.185207900610024
 10
-1034.156053152019
 20
-1294.226959775468
 30
4.185207900610024
 10
-1019.357895104652
 20
-1306.128285750111
 30
4.185207900610024
 10
-1004.366765665551
 20
-1317.785285623154
 30
4.185207900610024
 10
-989.2082736418954
 20
-1329.223594088121
 30
4.185207900610024
 10
-979.0072920435347
 20
-1336.721037143978
 30
4.185207900610024
 10
-973.8868554598548
 20
-1340.442262168528
 30
4.185207900610024
  0
SPLINE
  5
544
330
1F
100
AcDbEntity
  8
Default
100
AcDbSpline
210
0.0
220
0.0
230
1.0
 70
     8
 71
     3
 72
    22
 73
    18
 74
     0
 42
0.000000001
 43
0.0000000001
 40
0.0
 40
0.0
 40
0.0
 40
0.0
 40
0.2588469591229587
 40
0.6477254461891114
 40
1.024641027840087
 40
1.817983982162573
 40
2.582167143679937
 40
4.062052734317923
 40
7.850412104674
 40
9.497260537102542
 40
10.543391206404
 40
10.8432833113025
 40
12.15829953678302
 40
13.34949093133962
 40
14.77372714428499
 40
17.25709974516987
 40
21.82793658798906
 40
21.82793658798906
 40
21.82793658798906
 40
21.82793658798906
 10
-1089.501066951083
 20
-1165.304705477518
 30
4.185207900610024
 10
-1088.045399696419
 20
-1163.646888832544
 30
4.185207900610024
 10
-1085.640599303602
 20
-1158.663907070178
 30
4.185207900610024
 10
-1083.444420092193
 20
-1150.262880885316
 30
4.185207900610024
 10
-1081.052855470999
 20
-1137.2821241509
 30
4.185207900610024
 10
-1078.9216480415
 20
-1121.045882659538
 30
4.185207900610024
 10
-1074.443619458264
 20
-1095.728908471079
 30
4.185207900610024
 10
-1064.743189725223
 20
-1045.605008722949
 30
4.185207900610024
 10
-1050.982739972914
 20
-988.6959879407937
 30
4.185207900610024
 10
-1036.939361732623
 20
-935.6826751220355
 30
4.185207900610024
 10
-1030.189062779481
 20
-911.2685698424787
 30
4.185207900610024
 10
-1023.922544814498
 20
-889.6251452149126
 30
4.185207900610024
 10
-1013.808906418258
 20
-867.9941124230769
 30
4.185207900610024
 10
-995.6960088782194
 20
-840.0900634650119
 30
4.185207900610024
 10
-969.935936019436
 20
-805.4169545911449
 30
4.185207900610024
 10
-920.5989164861447
 20
-753.0408156972256
 30
4.185207900610024
 10
-869.1565743735269
 20
-720.840295543716
 30
4.185207900610024
 10
-832.5975249375945
 20
-707.9341035976247
 30
4.185207900610024
  0
SPLINE
  5
545
330
1F
100
AcDbEntity
  8
Default
100
AcDbSpline
210
0.0
220
0.0
230
1.0
 70
    12
 71
     2
 72
     6
 73
     3
 74
     0
 42
0.000000001
 43
0.0000000001
 40
0.0
 40
0.0
 40
0.0
 40
0.0586712320260919
 40
0.0586712320260919
 40
0.0586712320260919
 10
-514.3642649595205
 20
-707.9616753811547
 30
4.185207900610024
 41
1.0
 10
-513.7591758108992
 20
-708.4026629249901
 30
4.185207900610024
 41
0.9921343149382712
 10
-513.2825849210385
 20
-708.9801263569914
 30
4.185207900610024
 41
1.0
  0
SPLINE
  5
546
330
1F
100
AcDbEntity
  8
Default
100
AcDbSpline
210
0.0
220
0.0
230
1.0
 70
    24
 71
     2
 72
     6
 73
     3
 74
     0
 42
0.000000001
 43
0.0000000001
 40
0.0
 40
0.0
 40
0.0
 40
0.0114467396849787
 40
0.0114467396849787
 40
0.0114467396849787
 10
-514.3642649595205
 20
-707.9616753811547
 30
4.185207900610024
 10
-514.2788539369079
 20
-707.8441170823956
 30
4.185207900610024
 10
-514.193442914295
 20
-707.7265587836364
 30
4.185207900610024
  0
SPLINE
  5
547
330
1F
100
AcDbEntity
  8
Default
100
AcDbSpline
210
0.0
220
0.0
230
1.0
 70
    12
 71
     2
 72
     6
 73
     3
 74
     0
 42
0.000000001
 43
0.0000000001
 40
0.0
 40
0.0
 40
0.0
 40
0.0587632096241838
 40
0.0587632096241838
 40
0.0587632096241838
 10
-515.6693113407738
 20
-707.2467888248687
 30
4.185207900610024
 41
1.0
 10
-514.971627740832
 20
-707.5217749588889
 30
4.185207900610024
 41
0.9921107855315545
 10
-514.3642769072431
 20
-707.9616667006506
 30
4.185207900610024
 41
1.0
  0
SPLINE
  5
548
330
1F
100
AcDbEntity
  8
Default
100
AcDbSpline
210
0.0
220
0.0
230
1.0
 70
    12
 71
     2
 72
     6
 73
     3
 74
     0
 42
0.000000001
 43
0.0000000001
 40
-0.1297405451143296
 40
-0.1297405451143296
 40
-0.1297405451143296
 40
0.0
 40
0.0
 40
0.0
 10
-1016.96350134008
 20
-813.6132948352122
 30
4.185207900610024
 41
0.9999960316975588
 10
-1015.648548897106
 20
-814.6049895447186
 30
4.185207900610024
 41
0.999996865512317
 10
-1014.336610899746
 20
-815.6006687175597
 30
4.185207900610024
 41
1.0
  0
ARC
  5
549
330
1F
100
AcDbEntity
  8
Default
100
AcDbCircle
 10
-1024.607175285879
 20
-823.7485387081237
 30
4.185207900610024
 40
12.69444444444444
100
AcDbArc
 50
52.9775798079559
 51
65.71796787816676
  0
SPLINE
  5
54A
330
1F
100
AcDbEntity
  8
Default
100
AcDbSpline
210
0.0
220
0.0
230
1.0
 70
     8
 71
     3
 72
    14
 73
    10
 74
     0
 42
0.000000001
 43
0.0000000001
 40
-7.0
 40
-7.0
 40
-7.0
 40
-7.0
 40
-6.0
 40
-5.0
 40
-4.0
 40
-3.0
 40
-2.0
 40
-1.0
 40
-0.2482205602640466
 40
-0.2482205602640466
 40
-0.2482205602640466
 40
-0.2482205602640466
 10
-1033.379747027352
 20
-790.2127828469509
 30
4.185207900610024
 10
-1034.236078669382
 20
-791.3695009554219
 30
4.185207900610024
 10
-1034.919101879403
 20
-794.2628503545257
 30
4.185207900610024
 10
-1033.872310535675
 20
-798.478750499233
 30
4.185207900610024
 10
-1031.763777941547
 20
-802.2227829284743
 30
4.185207900610024
 10
-1029.020183938069
 20
-805.5194114556913
 30
4.185207900610024
 10
-1025.84288397099
 20
-808.3931897791465
 30
4.185207900610024
 10
-1022.592016444352
 20
-810.6047006312968
 30
4.185207900610024
 10
-1020.363482693891
 20
-811.7365483269331
 30
4.185207900610024
 10
-1019.38685763967
 20
-812.1771427929477
 30
4.185207900610024
  0
SPLINE
  5
54B
330
1F
100
AcDbEntity
  8
Default
100
AcDbSpline
210
0.0
220
0.0
230
1.0
 70
     8
 71
     3
 72
    14
 73
    10
 74
     0
 42
0.000000001
 43
0.0000000001
 40
0.2772630823298201
 40
0.2772630823298201
 40
0.2772630823298201
 40
0.2772630823298201
 40
1.0
 40
2.0
 40
3.0
 40
4.0
 40
5.0
 40
6.0
 40
7.0
 40
7.0
 40
7.0
 40
7.0
 10
-1008.250063083619
 20
-796.6417331475899
 30
4.185207900610024
 10
-1008.945768290057
 20
-795.8821622629889
 30
4.185207900610024
 10
-1010.685089128449
 20
-794.1456570821048
 30
4.185207900610024
 10
-1013.760133776897
 20
-791.7627108624267
 30
4.185207900610024
 10
-1017.475099063862
 20
-789.6289653645266
 30
4.185207900610024
 10
-1021.458196279215
 20
-788.0383666485017
 30
4.185207900610024
 10
-1025.670555123045
 20
-787.1900026331615
 30
4.185207900610024
 10
-1030.003590742495
 20
-787.4972296958108
 30
4.185207900610024
 10
-1032.544263762982
 20
-789.0409175054699
 30
4.185207900610024
 10
-1033.379747027352
 20
-790.2127828469509
 30
4.185207900610024
  0
ARC
  5
54C
330
1F
100
AcDbEntity
  8
Default
100
AcDbCircle
 10
-998.8888140168814
 20
-788.0675897114445
 30
4.185207900610024
 40
12.69444444444444
100
AcDbArc
 50
222.487152173535
 51
234.9422552251326
  0
SPLINE
  5
54D
330
1F
100
AcDbEntity
  8
Default
100
AcDbSpline
210
0.0
220
0.0
230
1.0
 70
    12
 71
     2
 72
     6
 73
     3
 74
     0
 42
0.000000001
 43
0.0000000001
 40
0.0
 40
0.0
 40
0.0
 40
0.1369528492222414
 40
0.1369528492222414
 40
0.1369528492222414
 10
-1003.357253504431
 20
-800.4888797002559
 30
4.185207900610024
 41
1.0
 10
-1004.784764767101
 20
-799.4965943066404
 30
4.185207900610024
 41
0.9999966913238282
 10
-1006.180524691935
 20
-798.4589262561047
 30
4.185207900610024
 41
0.9999959461296658
  0
SPLINE
  5
54E
330
1F
100
AcDbEntity
  8
Default
100
AcDbSpline
210
0.0
220
0.0
230
1.0
 70
     8
 71
     3
 72
    12
 73
     8
 74
     0
 42
0.000000001
 43
0.0000000001
 40
-1.014583801502342
 40
-1.014583801502342
 40
-1.014583801502342
 40
-1.014583801502342
 40
-0.8249401141264362
 40
-0.5900965017365678
 40
-0.3037660471064116
 40
-0.1510110321465192
 40
0.0
 40
0.0
 40
0.0
 40
0.0
 10
-1033.69075916268
 20
-789.9868037206662
 30
4.185207900610024
 10
-1034.676825631499
 20
-791.2898647813592
 30
4.185207900610024
 10
-1035.343953622426
 20
-795.0046729635675
 30
4.185207900610024
 10
-1033.229258942503
 20
-800.7697978121045
 30
4.185207900610024
 10
-1029.650729973965
 20
-805.2668902498151
 30
4.185207900610024
 10
-1025.872540046306
 20
-808.5520560175647
 30
4.185207900610024
 10
-1023.734684120939
 20
-809.9851116540996
 30
4.185207900610024
 10
-1022.631846490036
 20
-810.6320872745234
 30
4.185207900610024
  0
SPLINE
  5
54F
330
1F
100
AcDbEntity
  8
Default
100
AcDbSpline
210
0.0
220
0.0
230
1.0
 70
     8
 71
     3
 72
    12
 73
     8
 74
     0
 42
0.000000001
 43
0.0000000001
 40
0.0
 40
0.0
 40
0.0
 40
0.0
 40
0.1510110321465192
 40
0.3037660471064116
 40
0.5900965017365678
 40
0.8249401141264362
 40
1.014583801502342
 40
1.014583801502342
 40
1.014583801502342
 40
1.014583801502342
 10
-1010.638535752868
 20
-794.1247112092922
 30
4.185207900610024
 10
-1011.594641702541
 20
-793.2757767556638
 30
4.185207900610024
 10
-1013.618192416345
 20
-791.6853934925163
 30
4.185207900610024
 10
-1017.910095622495
 20
-789.1072933935897
 30
4.185207900610024
 10
-1023.292910955903
 20
-787.0935880878386
 30
4.185207900610024
 10
-1029.429347104369
 20
-786.8639154854138
 30
4.185207900610024
 10
-1032.756185746226
 20
-788.646330767533
 30
4.185207900610024
 10
-1033.69075916268
 20
-789.9868037206662
 30
4.185207900610024
  0
SPLINE
  5
550
330
1F
100
AcDbEntity
  8
Default
100
AcDbSpline
210
0.0
220
0.0
230
1.0
 70
    12
 71
     2
 72
     6
 73
     3
 74
     0
 42
0.000000001
 43
0.0000000001
 40
0.0
 40
0.0
 40
0.0
 40
0.0853474550214741
 40
0.0853474550214741
 40
0.0853474550214741
 10
-1023.395883790584
 20
-810.1698937441971
 30
4.185207900610024
 41
1.0
 10
-1024.315188224269
 20
-809.5957310448332
 30
4.185207900610024
 41
0.9993970637774639
 10
-1025.192429875429
 20
-808.9591538440146
 30
4.185207900610024
 41
1.0
  0
SPLINE
  5
551
330
1F
100
AcDbEntity
  8
Default
100
AcDbSpline
210
0.0
220
0.0
230
1.0
 70
    12
 71
     2
 72
     6
 73
     3
 74
     0
 42
0.000000001
 43
0.0000000001
 40
0.0
 40
0.0
 40
0.0
 40
0.0853474550214741
 40
0.0853474550214741
 40
0.0853474550214741
 10
-534.3600740085439
 20
-717.9987803615676
 30
4.185207900610024
 41
1.0
 10
-533.7859113091799
 20
-717.079475927883
 30
4.185207900610024
 41
0.9993970637774639
 10
-533.1493341083615
 20
-716.2022342767222
 30
4.185207900610024
 41
1.0
  0
SPLINE
  5
552
330
1F
100
AcDbEntity
  8
Default
100
AcDbSpline
210
0.0
220
0.0
230
1.0
 70
    12
 71
     2
 72
     6
 73
     3
 74
     0
 42
0.000000001
 43
0.0000000001
 40
-0.1297405451143296
 40
-0.1297405451143296
 40
-0.1297405451143296
 40
0.0
 40
0.0
 40
0.0
 10
-537.8034750995592
 20
-724.4311628120709
 30
4.185207900610024
 41
0.9999960316975588
 10
-538.7951698090656
 20
-725.7461152550448
 30
4.185207900610024
 41
0.999996865512317
 10
-539.7908489819069
 20
-727.0580532524047
 30
4.185207900610024
 41
1.0
  0
ARC
  5
553
330
1F
100
AcDbEntity
  8
Default
100
AcDbCircle
 10
-547.9387189724713
 20
-716.787488866272
 30
4.185207900610024
 40
12.69444444444444
100
AcDbArc
 50
322.9775798079558
 51
335.7179678781667
  0
SPLINE
  5
554
330
1F
100
AcDbEntity
  8
Default
100
AcDbSpline
210
0.0
220
0.0
230
1.0
 70
     8
 71
     3
 72
    14
 73
    10
 74
     0
 42
0.000000001
 43
0.0000000001
 40
-7.0
 40
-7.0
 40
-7.0
 40
-7.0
 40
-6.0
 40
-5.0
 40
-4.0
 40
-3.0
 40
-2.0
 40
-1.0
 40
-0.2482205602640466
 40
-0.2482205602640466
 40
-0.2482205602640466
 40
-0.2482205602640466
 10
-514.4029631112977
 20
-708.0149171247992
 30
4.185207900610024
 10
-515.5596812197692
 20
-707.1585854827695
 30
4.185207900610024
 10
-518.4530306188722
 20
-706.4755622727481
 30
4.185207900610024
 10
-522.66893076358
 20
-707.5223536164754
 30
4.185207900610024
 10
-526.4129631928211
 20
-709.6308862106041
 30
4.185207900610024
 10
-529.7095917200382
 20
-712.3744802140821
 30
4.185207900610024
 10
-532.5833700434936
 20
-715.5517801811607
 30
4.185207900610024
 10
-534.7948808956437
 20
-718.8026477077993
 30
4.185207900610024
 10
-535.9267285912799
 20
-721.0311814582601
 30
4.185207900610024
 10
-536.3673230572945
 20
-722.007806512481
 30
4.185207900610024
  0
SPLINE
  5
555
330
1F
100
AcDbEntity
  8
Default
100
AcDbSpline
210
0.0
220
0.0
230
1.0
 70
     8
 71
     3
 72
    14
 73
    10
 74
     0
 42
0.000000001
 43
0.0000000001
 40
0.2772630823298201
 40
0.2772630823298201
 40
0.2772630823298201
 40
0.2772630823298201
 40
1.0
 40
2.0
 40
3.0
 40
4.0
 40
5.0
 40
6.0
 40
7.0
 40
7.0
 40
7.0
 40
7.0
 10
-520.8319134119371
 20
-733.1446010685322
 30
4.185207900610024
 10
-520.0723425273357
 20
-732.4488958620939
 30
4.185207900610024
 10
-518.335837346452
 20
-730.7095750237018
 30
4.185207900610024
 10
-515.952891126774
 20
-727.6345303752542
 30
4.185207900610024
 10
-513.8191456288733
 20
-723.9195650882899
 30
4.185207900610024
 10
-512.2285469128487
 20
-719.9364678729357
 30
4.185207900610024
 10
-511.3801828975083
 20
-715.7241090291062
 30
4.185207900610024
 10
-511.6874099601577
 20
-711.391073409656
 30
4.185207900610024
 10
-513.2310977698166
 20
-708.8504003891695
 30
4.185207900610024
 10
-514.4029631112977
 20
-708.0149171247992
 30
4.185207900610024
  0
ARC
  5
556
330
1F
100
AcDbEntity
  8
Default
100
AcDbCircle
 10
-512.2577699757916
 20
-742.5058501352696
 30
4.185207900610024
 40
12.69444444444444
100
AcDbArc
 50
132.4871521735349
 51
144.9422552251325
  0
SPLINE
  5
557
330
1F
100
AcDbEntity
  8
Default
100
AcDbSpline
210
0.0
220
0.0
230
1.0
 70
    12
 71
     2
 72
     6
 73
     3
 74
     0
 42
0.000000001
 43
0.0000000001
 40
0.0
 40
0.0
 40
0.0
 40
0.1369528492222414
 40
0.1369528492222414
 40
0.1369528492222414
 10
-524.6790599646031
 20
-738.0374106477203
 30
4.185207900610024
 41
1.0
 10
-523.6867745709871
 20
-736.6098993850492
 30
4.185207900610024
 41
0.9999966913238282
 10
-522.6491065204518
 20
-735.2141394602162
 30
4.185207900610024
 41
0.9999959461296658
  0
SPLINE
  5
558
330
1F
100
AcDbEntity
  8
Default
100
AcDbSpline
210
0.0
220
0.0
230
1.0
 70
     8
 71
     3
 72
    12
 73
     8
 74
     0
 42
0.000000001
 43
0.0000000001
 40
-1.014583801502342
 40
-1.014583801502342
 40
-1.014583801502342
 40
-1.014583801502342
 40
-0.8249401141264362
 40
-0.5900965017365678
 40
-0.3037660471064116
 40
-0.1510110321465192
 40
0.0
 40
0.0
 40
0.0
 40
0.0
 10
-514.1769839850134
 20
-707.7039049894712
 30
4.185207900610024
 10
-515.4800450457063
 20
-706.7178385206523
 30
4.185207900610024
 10
-519.1948532279143
 20
-706.0507105297247
 30
4.185207900610024
 10
-524.9599780764516
 20
-708.1654052096487
 30
4.185207900610024
 10
-529.4570705141622
 20
-711.7439341781865
 30
4.185207900610024
 10
-532.7422362819119
 20
-715.5221241058447
 30
4.185207900610024
 10
-534.1752919184466
 20
-717.6599800312126
 30
4.185207900610024
 10
-534.8222675388702
 20
-718.7628176621152
 30
4.185207900610024
  0
SPLINE
  5
559
330
1F
100
AcDbEntity
  8
Default
100
AcDbSpline
210
0.0
220
0.0
230
1.0
 70
     8
 71
     3
 72
    12
 73
     8
 74
     0
 42
0.000000001
 43
0.0000000001
 40
0.0
 40
0.0
 40
0.0
 40
0.0
 40
0.1510110321465192
 40
0.3037660471064116
 40
0.5900965017365678
 40
0.8249401141264362
 40
1.014583801502342
 40
1.014583801502342
 40
1.014583801502342
 40
1.014583801502342
 10
-518.3148914736388
 20
-730.7561283992836
 30
4.185207900610024
 10
-517.4659570200105
 20
-729.8000224496105
 30
4.185207900610024
 10
-515.8755737568632
 20
-727.7764717358069
 30
4.185207900610024
 10
-513.2974736579366
 20
-723.4845685296561
 30
4.185207900610024
 10
-511.2837683521854
 20
-718.1017531962485
 30
4.185207900610024
 10
-511.0540957497607
 20
-711.965317047781
 30
4.185207900610024
 10
-512.8365110318805
 20
-708.6384784059256
 30
4.185207900610024
 10
-514.1769839850134
 20
-707.7039049894712
 30
4.185207900610024
  0
CIRCLE
  5
55A
330
1F
100
AcDbEntity
  8
Default
100
AcDbCircle
 10
887.9232292354112
 20
-614.3656379599981
 30
4.185207900610024
 40
199.9375
  0
SPLINE
  5
55B
330
1F
100
AcDbEntity
  8
Default
100
AcDbSpline
210
0.0
220
0.0
230
1.0
 70
     8
 71
     3
 72
    21
 73
    17
 74
     0
 42
0.000000001
 43
0.0000000001
 40
0.0
 40
0.0
 40
0.0
 40
0.0
 40
0.2588469591229587
 40
0.6477254461891114
 40
1.024641027840087
 40
1.817983982162573
 40
2.582167143679937
 40
4.062052734317923
 40
7.850412104674
 40
9.497260537102542
 40
10.543391206404
 40
10.8432833113025
 40
12.15829953678302
 40
13.34949093133962
 40
14.77372714428499
 40
15.46884750610318
 40
15.46884750610318
 40
15.46884750610318
 40
15.46884750610318
 10
1089.501067481951
 20
-1165.30470509182
 30
4.185207900610024
 10
1088.045400227287
 20
-1163.646888446845
 30
4.185207900610024
 10
1085.64059983447
 20
-1158.66390668448
 30
4.185207900610024
 10
1083.444420623061
 20
-1150.262880499617
 30
4.185207900610024
 10
1081.052856001867
 20
-1137.282123765201
 30
4.185207900610024
 10
1078.921648572368
 20
-1121.04588227384
 30
4.185207900610024
 10
1074.443619989132
 20
-1095.72890808538
 30
4.185207900610024
 10
1064.743190256091
 20
-1045.605008337251
 30
4.185207900610024
 10
1050.982740503783
 20
-988.6959875550953
 30
4.185207900610024
 10
1036.939362263491
 20
-935.6826747363371
 30
4.185207900610024
 10
1030.189063310349
 20
-911.2685694567803
 30
4.185207900610024
 10
1023.922545345366
 20
-889.6251448292142
 30
4.185207900610024
 10
1013.808906949126
 20
-867.9941120373783
 30
4.185207900610024
 10
995.6960094090879
 20
-840.0900630793133
 30
4.185207900610024
 10
978.9705145069911
 20
-817.5775139538174
 30
4.185207900610024
 10
967.3815772167401
 20
-803.8811188149965
 30
4.185207900610024
 10
963.4840252264906
 20
-799.4752541754847
 30
4.185207900610024
  0
SPLINE
  5
55C
330
1F
100
AcDbEntity
  8
Default
100
AcDbSpline
210
0.0
220
0.0
230
1.0
 70
     8
 71
     3
 72
    10
 73
     6
 74
     0
 42
0.000000001
 43
0.0000000001
 40
-6.708248473681532
 40
-6.708248473681532
 40
-6.708248473681532
 40
-6.708248473681532
 40
-3.774519558109396
 40
-1.88935509827327
 40
0.0
 40
0.0
 40
0.0
 40
0.0
 10
721.7477711796822
 20
-725.5444176178979
 30
4.185207900610024
 10
696.962524030538
 20
-724.1491685945167
 30
4.185207900610024
 10
655.8908418352624
 20
-728.1103484424903
 30
4.185207900610024
 10
602.1951509232025
 20
-747.3018781223979
 30
4.185207900610024
 10
574.5447696936339
 20
-763.5933652706455
 30
4.185207900610024
 10
561.6090211591084
 20
-772.9896100250949
 30
4.185207900610024
  0
SPLINE
  5
55D
330
1F
100
AcDbEntity
  8
Default
100
AcDbSpline
210
0.0
220
0.0
230
1.0
 70
     8
 71
     3
 72
     8
 73
     4
 74
     0
 42
0.000000001
 43
0.0000000001
 40
-14.89017236839833
 40
-14.89017236839833
 40
-14.89017236839833
 40
-14.89017236839833
 40
-14.55234360913006
 40
-14.55234360913006
 40
-14.55234360913006
 40
-14.55234360913006
 10
898.5975428700301
 20
-821.0713098056697
 30
4.185207900610024
 10
896.9174404261949
 20
-818.7575434911938
 30
4.185207900610024
 10
895.1934322117116
 20
-816.4758041400803
 30
4.185207900610024
 10
893.4270488723406
 20
-814.2273698539613
 30
4.185207900610024
  0
SPLINE
  5
55E
330
1F
100
AcDbEntity
  8
Default
100
AcDbSpline
210
0.0
220
0.0
230
1.0
 70
     8
 71
     3
 72
    34
 73
    30
 74
     0
 42
0.000000001
 43
0.0000000001
 40
49.54977648871967
 40
49.54977648871967
 40
49.54977648871967
 40
49.54977648871967
 40
50.0
 40
51.0
 40
52.0
 40
53.0
 40
53.0
 40
53.0
 40
54.0
 40
55.0
 40
56.0
 40
57.0
 40
58.0
 40
59.0
 40
60.0
 40
60.0
 40
60.0
 40
61.0
 40
62.0
 40
63.0
 40
64.0
 40
65.0
 40
66.0
 40
67.0
 40
68.0
 40
69.0
 40
70.0
 40
71.0
 40
72.0
 40
72.0
 40
72.0
 40
72.0
 10
956.5009840213992
 20
-802.174305104949
 30
4.185207900610024
 10
959.7187152065764
 20
-806.0456518247484
 30
4.185207900610024
 10
969.8895103787297
 20
-818.6758143367793
 30
4.185207900610024
 10
986.0397369482869
 20
-840.8020174615794
 30
4.185207900610024
 10
1004.65712995072
 20
-868.7637141055249
 30
4.185207900610024
 10
1014.078369324509
 20
-889.1421802632178
 30
4.185207900610024
 10
1017.587708829934
 20
-899.7656688226134
 30
4.185207900610024
 10
1021.052893217809
 20
-910.1885929497816
 30
4.185207900610024
 10
1027.88087318929
 20
-931.0689013656132
 30
4.185207900610024
 10
1037.597265118139
 20
-962.5569197189106
 30
4.185207900610024
 10
1046.699507081778
 20
-994.2282214429221
 30
4.185207900610024
 10
1055.098245133026
 20
-1026.094301021502
 30
4.185207900610024
 10
1062.67404430487
 20
-1058.165454287952
 30
4.185207900610024
 10
1069.389202582817
 20
-1090.431390042143
 30
4.185207900610024
 10
1072.972547415785
 20
-1112.109325517812
 30
4.185207900610024
 10
1074.606934340391
 20
-1122.970659915023
 30
4.185207900610024
 10
1074.946613802215
 20
-1125.198356015643
 30
4.185207900610024
 10
1075.637574919705
 20
-1129.652079126154
 30
4.185207900610024
 10
1076.81455489079
 20
-1136.309936354697
 30
4.185207900610024
 10
1078.222675728395
 20
-1142.92310398246
 30
4.185207900610024
 10
1080.000603594712
 20
-1149.451923601813
 30
4.185207900610024
 10
1082.350483604822
 20
-1155.792527743067
 30
4.185207900610024
 10
1085.564107229596
 20
-1161.801781249576
 30
4.185207900610024
 10
1090.452566850892
 20
-1166.57822174027
 30
4.185207900610024
 10
1096.437827292183
 20
-1169.795772808589
 30
4.185207900610024
 10
1102.389248869142
 20
-1172.985370378775
 30
4.185207900610024
 10
1108.606671626407
 20
-1175.668282726404
 30
4.185207900610024
 10
1115.033217210313
 20
-1177.778336539768
 30
4.185207900610024
 10
1124.534242393429
 20
-1179.476945352376
 30
4.185207900610024
 10
1126.712259526704
 20
-1180.055486907838
 30
4.185207900610024
  0
SPLINE
  5
55F
330
1F
100
AcDbEntity
  8
Default
100
AcDbSpline
210
0.0
220
0.0
230
1.0
 70
     8
 71
     3
 72
    12
 73
     8
 74
     0
 42
0.000000001
 43
0.0000000001
 40
36.00001859054296
 40
36.00001859054296
 40
36.00001859054296
 40
36.00001859054296
 40
37.0
 40
38.0
 40
39.0
 40
40.0
 40
40.99791129719946
 40
40.99791129719946
 40
40.99791129719946
 40
40.99791129719946
 10
552.313353559168
 20
-760.1941137154536
 30
4.185207900610024
 10
561.3472356140792
 20
-753.6072309616677
 30
4.185207900610024
 10
579.9771015568799
 20
-741.2029819938306
 30
4.185207900610024
 10
609.4331020244189
 20
-725.0924399469639
 30
4.185207900610024
 10
640.2487598249603
 20
-711.7495398121244
 30
4.185207900610024
 10
672.2180035016455
 20
-701.5350905793982
 30
4.185207900610024
 10
694.1429523639031
 20
-697.059722032732
 30
4.185207900610024
 10
705.1893743491429
 20
-695.5034354692614
 30
4.185207900610024
  0
SPLINE
  5
560
330
1F
100
AcDbEntity
  8
Default
100
AcDbSpline
210
0.0
220
0.0
230
1.0
 70
     8
 71
     3
 72
    12
 73
     8
 74
     0
 42
0.000000001
 43
0.0000000001
 40
0.0
 40
0.0
 40
0.0
 40
0.0
 40
1.918305221504867
 40
3.868777778011241
 40
7.624449324857683
 40
11.42846767657462
 40
15.35241906764609
 40
15.35241906764609
 40
15.35241906764609
 40
15.35241906764609
 10
847.9227554650631
 20
-1167.06665572638
 30
4.185207900610024
 10
861.0634252139465
 20
-1157.536054461458
 30
4.185207900610024
 10
885.6944759252705
 20
-1135.723703759983
 30
4.185207900610024
 10
924.9790448052303
 20
-1084.144449299748
 30
4.185207900610024
 10
952.9432134498151
 20
-1006.877464014087
 30
4.185207900610024
 10
947.0764900762594
 20
-907.9013650868308
 30
4.185207900610024
 10
918.1083333266007
 20
-847.9246867306439
 30
4.185207900610024
 10
898.5975428700301
 20
-821.0713098056697
 30
4.185207900610024
  0
SPLINE
  5
561
330
1F
100
AcDbEntity
  8
Default
100
AcDbSpline
210
0.0
220
0.0
230
1.0
 70
     8
 71
     3
 72
    47
 73
    43
 74
     0
 42
0.000000001
 43
0.0000000001
 40
36.00001859054296
 40
36.00001859054296
 40
36.00001859054296
 40
36.00001859054296
 40
37.0
 40
38.0
 40
39.0
 40
40.0
 40
41.0
 40
42.0
 40
43.0
 40
44.0
 40
45.0
 40
46.0
 40
47.0
 40
48.0
 40
49.0
 40
50.0
 40
51.0
 40
52.0
 40
53.0
 40
53.0
 40
53.0
 40
54.0
 40
55.0
 40
56.0
 40
57.0
 40
58.0
 40
59.0
 40
60.0
 40
60.0
 40
60.0
 40
61.0
 40
62.0
 40
63.0
 40
64.0
 40
65.0
 40
66.0
 40
67.0
 40
68.0
 40
69.0
 40
70.0
 40
71.0
 40
72.0
 40
72.0
 40
72.0
 40
72.0
 10
552.313353559168
 20
-760.1941137154536
 30
4.185207900610024
 10
543.2572327139614
 20
-766.7503874003436
 30
4.185207900610024
 10
525.7031457240998
 20
-780.6353190694299
 30
4.185207900610024
 10
501.2787049985942
 20
-803.6712089770018
 30
4.185207900610024
 10
479.0662909258696
 20
-828.8554582362152
 30
4.185207900610024
 10
459.4590816183124
 20
-856.1225616466138
 30
4.185207900610024
 10
442.8976979768724
 20
-885.3584990678209
 30
4.185207900610024
 10
430.0512492720692
 20
-916.4051386482444
 30
4.185207900610024
 10
420.9063238890315
 20
-948.7437919067291
 30
4.185207900610024
 10
416.0895735873292
 20
-982.0102039016481
 30
4.185207900610024
 10
415.5321513623371
 20
-1015.616342030034
 30
4.185207900610024
 10
419.6047028658823
 20
-1049.004983268789
 30
4.185207900610024
 10
428.7021631049955
 20
-1081.378978363966
 30
4.185207900610024
 10
441.7190815088475
 20
-1112.341020642575
 30
4.185207900610024
 10
457.4415177720891
 20
-1141.996605572704
 30
4.185207900610024
 10
475.2927808428393
 20
-1170.423923558452
 30
4.185207900610024
 10
494.9472023057913
 20
-1197.601629065298
 30
4.185207900610024
 10
515.7872652769749
 20
-1223.948461451226
 30
4.185207900610024
 10
532.2570152337738
 20
-1239.205884911267
 30
4.185207900610024
 10
541.276107707766
 20
-1245.826303620195
 30
4.185207900610024
 10
550.1180967532635
 20
-1252.342750498822
 30
4.185207900610024
 10
567.866488285953
 20
-1265.288915492115
 30
4.185207900610024
 10
594.8108430960562
 20
-1284.260086141283
 30
4.185207900610024
 10
622.1192935265499
 20
-1302.703803140393
 30
4.185207900610024
 10
649.8303833693999
 20
-1320.538637826574
 30
4.185207900610024
 10
677.9908119784856
 20
-1337.654182383637
 30
4.185207900610024
 10
706.6024424040664
 20
-1354.011399909287
 30
4.185207900610024
 10
726.1120697479348
 20
-1364.118213827759
 30
4.185207900610024
 10
735.9367592669753
 20
-1369.028945072881
 30
4.185207900610024
 10
737.9504574334522
 20
-1370.040395391894
 30
4.185207900610024
 10
741.9726810917203
 20
-1372.073814594578
 30
4.185207900610024
 10
747.9409727803856
 20
-1375.250580095369
 30
4.185207900610024
 10
753.7953356771678
 20
-1378.633363777333
 30
4.185207900610024
 10
759.455202194404
 20
-1382.341789875686
 30
4.185207900610024
 10
764.7593222223262
 20
-1386.536013006065
 30
4.185207900610024
 10
769.4813976141808
 20
-1391.449312152344
 30
4.185207900610024
 10
772.5134453682557
 20
-1397.574514814069
 30
4.185207900610024
 10
773.723971086174
 20
-1404.261113718862
 30
4.185207900610024
 10
774.9183682316882
 20
-1410.906891845252
 30
4.185207900610024
 10
775.5486802093404
 20
-1417.649077782947
 30
4.185207900610024
 10
775.5695488377218
 20
-1424.413128325164
 30
4.185207900610024
 10
774.2490435720219
 20
-1433.974039226942
 30
4.185207900610024
 10
774.1262249800699
 20
-1436.224235786735
 30
4.185207900610024
  0
SPLINE
  5
562
330
1F
100
AcDbEntity
  8
Default
100
AcDbSpline
210
0.0
220
0.0
230
1.0
 70
     8
 71
     3
 72
    12
 73
     8
 74
     0
 42
0.000000001
 43
0.0000000001
 40
-14.89017236839833
 40
-14.89017236839833
 40
-14.89017236839833
 40
-14.89017236839833
 40
-11.21816917573749
 40
-7.516682162771167
 40
-3.774519558109396
 40
-1.88935509827327
 40
0.0
 40
0.0
 40
0.0
 40
0.0
 10
503.2033082141375
 20
-1108.342036611307
 30
4.185207900610024
 10
484.9280897517904
 20
-1083.202526642386
 30
4.185207900610024
 10
458.6757793017817
 20
-1025.163274730881
 30
4.185207900610024
 10
456.5142910764447
 20
-929.2341606190118
 30
4.185207900610024
 10
485.59337343252
 20
-854.2273579619283
 30
4.185207900610024
 10
524.637785793326
 20
-803.6506022492932
 30
4.185207900610024
 10
548.6763485066883
 20
-782.3878733953163
 30
4.185207900610024
 10
561.6100744412409
 20
-772.9888447708319
 30
4.185207900610024
  0
SPLINE
  5
563
330
1F
100
AcDbEntity
  8
Default
100
AcDbSpline
210
0.0
220
0.0
230
1.0
 70
     8
 71
     3
 72
    12
 73
     8
 74
     0
 42
0.000000001
 43
0.0000000001
 40
0.0
 40
0.0
 40
0.0
 40
0.0
 40
1.918305221504867
 40
3.868777778011241
 40
7.624449324857683
 40
11.42846767657462
 40
15.35241906764609
 40
15.35241906764609
 40
15.35241906764609
 40
15.35241906764609
 10
847.9238070542974
 20
-1167.065891702079
 30
4.185207900610024
 10
834.7989763472085
 20
-1176.618293537765
 30
4.185207900610024
 10
806.4427848177455
 20
-1193.303427765944
 30
4.185207900610024
 10
745.2483993570917
 20
-1214.726406803674
 30
4.185207900610024
 10
663.1217261619391
 20
-1217.445100058494
 30
4.185207900610024
 10
570.8027795434237
 20
-1181.280217959314
 30
4.185207900610024
 10
522.7132214983954
 20
-1135.19605083927
 30
4.185207900610024
 10
503.2033082141375
 20
-1108.342036611307
 30
4.185207900610024
  0
SPLINE
  5
564
330
1F
100
AcDbEntity
  8
Default
100
AcDbSpline
210
0.0
220
0.0
230
1.0
 70
    12
 71
     2
 72
     6
 73
     3
 74
     0
 42
0.000000001
 43
0.0000000001
 40
0.0
 40
0.0
 40
0.0
 40
1.278324852146924
 40
1.278324852146924
 40
1.278324852146924
 10
540.8781675365478
 20
-728.5162862205531
 30
4.185207900610024
 41
1.0
 10
550.5606923679797
 20
-741.5387470969724
 30
4.185207900610024
 41
0.9999999996076647
 10
560.2434684402827
 20
-754.5610211657677
 30
4.185207900610024
 41
0.9999999993083845
  0
SPLINE
  5
565
330
1F
100
AcDbEntity
  8
Default
100
AcDbSpline
210
0.0
220
0.0
230
1.0
 70
     8
 71
     3
 72
    14
 73
    10
 74
     0
 42
0.000000001
 43
0.0000000001
 40
0.0
 40
0.0
 40
0.0
 40
0.0
 40
1.0
 40
2.0
 40
3.0
 40
4.0
 40
5.0
 40
6.0
 40
7.0
 40
7.0
 40
7.0
 40
7.0
 10
525.6570253955199
 20
-739.4533659206942
 30
4.185207900610024
 10
524.6294044133064
 20
-737.9936179206083
 30
4.185207900610024
 10
523.0669524112496
 20
-734.966372538616
 30
4.185207900610024
 10
522.1073233725478
 20
-729.9401518509066
 30
4.185207900610024
 10
523.3694886751062
 20
-724.7924420184435
 30
4.185207900610024
 10
527.7987686678947
 20
-721.6803699380243
 30
4.185207900610024
 10
533.0652026527393
 20
-722.1839515933965
 30
4.185207900610024
 10
537.5154235256618
 20
-724.7058711000224
 30
4.185207900610024
 10
539.8861545571113
 20
-727.1521865395721
 30
4.185207900610024
 10
540.8781675365478
 20
-728.5162862205531
 30
4.185207900610024
  0
SPLINE
  5
566
330
1F
100
AcDbEntity
  8
Default
100
AcDbSpline
210
0.0
220
0.0
230
1.0
 70
    12
 71
     2
 72
     6
 73
     3
 74
     0
 42
0.000000001
 43
0.0000000001
 40
-1.281345128275034
 40
-1.281345128275034
 40
-1.281345128275034
 40
0.0
 40
0.0
 40
0.0
 10
544.4989088146448
 20
-766.0003834383648
 30
4.185207900610024
 41
0.9999999993069707
 10
535.0784647569254
 20
-752.7273752917901
 30
4.185207900610024
 41
0.9999999996067375
 10
525.6570253955199
 20
-739.4533659206942
 30
4.185207900610024
 41
1.0
  0
SPLINE
  5
567
330
1F
100
AcDbEntity
  8
Default
100
AcDbSpline
210
0.0
220
0.0
230
1.0
 70
    12
 71
     2
 72
     6
 73
     3
 74
     0
 42
0.000000001
 43
0.0000000001
 40
0.0
 40
0.0
 40
0.0
 40
1.112498698414412
 40
1.112498698414412
 40
1.112498698414412
 10
452.7064674014686
 20
-1200.516496760773
 30
4.185207900610024
 41
1.0
 10
464.0396357663804
 20
-1192.090003093148
 30
4.185207900610024
 41
0.9999999996585591
 10
475.3726626462834
 20
-1183.663319139339
 30
4.185207900610024
 41
0.9999999993875963
  0
SPLINE
  5
568
330
1F
100
AcDbEntity
  8
Default
100
AcDbSpline
210
0.0
220
0.0
230
1.0
 70
     8
 71
     3
 72
    14
 73
    10
 74
     0
 42
0.000000001
 43
0.0000000001
 40
0.0
 40
0.0
 40
0.0
 40
0.0
 40
1.0
 40
2.0
 40
3.0
 40
4.0
 40
5.0
 40
6.0
 40
7.0
 40
7.0
 40
7.0
 40
7.0
 10
463.6435471016097
 20
-1215.737638901802
 30
4.185207900610024
 10
462.1837991015239
 20
-1216.765259884015
 30
4.185207900610024
 10
459.1565537195318
 20
-1218.327711886072
 30
4.185207900610024
 10
454.1303330318221
 20
-1219.287340924774
 30
4.185207900610024
 10
448.9826231993592
 20
-1218.025175622215
 30
4.185207900610024
 10
445.8705511189396
 20
-1213.595895629427
 30
4.185207900610024
 10
446.3741327743118
 20
-1208.329461644582
 30
4.185207900610024
 10
448.8960522809382
 20
-1203.87924077166
 30
4.185207900610024
 10
451.3423677204878
 20
-1201.50850974021
 30
4.185207900610024
 10
452.7064674014686
 20
-1200.516496760773
 30
4.185207900610024
  0
SPLINE
  5
569
330
1F
100
AcDbEntity
  8
Default
100
AcDbSpline
210
0.0
220
0.0
230
1.0
 70
    12
 71
     2
 72
     6
 73
     3
 74
     0
 42
0.000000001
 43
0.0000000001
 40
-1.102413928352738
 40
-1.102413928352738
 40
-1.102413928352738
 40
0.0
 40
0.0
 40
0.0
 10
486.4835730663538
 20
-1199.5267777684
 30
4.185207900610024
 41
0.9999999993925147
 10
475.0639306439249
 20
-1207.631839966463
 30
4.185207900610024
 41
0.9999999996616539
 10
463.6435471016097
 20
-1215.737638901802
 30
4.185207900610024
 41
1.0
  0
SPLINE
  5
56A
330
1F
100
AcDbEntity
  8
Default
100
AcDbSpline
210
0.0
220
0.0
230
1.0
 70
    12
 71
     2
 72
     6
 73
     3
 74
     0
 42
0.000000001
 43
0.0000000001
 40
0.0
 40
0.0
 40
0.0
 40
5.654573080352872
 40
5.654573080352872
 40
5.654573080352872
 10
982.7720750251062
 20
-1352.667714279435
 30
4.185207900610024
 41
1.0
 10
1040.878772101084
 20
-1310.257912036879
 30
4.185207900610024
 41
0.9967681786255456
 10
1091.443460274792
 20
-1259.090380310113
 30
4.185207900610024
 41
1.0
  0
SPLINE
  5
56B
330
1F
100
AcDbEntity
  8
Default
100
AcDbSpline
210
0.0
220
0.0
230
1.0
 70
    12
 71
     2
 72
     6
 73
     3
 74
     0
 42
0.000000001
 43
0.0000000001
 40
-5.654573080352872
 40
-5.654573080352872
 40
-5.654573080352872
 40
0.0
 40
0.0
 40
0.0
 10
860.1934369316342
 20
-1427.10335687115
 30
4.185207900610024
 41
1.0
 10
924.4819993640605
 20
-1394.825117552902
 30
4.185207900610024
 41
0.9967681786255456
 10
982.7720750251062
 20
-1352.667714279435
 30
4.185207900610024
 41
1.0
  0
SPLINE
  5
56C
330
1F
100
AcDbEntity
  8
Default
100
AcDbSpline
210
0.0
220
0.0
230
1.0
 70
    12
 71
     2
 72
     6
 73
     3
 74
     0
 42
0.000000001
 43
0.0000000001
 40
0.0
 40
0.0
 40
0.0
 40
0.443505275079806
 40
0.443505275079806
 40
0.443505275079806
 10
775.8062374959271
 20
-1447.427022121431
 30
4.185207900610024
 41
1.0
 10
773.8152131553639
 20
-1441.92237746777
 30
4.185207900610024
 41
0.9799943751373794
 10
774.1262249800699
 20
-1436.224235786735
 30
4.185207900610024
 41
1.0
  0
SPLINE
  5
56D
330
1F
100
AcDbEntity
  8
Default
100
AcDbSpline
210
0.0
220
0.0
230
1.0
 70
     8
 71
     3
 72
    12
 73
     8
 74
     0
 42
0.000000001
 43
0.0000000001
 40
0.0
 40
0.0
 40
0.0
 40
0.0
 40
0.8495817757806477
 40
1.391422022197968
 40
2.191064820612614
 40
2.689385262996221
 40
3.111933853859593
 40
3.111933853859593
 40
3.111933853859593
 40
3.111933853859593
 10
846.9212037813461
 20
-1433.820321833089
 30
4.185207900610024
 10
840.4270521783633
 20
-1436.967123528608
 30
4.185207900610024
 10
830.0078946764905
 20
-1442.341593722226
 30
4.185207900610024
 10
813.0235060554666
 20
-1449.929589498969
 30
4.185207900610024
 10
798.5119388349179
 20
-1455.464987684981
 30
4.185207900610024
 10
783.5801565891873
 20
-1456.746793505047
 30
4.185207900610024
 10
776.9738897005681
 20
-1450.9239378055
 30
4.185207900610024
 10
775.8062374959271
 20
-1447.427022121431
 30
4.185207900610024
  0
SPLINE
  5
56E
330
1F
100
AcDbEntity
  8
Default
100
AcDbSpline
210
0.0
220
0.0
230
1.0
 70
    12
 71
     2
 72
     6
 73
     3
 74
     0
 42
0.000000001
 43
0.0000000001
 40
-6.233889429224446
 40
-6.233889429224446
 40
-6.233889429224446
 40
0.0
 40
0.0
 40
0.0
 10
981.7635380292841
 20
-1351.279582192259
 30
4.185207900610024
 41
1.0
 10
917.6877260421866
 20
-1398.015482332165
 30
4.185207900610024
 41
0.996730330589404
 10
846.9212037813461
 20
-1433.820321833089
 30
4.185207900610024
 41
1.0
  0
SPLINE
  5
56F
330
1F
100
AcDbEntity
  8
Default
100
AcDbSpline
210
0.0
220
0.0
230
1.0
 70
    12
 71
     2
 72
     6
 73
     3
 74
     0
 42
0.000000001
 43
0.0000000001
 40
0.0
 40
0.0
 40
0.0
 40
6.233889429224446
 40
6.233889429224446
 40
6.233889429224446
 10
1101.932067555017
 20
-1248.544084198136
 30
4.185207900610024
 41
0.9999999519924591
 10
1046.012062012384
 20
-1304.782393530532
 30
4.185207900610024
 41
0.9967303545933507
 10
981.7635380292841
 20
-1351.279582192259
 30
4.185207900610024
 41
1.0
  0
SPLINE
  5
570
330
1F
100
AcDbEntity
  8
Default
100
AcDbSpline
210
0.0
220
0.0
230
1.0
 70
     8
 71
     3
 72
    12
 73
     8
 74
     0
 42
0.000000001
 43
0.0000000001
 40
-3.111933853859593
 40
-3.111933853859593
 40
-3.111933853859593
 40
-3.111933853859593
 40
-2.689379093202719
 40
-2.191051374651839
 40
-1.391396900347014
 40
-0.8495487423131249
 40
0.0
 40
0.0
 40
0.0
 40
0.0
 10
1136.847590052817
 20
-1185.115125120273
 30
4.185207900610024
 10
1139.812530126332
 20
-1187.306234732537
 30
4.185207900610024
 10
1143.308946244873
 20
-1195.388529272297
 30
4.185207900610024
 10
1137.475701996837
 20
-1209.19339829511
 30
4.185207900610024
 10
1127.726904595578
 20
-1221.284186751758
 30
4.185207900610024
 10
1115.262085541855
 20
-1235.092194223125
 30
4.185207900610024
 10
1106.93124952602
 20
-1243.340346872106
 30
4.185207900610024
 10
1101.932067555017
 20
-1248.544084198135
 30
4.185207900610024
  0
SPLINE
  5
571
330
1F
100
AcDbEntity
  8
Default
100
AcDbSpline
210
0.0
220
0.0
230
1.0
 70
    12
 71
     2
 72
     6
 73
     3
 74
     0
 42
0.000000001
 43
0.0000000001
 40
-0.443505275079806
 40
-0.443505275079806
 40
-0.443505275079806
 40
0.0
 40
0.0
 40
0.0
 10
1126.712259526704
 20
-1180.055486907838
 30
4.185207900610024
 41
1.0
 10
1132.227622242511
 20
-1181.520519701102
 30
4.185207900610024
 41
0.9799943751373794
 10
1136.847590052817
 20
-1185.115125120273
 30
4.185207900610024
 41
1.0
  0
SPLINE
  5
572
330
1F
100
AcDbEntity
  8
Default
100
AcDbSpline
210
0.0
220
0.0
230
1.0
 70
     8
 71
     3
 72
    19
 73
    15
 74
     0
 42
0.000000001
 43
0.0000000001
 40
0.0
 40
0.0
 40
0.0
 40
0.0
 40
1.0
 40
2.0
 40
3.0
 40
4.0
 40
5.0
 40
6.0
 40
7.0
 40
8.0
 40
9.0
 40
10.0
 40
11.0
 40
12.0
 40
12.0
 40
12.0
 40
12.0
 10
973.8887592173222
 20
-1340.440879007765
 30
4.185207900610024
 10
979.0091958010018
 20
-1336.719653983215
 30
4.185207900610024
 10
989.2101773993625
 20
-1329.222210927358
 30
4.185207900610024
 10
1004.368669423018
 20
-1317.78390246239
 30
4.185207900610024
 10
1019.359798862119
 20
-1306.126902589348
 30
4.185207900610024
 10
1034.157956909486
 20
-1294.225576614705
 30
4.185207900610024
 10
1048.735734636963
 20
-1282.055360403766
 30
4.185207900610024
 10
1063.065834608273
 20
-1269.593066196786
 30
4.185207900610024
 10
1077.110034827427
 20
-1256.812973703354
 30
4.185207900610024
 10
1090.85789713522
 20
-1243.700826690471
 30
4.185207900610024
 10
1104.181199345749
 20
-1230.203170701902
 30
4.185207900610024
 10
1117.370950539789
 20
-1216.412591722678
 30
4.185207900610024
 10
1129.325527129649
 20
-1202.060357029184
 30
4.185207900610024
 10
1137.304142553479
 20
-1191.237968949029
 30
4.185207900610024
 10
1136.736525750028
 20
-1185.02334415807
 30
4.185207900610024
  0
SPLINE
  5
573
330
1F
100
AcDbEntity
  8
Default
100
AcDbSpline
210
0.0
220
0.0
230
1.0
 70
     8
 71
     3
 72
    19
 73
    15
 74
     0
 42
0.000000001
 43
0.0000000001
 40
-12.0
 40
-12.0
 40
-12.0
 40
-12.0
 40
-11.0
 40
-10.0
 40
-9.0
 40
-8.0
 40
-7.0
 40
-6.0
 40
-5.0
 40
-4.0
 40
-3.0
 40
-2.0
 40
-1.0
 40
0.0
 40
0.0
 40
0.0
 40
0.0
 10
775.7551725973808
 20
-1447.29164904039
 30
4.185207900610024
 10
781.4902287625922
 20
-1449.751909374142
 30
4.185207900610024
 10
794.2484592256439
 20
-1445.508097020783
 30
4.185207900610024
 10
811.5924128811121
 20
-1438.573703482995
 30
4.185207900610024
 10
828.7838901533216
 20
-1430.291027928442
 30
4.185207900610024
 10
845.7380506402079
 20
-1421.790819627243
 30
4.185207900610024
 10
862.4567665888649
 20
-1412.767701854012
 30
4.185207900610024
 10
878.9512533737209
 20
-1403.360139489586
 30
4.185207900610024
 10
895.2318439094833
 20
-1393.582465231568
 30
4.185207900610024
 10
911.3111883996287
 20
-1383.478978365146
 30
4.185207900610024
 10
927.2029043424494
 20
-1373.082805706792
 30
4.185207900610024
 10
942.9218837937147
 20
-1362.427605431308
 30
4.185207900610024
 10
958.4845932391226
 20
-1351.54565451758
 30
4.185207900610024
 10
968.7673619861469
 20
-1344.160781814471
 30
4.185207900610024
 10
973.8887592173222
 20
-1340.440879007765
 30
4.185207900610024
  0
SPLINE
  5
574
330
1F
100
AcDbEntity
  8
Default
100
AcDbSpline
210
0.0
220
0.0
230
1.0
 70
     8
 71
     3
 72
    22
 73
    18
 74
     0
 42
0.000000001
 43
0.0000000001
 40
0.0
 40
0.0
 40
0.0
 40
0.0
 40
0.2588469591229587
 40
0.6477254461891114
 40
1.024641027840087
 40
1.817983982162573
 40
2.582167143679937
 40
4.062052734317923
 40
7.850412104674
 40
9.497260537102542
 40
10.543391206404
 40
10.8432833113025
 40
12.15829953678302
 40
13.34949093133962
 40
14.77372714428499
 40
17.25709974516987
 40
21.82793658798906
 40
21.82793658798906
 40
21.82793658798906
 40
21.82793658798906
 10
771.5962885362763
 20
-1396.276046851996
 30
4.185207900610024
 10
770.4694371330971
 20
-1394.379331507036
 30
4.185207900610024
 10
766.4734640468796
 20
-1390.552404375826
 30
4.185207900610024
 10
759.1622700492182
 20
-1385.867653964552
 30
4.185207900610024
 10
747.5558708816044
 20
-1379.581866416643
 30
4.185207900610024
 10
732.7728669253567
 20
-1372.537693157635
 30
4.185207900610024
 10
710.0787805840625
 20
-1360.455459623007
 30
4.185207900610024
 10
665.4057167467287
 20
-1335.740665868017
 30
4.185207900610024
 10
615.5342345195894
 20
-1305.067845909008
 30
4.185207900610024
 10
569.4552204476012
 20
-1275.32978493367
 30
4.185207900610024
 10
548.3219836255954
 20
-1261.365495693502
 30
4.185207900610024
 10
529.6743241453411
 20
-1248.717496922033
 30
4.185207900610024
 10
512.2272755938726
 20
-1232.414498483277
 30
4.185207900610024
 10
491.2861411585302
 20
-1206.565283908924
 30
4.185207900610024
 10
466.2703553135286
 20
-1171.351418866503
 30
4.185207900610024
 10
431.7036646076824
 20
-1108.244007926821
 30
4.185207900610024
 10
416.9757080308427
 20
-1049.368925291984
 30
4.185207900610024
 10
415.9985576538534
 20
-1010.610970452376
 30
4.185207900610024
  0
SPLINE
  5
575
330
1F
100
AcDbEntity
  8
Default
100
AcDbSpline
210
0.0
220
0.0
230
1.0
 70
    12
 71
     2
 72
     6
 73
     3
 74
     0
 42
0.000000001
 43
0.0000000001
 40
0.0
 40
0.0
 40
0.0
 40
0.0586712320260919
 40
0.0586712320260919
 40
0.0586712320260919
 10
514.3642654868113
 20
-707.9616749980555
 30
4.185207900610024
 41
1.0
 10
514.9706523940166
 20
-707.5224736656724
 30
4.185207900610024
 41
0.9921343149382712
 10
515.6671274382749
 20
-707.247654808382
 30
4.185207900610024
 41
1.0
  0
SPLINE
  5
576
330
1F
100
AcDbEntity
  8
Default
100
AcDbSpline
210
0.0
220
0.0
230
1.0
 70
    24
 71
     2
 72
     6
 73
     3
 74
     0
 42
0.000000001
 43
0.0000000001
 40
0.0
 40
0.0
 40
0.0
 40
0.0114467396849787
 40
0.0114467396849787
 40
0.0114467396849787
 10
514.3642654868113
 20
-707.9616749980555
 30
4.185207900610024
 10
514.2788543582261
 20
-707.84411677629
 30
4.185207900610024
 10
514.1934432296409
 20
-707.7265585545241
 30
4.185207900610024
  0
SPLINE
  5
577
330
1F
100
AcDbEntity
  8
Default
100
AcDbSpline
210
0.0
220
0.0
230
1.0
 70
    12
 71
     2
 72
     6
 73
     3
 74
     0
 42
0.000000001
 43
0.0000000001
 40
0.0
 40
0.0
 40
0.0
 40
0.0587632096241838
 40
0.0587632096241838
 40
0.0587632096241838
 10
513.2810864587887
 20
-708.9819357680712
 30
4.185207900610024
 41
1.0
 10
513.7582099025182
 20
-708.4033746226642
 30
4.185207900610024
 41
0.9921107855315545
 10
514.3642535391117
 20
-707.9616836785914
 30
4.185207900610024
 41
1.0
  0
SPLINE
  5
578
330
1F
100
AcDbEntity
  8
Default
100
AcDbSpline
210
0.0
220
0.0
230
1.0
 70
    12
 71
     2
 72
     6
 73
     3
 74
     0
 42
0.000000001
 43
0.0000000001
 40
-0.1297405451143296
 40
-0.1297405451143296
 40
-0.1297405451143296
 40
0.0
 40
0.0
 40
0.0
 10
459.533221224264
 20
-1218.610099737294
 30
4.185207900610024
 41
0.9999960316975588
 10
460.8827215915892
 20
-1217.665956166255
 30
4.185207900610024
 41
0.999996865512317
 10
462.2350798938096
 20
-1216.725910770243
 30
4.185207900610024
 41
1.0
  0
ARC
  5
579
330
1F
100
AcDbEntity
  8
Default
100
AcDbCircle
 10
466.8103858051242
 20
-1229.011628250745
 30
4.185207900610024
 40
12.69444444444444
100
AcDbArc
 50
124.9775798079558
 51
137.7179678781667
  0
SPLINE
  5
57A
330
1F
100
AcDbEntity
  8
Default
100
AcDbSpline
210
0.0
220
0.0
230
1.0
 70
     8
 71
     3
 72
    14
 73
    10
 74
     0
 42
0.000000001
 43
0.0000000001
 40
-7.0
 40
-7.0
 40
-7.0
 40
-7.0
 40
-6.0
 40
-5.0
 40
-4.0
 40
-3.0
 40
-2.0
 40
-1.0
 40
-0.2482205602640466
 40
-0.2482205602640466
 40
-0.2482205602640466
 40
-0.2482205602640466
 10
432.2051129119837
 20
-1226.991721289828
 30
4.185207900610024
 10
433.0405961763537
 20
-1228.163586631309
 30
4.185207900610024
 10
435.5812691968406
 20
-1229.707274440968
 30
4.185207900610024
 10
439.9143048162907
 20
-1230.014501503617
 30
4.185207900610024
 10
444.1266636601202
 20
-1229.166137488277
 30
4.185207900610024
 10
448.1097608754743
 20
-1227.575538772253
 30
4.185207900610024
 10
451.8247261624385
 20
-1225.441793274352
 30
4.185207900610024
 10
454.9325712814264
 20
-1223.033428966089
 30
4.185207900610024
 10
456.6976772092456
 20
-1221.263727593925
 30
4.185207900610024
 10
457.4185011860789
 20
-1220.471053149758
 30
4.185207900610024
  0
SPLINE
  5
57B
330
1F
100
AcDbEntity
  8
Default
100
AcDbSpline
210
0.0
220
0.0
230
1.0
 70
     8
 71
     3
 72
    14
 73
    10
 74
     0
 42
0.000000001
 43
0.0000000001
 40
0.2772630823298201
 40
0.2772630823298201
 40
0.2772630823298201
 40
0.2772630823298201
 40
1.0
 40
2.0
 40
3.0
 40
4.0
 40
5.0
 40
6.0
 40
7.0
 40
7.0
 40
7.0
 40
7.0
 10
446.084907390229
 20
-1205.078626521592
 30
4.185207900610024
 10
445.1475278189765
 20
-1205.505561179822
 30
4.185207900610024
 10
442.9585335533829
 20
-1206.623143985389
 30
4.185207900610024
 10
439.741975968345
 20
-1208.811314357632
 30
4.185207900610024
 10
436.5646760012666
 20
-1211.685092681088
 30
4.185207900610024
 10
433.8210819977886
 20
-1214.981721208305
 30
4.185207900610024
 10
431.71254940366
 20
-1218.725753637546
 30
4.185207900610024
 10
430.6657580599325
 20
-1222.941653782253
 30
4.185207900610024
 10
431.348781269954
 20
-1225.835003181357
 30
4.185207900610024
 10
432.2051129119837
 20
-1226.991721289828
 30
4.185207900610024
  0
ARC
  5
57C
330
1F
100
AcDbEntity
  8
Default
100
AcDbCircle
 10
440.823197453832
 20
-1193.525993562032
 30
4.185207900610024
 40
12.69444444444444
100
AcDbArc
 50
294.487152173535
 51
306.9422552251325
  0
SPLINE
  5
57D
330
1F
100
AcDbEntity
  8
Default
100
AcDbSpline
210
0.0
220
0.0
230
1.0
 70
    12
 71
     2
 72
     6
 73
     3
 74
     0
 42
0.000000001
 43
0.0000000001
 40
0.0
 40
0.0
 40
0.0
 40
0.1369528492222414
 40
0.1369528492222414
 40
0.1369528492222414
 10
451.2557224984939
 20
-1201.614121752939
 30
4.185207900610024
 41
1.0
 10
449.8708777690446
 20
-1202.66513259149
 30
4.185207900610024
 41
0.9999966913238282
 10
448.4526832709904
 20
-1203.671922101051
 30
4.185207900610024
 41
0.9999959461296658
  0
SPLINE
  5
57E
330
1F
100
AcDbEntity
  8
Default
100
AcDbSpline
210
0.0
220
0.0
230
1.0
 70
     8
 71
     3
 72
    12
 73
     8
 74
     0
 42
0.000000001
 43
0.0000000001
 40
-1.014583801502342
 40
-1.014583801502342
 40
-1.014583801502342
 40
-1.014583801502342
 40
-0.8249401141264362
 40
-0.5900965017365678
 40
-0.3037660471064116
 40
-0.1510110321465192
 40
0.0
 40
0.0
 40
0.0
 40
0.0
 10
431.8940859561108
 20
-1227.217680017383
 30
4.185207900610024
 10
432.828659372565
 20
-1228.558152970516
 30
4.185207900610024
 10
436.1554980144211
 20
-1230.340568252635
 30
4.185207900610024
 10
442.2919341628881
 20
-1230.11089565021
 30
4.185207900610024
 10
447.6747494962956
 20
-1228.097190344459
 30
4.185207900610024
 10
451.9666527024463
 20
-1225.519090245533
 30
4.185207900610024
 10
453.9902034162501
 20
-1223.928706982385
 30
4.185207900610024
 10
454.9463093659233
 20
-1223.079772528757
 30
4.185207900610024
  0
SPLINE
  5
57F
330
1F
100
AcDbEntity
  8
Default
100
AcDbSpline
210
0.0
220
0.0
230
1.0
 70
     8
 71
     3
 72
    12
 73
     8
 74
     0
 42
0.000000001
 43
0.0000000001
 40
0.0
 40
0.0
 40
0.0
 40
0.0
 40
0.1510110321465192
 40
0.3037660471064116
 40
0.5900965017365678
 40
0.8249401141264362
 40
1.014583801502342
 40
1.014583801502342
 40
1.014583801502342
 40
1.014583801502342
 10
442.952998628755
 20
-1206.572396463526
 30
4.185207900610024
 10
441.8501609978524
 20
-1207.21937208395
 30
4.185207900610024
 10
439.7123050724845
 20
-1208.652427720484
 30
4.185207900610024
 10
435.9341151448261
 20
-1211.937593488234
 30
4.185207900610024
 10
432.3555861762883
 20
-1216.434685925945
 30
4.185207900610024
 10
430.2408914963648
 20
-1222.199810774481
 30
4.185207900610024
 10
430.9080194872917
 20
-1225.91461895669
 30
4.185207900610024
 10
431.8940859561108
 20
-1227.217680017383
 30
4.185207900610024
  0
SPLINE
  5
580
330
1F
100
AcDbEntity
  8
Default
100
AcDbSpline
210
0.0
220
0.0
230
1.0
 70
    12
 71
     2
 72
     6
 73
     3
 74
     0
 42
0.000000001
 43
0.0000000001
 40
0.0
 40
0.0
 40
0.0
 40
0.0853474550214741
 40
0.0853474550214741
 40
0.0853474550214741
 10
454.2706366869115
 20
-1223.663589526575
 30
4.185207900610024
 41
1.0
 10
453.4404948172549
 20
-1224.36047396705
 30
4.185207900610024
 41
0.9993970637774639
 10
452.5639913439094
 20
-1224.998067182467
 30
4.185207900610024
 41
1.0
  0
SPLINE
  5
581
330
1F
100
AcDbEntity
  8
Default
100
AcDbSpline
210
0.0
220
0.0
230
1.0
 70
    12
 71
     2
 72
     6
 73
     3
 74
     0
 42
0.000000001
 43
0.0000000001
 40
0.0
 40
0.0
 40
0.0
 40
0.0853474550214741
 40
0.0853474550214741
 40
0.0853474550214741
 10
517.731074770747
 20
-730.0804555059959
 30
4.185207900610024
 41
1.0
 10
517.0341903302718
 20
-729.2503136363393
 30
4.185207900610024
 41
0.9993970637774639
 10
516.3965971148542
 20
-728.3738101629937
 30
4.185207900610024
 41
1.0
  0
SPLINE
  5
582
330
1F
100
AcDbEntity
  8
Default
100
AcDbSpline
210
0.0
220
0.0
230
1.0
 70
    12
 71
     2
 72
     6
 73
     3
 74
     0
 42
0.000000001
 43
0.0000000001
 40
-0.1297405451143296
 40
-0.1297405451143296
 40
-0.1297405451143296
 40
0.0
 40
0.0
 40
0.0
 10
522.7845645600276
 20
-735.3430400433484
 30
4.185207900610024
 41
0.9999960316975588
 10
523.7287081310669
 20
-736.6925404106737
 30
4.185207900610024
 41
0.999996865512317
 10
524.6687535270781
 20
-738.0448987128942
 30
4.185207900610024
 41
1.0
  0
ARC
  5
583
330
1F
100
AcDbEntity
  8
Default
100
AcDbCircle
 10
512.3830360465757
 20
-742.6202046242092
 30
4.185207900610024
 40
12.69444444444444
100
AcDbArc
 50
34.97757980795589
 51
47.71796787816669
  0
SPLINE
  5
584
330
1F
100
AcDbEntity
  8
Default
100
AcDbSpline
210
0.0
220
0.0
230
1.0
 70
     8
 71
     3
 72
    14
 73
    10
 74
     0
 42
0.000000001
 43
0.0000000001
 40
-7.0
 40
-7.0
 40
-7.0
 40
-7.0
 40
-6.0
 40
-5.0
 40
-4.0
 40
-3.0
 40
-2.0
 40
-1.0
 40
-0.2482205602640466
 40
-0.2482205602640466
 40
-0.2482205602640466
 40
-0.2482205602640466
 10
514.4029430074931
 20
-708.014931731068
 30
4.185207900610024
 10
513.231077666012
 20
-708.8504149954383
 30
4.185207900610024
 10
511.6873898563532
 20
-711.3910880159249
 30
4.185207900610024
 10
511.3801627937037
 20
-715.7241236353749
 30
4.185207900610024
 10
512.2285268090442
 20
-719.9364824792045
 30
4.185207900610024
 10
513.8191255250688
 20
-723.9195796945587
 30
4.185207900610024
 10
515.9528710229694
 20
-727.6345449815231
 30
4.185207900610024
 10
518.3612353312323
 20
-730.7423901005107
 30
4.185207900610024
 10
520.1309367033959
 20
-732.5074960283298
 30
4.185207900610024
 10
520.9236111475639
 20
-733.228320005163
 30
4.185207900610024
  0
SPLINE
  5
585
330
1F
100
AcDbEntity
  8
Default
100
AcDbSpline
210
0.0
220
0.0
230
1.0
 70
     8
 71
     3
 72
    14
 73
    10
 74
     0
 42
0.000000001
 43
0.0000000001
 40
0.2772630823298201
 40
0.2772630823298201
 40
0.2772630823298201
 40
0.2772630823298201
 40
1.0
 40
2.0
 40
3.0
 40
4.0
 40
5.0
 40
6.0
 40
7.0
 40
7.0
 40
7.0
 40
7.0
 10
536.3160377757285
 20
-721.8947262093134
 30
4.185207900610024
 10
535.8891031174992
 20
-720.9573466380606
 30
4.185207900610024
 10
534.7715203119316
 20
-718.7683523724675
 30
4.185207900610024
 10
532.5833499396891
 20
-715.5517947874296
 30
4.185207900610024
 10
529.7095716162337
 20
-712.3744948203509
 30
4.185207900610024
 10
526.4129430890165
 20
-709.6309008168729
 30
4.185207900610024
 10
522.6689106597754
 20
-707.5223682227442
 30
4.185207900610024
 10
518.4530105150677
 20
-706.475576879017
 30
4.185207900610024
 10
515.5596611159646
 20
-707.1586000890383
 30
4.185207900610024
 10
514.4029430074931
 20
-708.014931731068
 30
4.185207900610024
  0
ARC
  5
586
330
1F
100
AcDbEntity
  8
Default
100
AcDbCircle
 10
547.8686707352885
 20
-716.6330162729165
 30
4.185207900610024
 40
12.69444444444444
100
AcDbArc
 50
204.4871521735349
 51
216.9422552251325
  0
SPLINE
  5
587
330
1F
100
AcDbEntity
  8
Default
100
AcDbSpline
210
0.0
220
0.0
230
1.0
 70
    12
 71
     2
 72
     6
 73
     3
 74
     0
 42
0.000000001
 43
0.0000000001
 40
0.0
 40
0.0
 40
0.0
 40
0.1369528492222414
 40
0.1369528492222414
 40
0.1369528492222414
 10
539.7805425443819
 20
-727.0655413175786
 30
4.185207900610024
 41
1.0
 10
538.7295317058312
 20
-725.6806965881287
 30
4.185207900610024
 41
0.9999966913238282
 10
537.7227421962706
 20
-724.262502090075
 30
4.185207900610024
 41
0.9999959461296658
  0
SPLINE
  5
588
330
1F
100
AcDbEntity
  8
Default
100
AcDbSpline
210
0.0
220
0.0
230
1.0
 70
     8
 71
     3
 72
    12
 73
     8
 74
     0
 42
0.000000001
 43
0.0000000001
 40
-1.014583801502342
 40
-1.014583801502342
 40
-1.014583801502342
 40
-1.014583801502342
 40
-0.8249401141264362
 40
-0.5900965017365678
 40
-0.3037660471064116
 40
-0.1510110321465192
 40
0.0
 40
0.0
 40
0.0
 40
0.0
 10
514.1769842799384
 20
-707.7039047751955
 30
4.185207900610024
 10
512.8365113268058
 20
-708.6384781916497
 30
4.185207900610024
 10
511.0540960446858
 20
-711.9653168335052
 30
4.185207900610024
 10
511.2837686471109
 20
-718.1017529819724
 30
4.185207900610024
 10
513.2974739528619
 20
-723.4845683153801
 30
4.185207900610024
 10
515.8755740517887
 20
-727.7764715215308
 30
4.185207900610024
 10
517.4659573149358
 20
-729.8000222353344
 30
4.185207900610024
 10
518.3148917685641
 20
-730.7561281850076
 30
4.185207900610024
  0
SPLINE
  5
589
330
1F
100
AcDbEntity
  8
Default
100
AcDbSpline
210
0.0
220
0.0
230
1.0
 70
     8
 71
     3
 72
    12
 73
     8
 74
     0
 42
0.000000001
 43
0.0000000001
 40
0.0
 40
0.0
 40
0.0
 40
0.0
 40
0.1510110321465192
 40
0.3037660471064116
 40
0.5900965017365678
 40
0.8249401141264362
 40
1.014583801502342
 40
1.014583801502342
 40
1.014583801502342
 40
1.014583801502342
 10
534.8222678337955
 20
-718.7628174478391
 30
4.185207900610024
 10
534.175292213372
 20
-717.6599798169365
 30
4.185207900610024
 10
532.7422365768374
 20
-715.5221238915687
 30
4.185207900610024
 10
529.4570708090876
 20
-711.7439339639105
 30
4.185207900610024
 10
524.959978371377
 20
-708.1654049953726
 30
4.185207900610024
 10
519.1948535228394
 20
-706.0507103154488
 30
4.185207900610024
 10
515.4800453406316
 20
-706.7178383063764
 30
4.185207900610024
 10
514.1769842799384
 20
-707.7039047751955
 30
4.185207900610024
  0
CIRCLE
  5
58A
330
1F
100
AcDbEntity
  8
Default
100
AcDbCircle
 10
858.6798109037095
 20
654.6157502445275
 30
4.185207900610024
 40
199.9375
  0
SPLINE
  5
58B
330
1F
100
AcDbEntity
  8
Default
100
AcDbSpline
210
0.0
220
0.0
230
1.0
 70
     8
 71
     3
 72
    21
 73
    17
 74
     0
 42
0.000000001
 43
0.0000000001
 40
0.0
 40
0.0
 40
0.0
 40
0.0
 40
0.2588469591229587
 40
0.6477254461891114
 40
1.024641027840087
 40
1.817983982162573
 40
2.582167143679937
 40
4.062052734317923
 40
7.850412104674
 40
9.497260537102542
 40
10.543391206404
 40
10.8432833113025
 40
12.15829953678302
 40
13.34949093133962
 40
14.77372714428499
 40
15.46884750610318
 40
15.46884750610318
 40
15.46884750610318
 40
15.46884750610318
 10
1444.944978488547
 20
676.0781322407772
 30
4.185207900610024
 10
1442.918475245675
 20
675.2060039295266
 30
4.185207900610024
 10
1437.436253780537
 20
674.4587288927795
 30
4.185207900610024
 10
1428.767746384839
 20
674.9660982041287
 30
4.185207900610024
 10
1415.683278995036
 20
676.7028595177826
 30
4.185207900610024
 10
1399.583116410282
 20
679.6932353499875
 30
4.185207900610024
 10
1374.121456201954
 20
683.257752356131
 30
4.185207900610024
 10
1323.453197084121
 20
689.5212322941774
 30
4.185207900610024
 10
1265.077289209569
 20
694.0201214450151
 30
4.185207900610024
 10
1210.31899006821
 20
697.0460896479001
 30
4.185207900610024
 10
1185.01383905894
 20
698.1705472754163
 30
4.185207900610024
 10
1162.493258485215
 20
698.8989205567297
 30
4.185207900610024
 10
1138.795637654944
 20
695.9646355950922
 30
4.185207900610024
 10
1106.660116905113
 20
687.3610717005643
 30
4.185207900610024
 10
1080.080948196816
 20
678.410941052143
 30
4.185207900610024
 10
1063.473723780854
 20
671.621625584884
 30
4.185207900610024
 10
1058.079087704085
 20
669.2763204154828
 30
4.185207900610024
  0
SPLINE
  5
58C
330
1F
100
AcDbEntity
  8
Default
100
AcDbSpline
210
0.0
220
0.0
230
1.0
 70
     8
 71
     3
 72
    10
 73
     6
 74
     0
 42
0.000000001
 43
0.0000000001
 40
-6.708248473681532
 40
-6.708248473681532
 40
-6.708248473681532
 40
-6.708248473681532
 40
-3.774519558109396
 40
-1.88935509827327
 40
0.0
 40
0.0
 40
0.0
 40
0.0
 10
913.0660731838366
 20
462.2173656841359
 30
4.185207900610024
 10
904.0800499294267
 20
439.0763505345663
 30
4.185207900610024
 10
895.1555080501519
 20
398.7907876567464
 30
4.185207900610024
 10
896.8148563933691
 20
341.7926420987188
 30
4.185207900610024
 10
903.7645437049659
 20
310.4612204598427
 30
4.185207900610024
 10
908.70353737526
 20
295.2549932104954
 30
4.185207900610024
  0
SPLINE
  5
58D
330
1F
100
AcDbEntity
  8
Default
100
AcDbSpline
210
0.0
220
0.0
230
1.0
 70
     8
 71
     3
 72
     8
 73
     4
 74
     0
 42
0.000000001
 43
0.0000000001
 40
-14.89017236839833
 40
-14.89017236839833
 40
-14.89017236839833
 40
-14.89017236839833
 40
-14.55234360913006
 40
-14.55234360913006
 40
-14.55234360913006
 40
-14.55234360913006
 10
1058.567131384088
 20
600.8920603497067
 30
4.185207900610024
 10
1055.847428646086
 20
600.0091810846389
 30
4.185207900610024
 10
1053.144617731005
 20
599.0746480743364
 30
4.185207900610024
 10
1050.460387181284
 20
598.0895220942986
 30
4.185207900610024
  0
SPLINE
  5
58E
330
1F
100
AcDbEntity
  8
Default
100
AcDbSpline
210
0.0
220
0.0
230
1.0
 70
     8
 71
     3
 72
    34
 73
    30
 74
     0
 42
0.000000001
 43
0.0000000001
 40
49.54977648871967
 40
49.54977648871967
 40
49.54977648871967
 40
49.54977648871967
 40
50.0
 40
51.0
 40
52.0
 40
53.0
 40
53.0
 40
53.0
 40
54.0
 40
55.0
 40
56.0
 40
57.0
 40
58.0
 40
59.0
 40
60.0
 40
60.0
 40
60.0
 40
61.0
 40
62.0
 40
63.0
 40
64.0
 40
65.0
 40
66.0
 40
67.0
 40
68.0
 40
69.0
 40
70.0
 40
71.0
 40
72.0
 40
72.0
 40
72.0
 40
72.0
 10
1058.488159273571
 20
661.8010009679351
 30
4.185207900610024
 10
1063.164362417824
 20
663.6649332517484
 30
4.185207900610024
 10
1078.319309331259
 20
669.4349994181931
 30
4.185207900610024
 10
1104.35327346697
 20
677.9574048502584
 30
4.185207900610024
 10
1136.699518095572
 20
687.0229583271143
 30
4.185207900610024
 10
1158.991914201521
 20
689.6857970631108
 30
4.185207900610024
 10
1170.179897767929
 20
689.7405387632367
 30
4.185207900610024
 10
1181.163488542418
 20
689.8152642691134
 30
4.185207900610024
 10
1203.131803771987
 20
689.8566889658414
 30
4.185207900610024
 10
1236.081219042133
 20
689.367194034291
 30
4.185207900610024
 10
1269.015164379982
 20
688.2369701000088
 30
4.185207900610024
 10
1301.91695980111
 20
686.3774845184186
 30
4.185207900610024
 10
1334.759489790339
 20
683.6719662984081
 30
4.185207900610024
 10
1367.521316271526
 20
680.0877388491478
 30
4.185207900610024
 10
1389.24557251558
 20
676.7968518377288
 30
4.185207900610024
 10
1400.080368704795
 20
674.9949092621959
 30
4.185207900610024
 10
1402.304000323959
 20
674.6295676744205
 30
4.185207900610024
 10
1406.753261437741
 20
673.9104346183283
 30
4.185207900610024
 10
1413.448966752615
 20
672.9724180596352
 30
4.185207900610024
 10
1420.173596187304
 20
672.2680393743412
 30
4.185207900610024
 10
1426.93228255547
 20
671.9414330415169
 30
4.185207900610024
 10
1433.688708299124
 20
672.2169473033918
 30
4.185207900610024
 10
1440.396912318139
 20
673.4163235356348
 30
4.185207900610024
 10
1446.450194270806
 20
676.5895236288685
 30
4.185207900610024
 10
1451.359814372962
 20
681.2875666129022
 30
4.185207900610024
 10
1456.232392334416
 20
685.9620650304839
 30
4.185207900610024
 10
1460.705282898486
 20
691.0461199485076
 30
4.185207900610024
 10
1464.697975127971
 20
696.5060855159736
 30
4.185207900610024
 10
1469.249426353406
 20
705.0171984379698
 30
4.185207900610024
 10
1470.472696377897
 20
706.9098366525834
 30
4.185207900610024
  0
SPLINE
  5
58F
330
1F
100
AcDbEntity
  8
Default
100
AcDbSpline
210
0.0
220
0.0
230
1.0
 70
     8
 71
     3
 72
    12
 73
     8
 74
     0
 42
0.000000001
 43
0.0000000001
 40
36.00001859054296
 40
36.00001859054296
 40
36.00001859054296
 40
36.00001859054296
 40
37.0
 40
38.0
 40
39.0
 40
40.0
 40
40.99791129719946
 40
40.99791129719946
 40
40.99791129719946
 40
40.99791129719946
 10
893.6617779683031
 20
290.3683137773994
 30
4.185207900610024
 10
890.1889032833892
 20
300.9955048840396
 30
4.185207900610024
 10
884.1487066520327
 20
322.5466840201651
 30
4.185207900610024
 10
877.9290753880991
 20
355.5394364898851
 30
4.185207900610024
 10
874.7617852217945
 20
388.9700515409247
 30
4.185207900610024
 10
874.9263063120539
 20
422.5310474617563
 30
4.185207900610024
 10
877.4451596921638
 20
444.7658778836554
 30
4.185207900610024
 10
879.3785753352286
 20
455.7525684906935
 30
4.185207900610024
  0
SPLINE
  5
590
330
1F
100
AcDbEntity
  8
Default
100
AcDbSpline
210
0.0
220
0.0
230
1.0
 70
     8
 71
     3
 72
    12
 73
     8
 74
     0
 42
0.000000001
 43
0.0000000001
 40
0.0
 40
0.0
 40
0.0
 40
0.0
 40
1.918305221504867
 40
3.868777778011241
 40
7.624449324857683
 40
11.42846767657462
 40
15.35241906764609
 40
15.35241906764609
 40
15.35241906764609
 40
15.35241906764609
 10
1371.968889235304
 20
445.779031712203
 30
4.185207900610024
 10
1366.965439067962
 20
461.2216690628335
 30
4.185207900610024
 10
1353.83207405672
 20
491.3875773990566
 30
4.185207900610024
 10
1316.916887397268
 20
544.6882888075909
 30
4.185207900610024
 10
1252.073020891602
 20
595.1606051771878
 30
4.185207900610024
 10
1156.128239825636
 20
620.1663162889246
 30
4.185207900610024
 10
1090.135376317884
 20
611.1497749253242
 30
4.185207900610024
 10
1058.567131384088
 20
600.8920603497067
 30
4.185207900610024
  0
SPLINE
  5
591
330
1F
100
AcDbEntity
  8
Default
100
AcDbSpline
210
0.0
220
0.0
230
1.0
 70
     8
 71
     3
 72
    47
 73
    43
 74
     0
 42
0.000000001
 43
0.0000000001
 40
36.00001859054296
 40
36.00001859054296
 40
36.00001859054296
 40
36.00001859054296
 40
37.0
 40
38.0
 40
39.0
 40
40.0
 40
41.0
 40
42.0
 40
43.0
 40
44.0
 40
45.0
 40
46.0
 40
47.0
 40
48.0
 40
49.0
 40
50.0
 40
51.0
 40
52.0
 40
53.0
 40
53.0
 40
53.0
 40
54.0
 40
55.0
 40
56.0
 40
57.0
 40
58.0
 40
59.0
 40
60.0
 40
60.0
 40
60.0
 40
61.0
 40
62.0
 40
63.0
 40
64.0
 40
65.0
 40
66.0
 40
67.0
 40
68.0
 40
69.0
 40
70.0
 40
71.0
 40
72.0
 40
72.0
 40
72.0
 40
72.0
 10
893.6617779683031
 20
290.3683137773994
 30
4.185207900610024
 10
897.09866953465
 20
279.729431046805
 30
4.185207900610024
 10
904.8795130762441
 20
258.7438223760027
 30
4.185207900610024
 10
919.2403790192134
 20
228.3963174051558
 30
4.185207900610024
 10
936.3280099506244
 20
199.4886952469731
 30
4.185207900610024
 10
956.2016054412758
 20
172.4151327274658
 30
4.185207900610024
 10
978.8888852401441
 20
147.6299193867748
 30
4.185207900610024
 10
1004.446223155023
 20
125.8182813862355
 30
4.185207900610024
 10
1032.376172709065
 20
107.1277470775941
 30
4.185207900610024
 10
1062.525952909705
 20
92.26685866748495
 30
4.185207900610024
 10
1094.315036623657
 20
81.35185083109517
 30
4.185207900610024
 10
1127.328009069078
 20
74.90741991462619
 30
4.185207900610024
 10
1160.92877788239
 20
73.55550409654973
 30
4.185207900610024
 10
1194.39787895045
 20
76.36753192196977
 30
4.185207900610024
 10
1227.460516241112
 20
82.15637766062139
 30
4.185207900610024
 10
1260.012845912171
 20
90.3494133660609
 30
4.185207900610024
 10
1291.933930079068
 20
100.6435061026796
 30
4.185207900610024
 10
1323.431190325381
 20
112.321964836225
 30
4.185207900610024
 10
1343.031294958684
 20
123.2708247148631
 30
4.185207900610024
 10
1352.114740160715
 20
129.8026694923854
 30
4.185207900610024
 10
1361.044574306861
 20
136.1982079626785
 30
4.185207900610024
 10
1378.841663491185
 20
149.0773463886913
 30
4.185207900610024
 10
1405.210582497614
 20
168.8405364744283
 30
4.185207900610024
 10
1431.19037500739
 20
189.1129942141056
 30
4.185207900610024
 10
1456.715508446821
 20
209.9565397728905
 30
4.185207900610024
 10
1481.695409636845
 20
231.4497047671121
 30
4.185207900610024
 10
1506.093527991352
 20
253.6063241290758
 30
4.185207900610024
 10
1521.734485630674
 20
269.0379050851589
 30
4.185207900610024
 10
1529.440864606963
 20
276.8642406632684
 30
4.185207900610024
 10
1531.025077978753
 20
278.4668260888067
 30
4.185207900610024
 10
1534.201910027407
 20
281.6638270186814
 30
4.185207900610024
 10
1539.06749711686
 20
286.3583351934483
 30
4.185207900610024
 10
1544.093813207152
 20
290.8808275291684
 30
4.185207900610024
 10
1549.36973095291
 20
295.117713774972
 30
4.185207900610024
 10
1554.997737420684
 20
298.8661454652516
 30
4.185207900610024
 10
1561.129764135064
 20
301.8388131024635
 30
4.185207900610024
 10
1567.892132323891
 20
302.8296701602311
 30
4.185207900610024
 10
1574.625538803112
 20
301.9146758362501
 30
4.185207900610024
 10
1581.315138412064
 20
300.9969566426357
 30
4.185207900610024
 10
1587.922115395035
 20
299.5129689222973
 30
4.185207900610024
 10
1594.361558500579
 20
297.4426095989495
 30
4.185207900610024
 10
1603.046466547169
 20
293.2322505108496
 30
4.185207900610024
 10
1605.148577616167
 20
292.4200941109912
 30
4.185207900610024
  0
SPLINE
  5
592
330
1F
100
AcDbEntity
  8
Default
100
AcDbSpline
210
0.0
220
0.0
230
1.0
 70
     8
 71
     3
 72
    12
 73
     8
 74
     0
 42
0.000000001
 43
0.0000000001
 40
-14.89017236839833
 40
-14.89017236839833
 40
-14.89017236839833
 40
-14.89017236839833
 40
-11.21816917573749
 40
-7.516682162771167
 40
-3.774519558109396
 40
-1.88935509827327
 40
0.0
 40
0.0
 40
0.0
 40
0.0
 10
1209.594290066888
 20
136.0782604053003
 30
4.185207900610024
 10
1180.037842213699
 20
126.4660306106224
 30
4.185207900610024
 10
1116.726823411707
 20
119.4337148708018
 30
4.185207900610024
 10
1024.824877738422
 20
147.0217439251012
 30
4.185207900610024
 10
962.4750999337935
 20
197.8559714024967
 30
4.185207900610024
 10
926.4391337950961
 20
250.6184912387107
 30
4.185207900610024
 10
913.6454013630812
 20
280.0510675122892
 30
4.185207900610024
 10
908.7031350572853
 20
295.2562314179033
 30
4.185207900610024
  0
SPLINE
  5
593
330
1F
100
AcDbEntity
  8
Default
100
AcDbSpline
210
0.0
220
0.0
230
1.0
 70
     8
 71
     3
 72
    12
 73
     8
 74
     0
 42
0.000000001
 43
0.0000000001
 40
0.0
 40
0.0
 40
0.0
 40
0.0
 40
1.918305221504867
 40
3.868777778011241
 40
7.624449324857683
 40
11.42846767657462
 40
15.35241906764609
 40
15.35241906764609
 40
15.35241906764609
 40
15.35241906764609
 10
1371.968487563959
 20
445.7802679294898
 30
4.185207900610024
 10
1376.997565839273
 20
430.3459576559168
 30
4.185207900610024
 10
1384.103526393887
 20
398.2216268945732
 30
4.185207900610024
 10
1385.5678851385
 20
333.4022432487446
 30
4.185207900610024
 10
1362.774978365525
 20
254.4550131266198
 30
4.185207900610024
 10
1299.85200817614
 20
177.8300405357891
 30
4.185207900610024
 10
1241.162870050693
 20
146.3349438030199
 30
4.185207900610024
 10
1209.594290066888
 20
136.0782604053003
 30
4.185207900610024
  0
SPLINE
  5
594
330
1F
100
AcDbEntity
  8
Default
100
AcDbSpline
210
0.0
220
0.0
230
1.0
 70
    12
 71
     2
 72
     6
 73
     3
 74
     0
 42
0.000000001
 43
0.0000000001
 40
0.0
 40
0.0
 40
0.0
 40
1.278324852146924
 40
1.278324852146924
 40
1.278324852146924
 10
860.0007068923757
 20
289.2817926363414
 30
4.185207900610024
 41
1.0
 10
875.3778678884627
 20
294.466259252068
 30
4.185207900610024
 41
0.9999999996076647
 10
890.7549288576406
 20
299.6510225387926
 30
4.185207900610024
 41
0.9999999993083845
  0
SPLINE
  5
595
330
1F
100
AcDbEntity
  8
Default
100
AcDbSpline
210
0.0
220
0.0
230
1.0
 70
     8
 71
     3
 72
    14
 73
    10
 74
     0
 42
0.000000001
 43
0.0000000001
 40
0.0
 40
0.0
 40
0.0
 40
0.0
 40
1.0
 40
2.0
 40
3.0
 40
4.0
 40
5.0
 40
6.0
 40
7.0
 40
7.0
 40
7.0
 40
7.0
 10
865.6988962150597
 20
271.4258827214853
 30
4.185207900610024
 10
863.9930410201491
 20
270.8996440296007
 30
4.185207900610024
 10
860.6311353516503
 20
270.3491341408251
 30
4.185207900610024
 10
855.5543737330124
 20
270.9896603003227
 30
4.185207900610024
 10
851.0486412810525
 20
273.7807806563048
 30
4.185207900610024
 10
849.457607640406
 20
278.9549594165112
 30
4.185207900610024
 10
851.5639598563055
 20
283.8080204858705
 30
4.185207900610024
 10
855.3376417151088
 20
287.261116060023
 30
4.185207900610024
 10
858.3968221326159
 20
288.7598622114436
 30
4.185207900610024
 10
860.0007068923757
 20
289.2817926363414
 30
4.185207900610024
  0
SPLINE
  5
596
330
1F
100
AcDbEntity
  8
Default
100
AcDbSpline
210
0.0
220
0.0
230
1.0
 70
    12
 71
     2
 72
     6
 73
     3
 74
     0
 42
0.000000001
 43
0.0000000001
 40
-1.281345128275034
 40
-1.281345128275034
 40
-1.281345128275034
 40
0.0
 40
0.0
 40
0.0
 10
896.7690723959831
 20
281.142099163588
 30
4.185207900610024
 41
0.9999999993069707
 10
881.2346141989509
 20
276.2843095398687
 30
4.185207900610024
 41
0.9999999996067375
 10
865.6988962150597
 20
271.4258827214853
 30
4.185207900610024
 41
1.0
  0
SPLINE
  5
597
330
1F
100
AcDbEntity
  8
Default
100
AcDbSpline
210
0.0
220
0.0
230
1.0
 70
    12
 71
     2
 72
     6
 73
     3
 74
     0
 42
0.000000001
 43
0.0000000001
 40
0.0
 40
0.0
 40
0.0
 40
1.112498698414412
 40
1.112498698414412
 40
1.112498698414412
 10
1281.653029054665
 20
59.56943626457086
 30
4.185207900610024
 41
1.0
 10
1277.14109896742
 20
72.95184963457962
 30
4.185207900610024
 41
0.9999999996585591
 10
1272.628944185989
 20
86.33418724601312
 30
4.185207900610024
 41
0.9999999993875963
  0
SPLINE
  5
598
330
1F
100
AcDbEntity
  8
Default
100
AcDbSpline
210
0.0
220
0.0
230
1.0
 70
     8
 71
     3
 72
    14
 73
    10
 74
     0
 42
0.000000001
 43
0.0000000001
 40
0.0
 40
0.0
 40
0.0
 40
0.0
 40
1.0
 40
2.0
 40
3.0
 40
4.0
 40
5.0
 40
6.0
 40
7.0
 40
7.0
 40
7.0
 40
7.0
 10
1299.508938969522
 20
65.26762558725522
 30
4.185207900610024
 10
1300.035177661406
 20
63.56177039234456
 30
4.185207900610024
 10
1300.585687550182
 20
60.19986472384573
 30
4.185207900610024
 10
1299.945161390684
 20
55.12310310520746
 30
4.185207900610024
 10
1297.154041034702
 20
50.61737065324786
 30
4.185207900610024
 10
1291.979862274495
 20
49.02633701260128
 30
4.185207900610024
 10
1287.126801205136
 20
51.13268922850051
 30
4.185207900610024
 10
1283.673705630984
 20
54.90637108730448
 30
4.185207900610024
 10
1282.174959479563
 20
57.96555150481157
 30
4.185207900610024
 10
1281.653029054665
 20
59.56943626457086
 30
4.185207900610024
  0
SPLINE
  5
599
330
1F
100
AcDbEntity
  8
Default
100
AcDbSpline
210
0.0
220
0.0
230
1.0
 70
    12
 71
     2
 72
     6
 73
     3
 74
     0
 42
0.000000001
 43
0.0000000001
 40
-1.102413928352738
 40
-1.102413928352738
 40
-1.102413928352738
 40
0.0
 40
0.0
 40
0.0
 10
1291.149450028915
 20
91.99921269704901
 30
4.185207900610024
 41
0.9999999993925147
 10
1295.328958669145
 20
78.63388539776997
 30
4.185207900610024
 41
0.9999999996616539
 10
1299.508938969522
 20
65.26762558725522
 30
4.185207900610024
 41
1.0
  0
SPLINE
  5
59A
330
1F
100
AcDbEntity
  8
Default
100
AcDbSpline
210
0.0
220
0.0
230
1.0
 70
    12
 71
     2
 72
     6
 73
     3
 74
     0
 42
0.000000001
 43
0.0000000001
 40
0.0
 40
0.0
 40
0.0
 40
5.654573080352872
 40
5.654573080352872
 40
5.654573080352872
 10
1590.156716827416
 20
516.674474530876
 30
4.185207900610024
 41
1.0
 10
1567.778554933319
 20
585.0425770464038
 30
4.185207900610024
 41
0.9967681786255456
 10
1534.740688422784
 20
648.9440900922312
 30
4.185207900610024
 41
1.0
  0
SPLINE
  5
59B
330
1F
100
AcDbEntity
  8
Default
100
AcDbSpline
210
0.0
220
0.0
230
1.0
 70
    12
 71
     2
 72
     6
 73
     3
 74
     0
 42
0.000000001
 43
0.0000000001
 40
-5.654573080352872
 40
-5.654573080352872
 40
-5.654573080352872
 40
0.0
 40
0.0
 40
0.0
 10
1623.070337440664
 20
377.0933834654349
 30
4.185207900610024
 41
1.0
 10
1612.238165938065
 20
448.2099641878817
 30
4.185207900610024
 41
0.9967681786255456
 10
1590.156716827416
 20
516.674474530876
 30
4.185207900610024
 41
1.0
  0
SPLINE
  5
59C
330
1F
100
AcDbEntity
  8
Default
100
AcDbSpline
210
0.0
220
0.0
230
1.0
 70
    12
 71
     2
 72
     6
 73
     3
 74
     0
 42
0.000000001
 43
0.0000000001
 40
0.0
 40
0.0
 40
0.0
 40
0.443505275079806
 40
0.443505275079806
 40
0.443505275079806
 10
1616.322212978604
 20
290.556029599882
 30
4.185207900610024
 41
1.0
 10
1610.471724453402
 20
290.363481672664
 30
4.185207900610024
 41
0.9799943751373794
 10
1605.148577616167
 20
292.4200941109912
 30
4.185207900610024
 41
1.0
  0
SPLINE
  5
59D
330
1F
100
AcDbEntity
  8
Default
100
AcDbSpline
210
0.0
220
0.0
230
1.0
 70
     8
 71
     3
 72
    12
 73
     8
 74
     0
 42
0.000000001
 43
0.0000000001
 40
0.0
 40
0.0
 40
0.0
 40
0.0
 40
0.8495817757806477
 40
1.391422022197968
 40
2.191064820612614
 40
2.689385262996221
 40
3.111933853859593
 40
3.111933853859593
 40
3.111933853859593
 40
3.111933853859593
 10
1625.357205140697
 20
362.3950833182044
 30
4.185207900610024
 10
1626.34318818934
 20
355.2463629165357
 30
4.185207900610024
 10
1628.234916353467
 20
343.6763526544841
 30
4.185207900610024
 10
1630.203064459594
 20
325.1784195329114
 30
4.185207900610024
 10
1630.983220088524
 20
309.6665668560435
 30
4.185207900610024
 10
1627.588115396086
 20
295.069498269452
 30
4.185207900610024
 10
1620.008801801626
 20
290.5859264635988
 30
4.185207900610024
 10
1616.322212978604
 20
290.556029599882
 30
4.185207900610024
  0
SPLINE
  5
59E
330
1F
100
AcDbEntity
  8
Default
100
AcDbSpline
210
0.0
220
0.0
230
1.0
 70
    12
 71
     2
 72
     6
 73
     3
 74
     0
 42
0.000000001
 43
0.0000000001
 40
-6.233889429224446
 40
-6.233889429224446
 40
-6.233889429224446
 40
0.0
 40
0.0
 40
0.0
 10
1588.524869689264
 20
516.1442552544492
 30
4.185207900610024
 41
1.0
 10
1613.172837229854
 20
440.7623493365756
 30
4.185207900610024
 41
0.996730330589404
 10
1625.357205140697
 20
362.3950833182044
 30
4.185207900610024
 41
1.0
  0
SPLINE
  5
59F
330
1F
100
AcDbEntity
  8
Default
100
AcDbSpline
210
0.0
220
0.0
230
1.0
 70
    12
 71
     2
 72
     6
 73
     3
 74
     0
 42
0.000000001
 43
0.0000000001
 40
0.0
 40
0.0
 40
0.0
 40
6.233889429224446
 40
6.233889429224446
 40
6.233889429224446
 10
1527.951722679624
 20
662.1783331192621
 30
4.185207900610024
 41
0.9999999519924591
 10
1564.157301197407
 20
591.6166541380533
 30
4.185207900610024
 41
0.9967303545933507
 10
1588.524869689264
 20
516.1442552544492
 30
4.185207900610024
 41
1.0
  0
SPLINE
  5
5A0
330
1F
100
AcDbEntity
  8
Default
100
AcDbSpline
210
0.0
220
0.0
230
1.0
 70
     8
 71
     3
 72
    12
 73
     8
 74
     0
 42
0.000000001
 43
0.0000000001
 40
-3.111933853859593
 40
-3.111933853859593
 40
-3.111933853859593
 40
-3.111933853859593
 40
-2.689379093202719
 40
-2.191051374651839
 40
-1.391396900347014
 40
-0.8495487423131249
 40
0.0
 40
0.0
 40
0.0
 40
0.0
 10
1478.416687646106
 20
714.985594601217
 30
4.185207900610024
 10
1481.416773590786
 20
717.1283300718299
 30
4.185207900610024
 10
1490.183944479477
 20
717.956053038718
 30
4.185207900610024
 10
1501.510583515241
 20
708.1423689523127
 30
4.185207900610024
 10
1509.997062592375
 20
695.1344525493076
 30
4.185207900610024
 10
1519.277417155662
 20
679.0127961967154
 30
4.185207900610024
 10
1524.547506573629
 20
668.5408809769356
 30
4.185207900610024
 10
1527.951722679624
 20
662.1783331192618
 30
4.185207900610024
  0
SPLINE
  5
5A1
330
1F
100
AcDbEntity
  8
Default
100
AcDbSpline
210
0.0
220
0.0
230
1.0
 70
    12
 71
     2
 72
     6
 73
     3
 74
     0
 42
0.000000001
 43
0.0000000001
 40
-0.443505275079806
 40
-0.443505275079806
 40
-0.443505275079806
 40
0.0
 40
0.0
 40
0.0
 10
1470.472696377897
 20
706.9098366525841
 30
4.185207900610024
 41
1.0
 10
1473.570366171844
 20
711.7025382727476
 30
4.185207900610024
 41
0.9799943751373794
 10
1478.416687646106
 20
714.985594601217
 30
4.185207900610024
 41
1.0
  0
SPLINE
  5
5A2
330
1F
100
AcDbEntity
  8
Default
100
AcDbSpline
210
0.0
220
0.0
230
1.0
 70
     8
 71
     3
 72
    19
 73
    15
 74
     0
 42
0.000000001
 43
0.0000000001
 40
0.0
 40
0.0
 40
0.0
 40
0.0
 40
1.0
 40
2.0
 40
3.0
 40
4.0
 40
5.0
 40
6.0
 40
7.0
 40
8.0
 40
9.0
 40
10.0
 40
11.0
 40
12.0
 40
12.0
 40
12.0
 40
12.0
 10
1575.783209917622
 20
512.0042390319443
 30
4.185207900610024
 10
1573.8264165324
 20
518.0239853836081
 30
4.185207900610024
 10
1569.848201131774
 20
530.0425327239541
 30
4.185207900610024
 10
1563.65395497518
 20
547.9937470428377
 30
4.185207900610024
 10
1557.200003047028
 20
565.8533694467156
 30
4.185207900610024
 10
1550.454051748373
 20
583.6049660685906
 30
4.185207900610024
 10
1543.38426937425
 20
601.2300602038074
 30
4.185207900610024
 10
1535.960167682941
 20
618.7098558595407
 30
4.185207900610024
 10
1528.145473978331
 20
636.0159497642748
 30
4.185207900610024
 10
1519.923404208543
 20
653.142820056953
 30
4.185207900610024
 10
1511.203497330151
 20
669.9850385275415
 30
4.185207900610024
 10
1502.163734599012
 20
686.7907606157946
 30
4.185207900610024
 10
1492.208115597191
 20
702.5953230086777
 30
4.185207900610024
 10
1484.380940649231
 20
713.5277390350132
 30
4.185207900610024
 10
1478.2950780069
 20
714.908328049402
 30
4.185207900610024
  0
SPLINE
  5
5A3
330
1F
100
AcDbEntity
  8
Default
100
AcDbSpline
210
0.0
220
0.0
230
1.0
 70
     8
 71
     3
 72
    19
 73
    15
 74
     0
 42
0.000000001
 43
0.0000000001
 40
-12.0
 40
-12.0
 40
-12.0
 40
-12.0
 40
-11.0
 40
-10.0
 40
-9.0
 40
-8.0
 40
-7.0
 40
-6.0
 40
-5.0
 40
-4.0
 40
-3.0
 40
-2.0
 40
-1.0
 40
0.0
 40
0.0
 40
0.0
 40
0.0
 10
1616.177685606282
 20
290.5492965779883
 30
4.185207900610024
 10
1620.289762047224
 20
295.2433968615155
 30
4.185207900610024
 10
1620.196166685865
 20
308.6886052179222
 30
4.185207900610024
 10
1618.960742954387
 20
327.3265308091367
 30
4.185207900610024
 10
1616.395909031394
 20
346.2360847988625
 30
4.185207900610024
 10
1613.550854252481
 20
364.987158429027
 30
4.185207900610024
 10
1610.135726649214
 20
383.67589891026
 30
4.185207900610024
 10
1606.285679890087
 20
402.2701846961912
 30
4.185207900610024
 10
1602.017538226797
 20
420.7754139255516
 30
4.185207900610024
 10
1597.377341911049
 20
439.1899284248272
 30
4.185207900610024
 10
1592.400804455903
 20
457.5164424552457
 30
4.185207900610024
 10
1587.124538586145
 20
475.7587182554746
 30
4.185207900610024
 10
1581.584329956791
 20
493.9224422490338
 30
4.185207900610024
 10
1577.738448942546
 20
505.9839876380038
 30
4.185207900610024
 10
1575.783209917622
 20
512.0042390319443
 30
4.185207900610024
  0
SPLINE
  5
5A4
330
1F
100
AcDbEntity
  8
Default
100
AcDbSpline
210
0.0
220
0.0
230
1.0
 70
     8
 71
     3
 72
    22
 73
    18
 74
     0
 42
0.000000001
 43
0.0000000001
 40
0.0
 40
0.0
 40
0.0
 40
0.0
 40
0.2588469591229587
 40
0.6477254461891114
 40
1.024641027840087
 40
1.817983982162573
 40
2.582167143679937
 40
4.062052734317923
 40
7.850412104674
 40
9.497260537102542
 40
10.543391206404
 40
10.8432833113025
 40
12.15829953678302
 40
13.34949093133962
 40
14.77372714428499
 40
17.25709974516987
 40
21.82793658798906
 40
21.82793658798906
 40
21.82793658798906
 40
21.82793658798906
 10
1566.373798859773
 20
302.3586508456444
 30
4.185207900610024
 10
1564.221699137674
 20
301.8730687508388
 30
4.185207900610024
 10
1559.347251559444
 20
299.25525802803
 30
4.185207900610024
 10
1552.632505959136
 20
293.7495668261447
 30
4.185207900610024
 10
1543.067792165358
 20
284.6536404423974
 30
4.185207900610024
 10
1531.800185835074
 20
272.770937447746
 30
4.185207900610024
 10
1513.296440549293
 20
254.9211942437003
 30
4.185207900610024
 10
1475.986538983186
 20
220.0718770610982
 30
4.185207900610024
 10
1431.403818145169
 20
182.1197015444163
 30
4.185207900610024
 10
1388.882043040305
 20
147.4855211679337
 30
4.185207900610024
 10
1369.070685438862
 20
131.7018212675355
 30
4.185207900610024
 10
1351.279280104448
 20
117.8752897704038
 30
4.185207900610024
 10
1330.382772700031
 20
106.3200641322556
 30
4.185207900610024
 10
1299.32754231597
 20
94.39170836363008
 30
4.185207900610024
 10
1258.106863549687
 20
81.48196496123143
 30
4.185207900610024
 10
1187.406454281577
 20
68.10835097004235
 30
4.185207900610024
 10
1126.86173441964
 20
72.29463297532084
 30
4.185207900610024
 10
1089.698772838608
 20
83.34217445454044
 30
4.185207900610024
  0
SPLINE
  5
5A5
330
1F
100
AcDbEntity
  8
Default
100
AcDbSpline
210
0.0
220
0.0
230
1.0
 70
    12
 71
     2
 72
     6
 73
     3
 74
     0
 42
0.000000001
 43
0.0000000001
 40
0.0
 40
0.0
 40
0.0
 40
0.0586712320260919
 40
0.0586712320260919
 40
0.0586712320260919
 10
832.2588636287445
 20
270.4172975000497
 30
4.185207900610024
 41
1.0
 10
832.0285421991089
 20
271.1297263952021
 30
4.185207900610024
 41
0.9921343149382712
 10
831.982396558916
 20
271.8770372217583
 30
4.185207900610024
 41
1.0
  0
SPLINE
  5
5A6
330
1F
100
AcDbEntity
  8
Default
100
AcDbSpline
210
0.0
220
0.0
230
1.0
 70
    24
 71
     2
 72
     6
 73
     3
 74
     0
 42
0.000000001
 43
0.0000000001
 40
0.0
 40
0.0
 40
0.0
 40
0.0114467396849787
 40
0.0114467396849787
 40
0.0114467396849787
 10
832.2588636287445
 20
270.4172975000497
 30
4.185207900610024
 10
832.1206656256485
 20
270.3723941779988
 30
4.185207900610024
 10
831.9824676225525
 20
270.3274908559478
 30
4.185207900610024
  0
SPLINE
  5
5A7
330
1F
100
AcDbEntity
  8
Default
100
AcDbSpline
210
0.0
220
0.0
230
1.0
 70
    12
 71
     2
 72
     6
 73
     3
 74
     0
 42
0.000000001
 43
0.0000000001
 40
0.0
 40
0.0
 40
0.0
 40
0.0587632096241838
 40
0.0587632096241838
 40
0.0587632096241838
 10
832.8944685547787
 20
269.0718551105058
 30
4.185207900610024
 41
1.0
 10
832.4916634598912
 20
269.7044116969578
 30
4.185207900610024
 41
0.9921107855315545
 10
832.2588681923825
 20
270.4172834546793
 30
4.185207900610024
 41
1.0
  0
SPLINE
  5
5A8
330
1F
100
AcDbEntity
  8
Default
100
AcDbSpline
210
0.0
220
0.0
230
1.0
 70
    12
 71
     2
 72
     6
 73
     3
 74
     0
 42
0.000000001
 43
0.0000000001
 40
-0.1297405451143296
 40
-0.1297405451143296
 40
-0.1297405451143296
 40
0.0
 40
0.0
 40
0.0
 10
1300.9706510164
 20
60.47083416366553
 30
4.185207900610024
 41
0.9999960316975588
 10
1300.489735668264
 20
62.04604169033382
 30
4.185207900610024
 41
0.999996865512317
 10
1300.013601066644
 20
63.62270086887765
 30
4.185207900610024
 41
1.0
  0
ARC
  5
5A9
330
1F
100
AcDbEntity
  8
Default
100
AcDbCircle
 10
1313.111860014897
 20
64.1775798803128
 30
4.185207900610024
 40
12.69444444444444
100
AcDbArc
 50
196.9775798079559
 51
209.7179678781667
  0
SPLINE
  5
5AA
330
1F
100
AcDbEntity
  8
Default
100
AcDbSpline
210
0.0
220
0.0
230
1.0
 70
     8
 71
     3
 72
    14
 73
    10
 74
     0
 42
0.000000001
 43
0.0000000001
 40
-7.0
 40
-7.0
 40
-7.0
 40
-7.0
 40
-6.0
 40
-5.0
 40
-4.0
 40
-3.0
 40
-2.0
 40
-1.0
 40
-0.2482205602640466
 40
-0.2482205602640466
 40
-0.2482205602640466
 40
-0.2482205602640466
 10
1300.497196918444
 20
31.890195175099
 30
4.185207900610024
 10
1301.869885614886
 20
32.32266067229711
 30
4.185207900610024
 10
1304.123131105868
 20
34.26195853701216
 30
4.185207900610024
 10
1305.754303049425
 20
38.28798191473879
 30
4.185207900610024
 10
1306.249151393594
 20
42.55633214029268
 30
4.185207900610024
 10
1305.967246849701
 20
46.83600473647487
 30
4.185207900610024
 10
1305.085921696991
 20
51.02851030097486
 30
4.185207900610024
 10
1303.755808085658
 20
54.72847215292353
 30
4.185207900610024
 10
1302.618169792333
 20
56.95405544649446
 30
4.185207900610024
 10
1302.087038455701
 20
57.88454966101813
 30
4.185207900610024
  0
SPLINE
  5
5AB
330
1F
100
AcDbEntity
  8
Default
100
AcDbSpline
210
0.0
220
0.0
230
1.0
 70
     8
 71
     3
 72
    14
 73
    10
 74
     0
 42
0.000000001
 43
0.0000000001
 40
0.2772630823298201
 40
0.2772630823298201
 40
0.2772630823298201
 40
0.2772630823298201
 40
1.0
 40
2.0
 40
3.0
 40
4.0
 40
5.0
 40
6.0
 40
7.0
 40
7.0
 40
7.0
 40
7.0
 10
1283.945697719129
 20
51.8621828412052
 30
4.185207900610024
 10
1284.062070490174
 20
50.83875182684301
 30
4.185207900610024
 10
1284.448518471251
 20
48.41154248687598
 30
4.185207900610024
 10
1285.535621205374
 20
44.67623260397641
 30
4.185207900610024
 10
1287.28690712023
 20
40.76639442604784
 30
4.185207900610024
 10
1289.574369990104
 20
37.13836723192054
 30
4.185207900610024
 10
1292.483584024375
 20
33.97606392032737
 30
4.185207900610024
 10
1296.169667014273
 20
31.67772140037153
 30
4.185207900610024
 10
1299.132471593658
 20
31.43322094005589
 30
4.185207900610024
 10
1300.497196918444
 20
31.890195175099
 30
4.185207900610024
  0
ARC
  5
5AC
330
1F
100
AcDbEntity
  8
Default
100
AcDbCircle
 10
1271.332533072756
 20
50.42795923362007
 30
4.185207900610024
 40
12.69444444444444
100
AcDbArc
 50
6.487152173535007
 51
18.94225522513258
  0
SPLINE
  5
5AD
330
1F
100
AcDbEntity
  8
Default
100
AcDbSpline
210
0.0
220
0.0
230
1.0
 70
    12
 71
     2
 72
     6
 73
     3
 74
     0
 42
0.000000001
 43
0.0000000001
 40
0.0
 40
0.0
 40
0.0
 40
0.1369528492222414
 40
0.1369528492222414
 40
0.1369528492222414
 10
1282.248627626391
 20
57.85051109508493
 30
4.185207900610024
 41
1.0
 10
1282.820257777121
 20
56.20866528070092
 30
4.185207900610024
 41
0.9999966913238282
 10
1283.339525299499
 20
54.54876709373968
 30
4.185207900610024
 41
0.9999959461296658
  0
SPLINE
  5
5AE
330
1F
100
AcDbEntity
  8
Default
100
AcDbSpline
210
0.0
220
0.0
230
1.0
 70
     8
 71
     3
 72
    12
 73
     8
 74
     0
 42
0.000000001
 43
0.0000000001
 40
-1.014583801502342
 40
-1.014583801502342
 40
-1.014583801502342
 40
-1.014583801502342
 40
-0.8249401141264362
 40
-0.5900965017365678
 40
-0.3037660471064116
 40
-0.1510110321465192
 40
0.0
 40
0.0
 40
0.0
 40
0.0
 10
1300.615983823625
 20
31.52456587513098
 30
4.185207900610024
 10
1302.179648428795
 20
31.99916908978793
 30
4.185207900610024
 10
1304.902875775475
 20
34.61238404557929
 30
4.185207900610024
 10
1306.580707205098
 20
40.51945436869925
 30
4.185207900610024
 10
1306.32894106777
 20
46.26108512869024
 30
4.185207900610024
 10
1305.203293197938
 20
51.13960438397589
 30
4.185207900610024
 10
1304.31606039166
 20
53.5555709322748
 30
4.185207900610024
 10
1303.804128734501
 20
54.72721689926152
 30
4.185207900610024
  0
SPLINE
  5
5AF
330
1F
100
AcDbEntity
  8
Default
100
AcDbSpline
210
0.0
220
0.0
230
1.0
 70
     8
 71
     3
 72
    12
 73
     8
 74
     0
 42
0.000000001
 43
0.0000000001
 40
0.0
 40
0.0
 40
0.0
 40
0.0
 40
0.1510110321465192
 40
0.3037660471064116
 40
0.5900965017365678
 40
0.8249401141264362
 40
1.014583801502342
 40
1.014583801502342
 40
1.014583801502342
 40
1.014583801502342
 10
1284.398544324124
 20
48.42196030741973
 30
4.185207900610024
 10
1284.673059133827
 20
47.17317293047705
 30
4.185207900610024
 10
1285.375342222703
 20
44.6971125761816
 30
4.185207900610024
 10
1287.332195637608
 20
40.08866837410806
 30
4.185207900610024
 10
1290.503358438733
 20
35.29560709130152
 30
4.185207900610024
 10
1295.332841399179
 20
31.50289138309444
 30
4.185207900610024
 10
1299.071987814274
 20
30.98942894692277
 30
4.185207900610024
 10
1300.615983823625
 20
31.52456587513098
 30
4.185207900610024
  0
SPLINE
  5
5B0
330
1F
100
AcDbEntity
  8
Default
100
AcDbSpline
210
0.0
220
0.0
230
1.0
 70
    12
 71
     2
 72
     6
 73
     3
 74
     0
 42
0.000000001
 43
0.0000000001
 40
0.0
 40
0.0
 40
0.0
 40
0.0853474550214741
 40
0.0853474550214741
 40
0.0853474550214741
 10
1304.15057735415
 20
53.90420462107414
 30
4.185207900610024
 41
1.0
 10
1304.556825896903
 20
52.8993436512655
 30
4.185207900610024
 41
0.9993970637774639
 10
1304.892358610278
 20
51.86871217232283
 30
4.185207900610024
 41
1.0
  0
SPLINE
  5
5B1
330
1F
100
AcDbEntity
  8
Default
100
AcDbSpline
210
0.0
220
0.0
230
1.0
 70
    12
 71
     2
 72
     6
 73
     3
 74
     0
 42
0.000000001
 43
0.0000000001
 40
0.0
 40
0.0
 40
0.0
 40
0.0853474550214741
 40
0.0853474550214741
 40
0.0853474550214741
 10
854.3354752488788
 20
266.784244336857
 30
4.185207900610024
 41
1.0
 10
853.3306142790701
 20
266.3779957941046
 30
4.185207900610024
 41
0.9993970637774639
 10
852.2999828001273
 20
266.0424630807284
 30
4.185207900610024
 41
1.0
  0
SPLINE
  5
5B2
330
1F
100
AcDbEntity
  8
Default
100
AcDbSpline
210
0.0
220
0.0
230
1.0
 70
    12
 71
     2
 72
     6
 73
     3
 74
     0
 42
0.000000001
 43
0.0000000001
 40
-0.1297405451143296
 40
-0.1297405451143296
 40
-0.1297405451143296
 40
0.0
 40
0.0
 40
0.0
 10
860.90210479147
 20
269.9641706746067
 30
4.185207900610024
 41
0.9999960316975588
 10
862.4773123181384
 20
270.4450860227431
 30
4.185207900610024
 41
0.999996865512317
 10
864.0539714966825
 20
270.9212206243626
 30
4.185207900610024
 41
1.0
  0
ARC
  5
5B3
330
1F
100
AcDbEntity
  8
Default
100
AcDbCircle
 10
864.6088505081177
 20
257.822961676109
 30
4.185207900610024
 40
12.69444444444444
100
AcDbArc
 50
106.9775798079559
 51
119.7179678781667
  0
SPLINE
  5
5B4
330
1F
100
AcDbEntity
  8
Default
100
AcDbSpline
210
0.0
220
0.0
230
1.0
 70
     8
 71
     3
 72
    14
 73
    10
 74
     0
 42
0.000000001
 43
0.0000000001
 40
-7.0
 40
-7.0
 40
-7.0
 40
-7.0
 40
-6.0
 40
-5.0
 40
-4.0
 40
-3.0
 40
-2.0
 40
-1.0
 40
-0.2482205602640466
 40
-0.2482205602640466
 40
-0.2482205602640466
 40
-0.2482205602640466
 10
832.3214658029035
 20
270.4376247725627
 30
4.185207900610024
 10
832.7539313001016
 20
269.0649360761205
 30
4.185207900610024
 10
834.6932291648167
 20
266.8116905851387
 30
4.185207900610024
 10
838.7192525425431
 20
265.1805186415817
 30
4.185207900610024
 10
842.9876027680972
 20
264.6856702974126
 30
4.185207900610024
 10
847.2672753642795
 20
264.9675748413065
 30
4.185207900610024
 10
851.4597809287796
 20
265.8488999940153
 30
4.185207900610024
 10
855.1597427807282
 20
267.179013605349
 30
4.185207900610024
 10
857.3853260742987
 20
268.3166518986737
 30
4.185207900610024
 10
858.3158202888224
 20
268.8477832353058
 30
4.185207900610024
  0
SPLINE
  5
5B5
330
1F
100
AcDbEntity
  8
Default
100
AcDbSpline
210
0.0
220
0.0
230
1.0
 70
     8
 71
     3
 72
    14
 73
    10
 74
     0
 42
0.000000001
 43
0.0000000001
 40
0.2772630823298201
 40
0.2772630823298201
 40
0.2772630823298201
 40
0.2772630823298201
 40
1.0
 40
2.0
 40
3.0
 40
4.0
 40
5.0
 40
6.0
 40
7.0
 40
7.0
 40
7.0
 40
7.0
 10
852.2934534690097
 20
286.989123971877
 30
4.185207900610024
 10
851.2700224546474
 20
286.8727512008327
 30
4.185207900610024
 10
848.8428131146806
 20
286.4863032197558
 30
4.185207900610024
 10
845.1075032317811
 20
285.3992004856328
 30
4.185207900610024
 10
841.1976650538525
 20
283.6479145707772
 30
4.185207900610024
 10
837.569637859725
 20
281.3604517009027
 30
4.185207900610024
 10
834.4073345481318
 20
278.4512376666318
 30
4.185207900610024
 10
832.1089920281762
 20
274.7651546767341
 30
4.185207900610024
 10
831.8644915678603
 20
271.8023500973494
 30
4.185207900610024
 10
832.3214658029035
 20
270.4376247725627
 30
4.185207900610024
  0
ARC
  5
5B6
330
1F
100
AcDbEntity
  8
Default
100
AcDbCircle
 10
850.8592298614246
 20
299.6022886182507
 30
4.185207900610024
 40
12.69444444444444
100
AcDbArc
 50
276.4871521735349
 51
288.9422552251326
  0
SPLINE
  5
5B7
330
1F
100
AcDbEntity
  8
Default
100
AcDbSpline
210
0.0
220
0.0
230
1.0
 70
    12
 71
     2
 72
     6
 73
     3
 74
     0
 42
0.000000001
 43
0.0000000001
 40
0.0
 40
0.0
 40
0.0
 40
0.1369528492222414
 40
0.1369528492222414
 40
0.1369528492222414
 10
858.2817817228898
 20
288.6861940646157
 30
4.185207900610024
 41
1.0
 10
856.6399359085052
 20
288.1145639138857
 30
4.185207900610024
 41
0.9999966913238282
 10
854.9800377215445
 20
287.5952963915082
 30
4.185207900610024
 41
0.9999959461296658
  0
SPLINE
  5
5B8
330
1F
100
AcDbEntity
  8
Default
100
AcDbSpline
210
0.0
220
0.0
230
1.0
 70
     8
 71
     3
 72
    12
 73
     8
 74
     0
 42
0.000000001
 43
0.0000000001
 40
-1.014583801502342
 40
-1.014583801502342
 40
-1.014583801502342
 40
-1.014583801502342
 40
-0.8249401141264362
 40
-0.5900965017365678
 40
-0.3037660471064116
 40
-0.1510110321465192
 40
0.0
 40
0.0
 40
0.0
 40
0.0
 10
831.9558365029358
 20
270.3188378673814
 30
4.185207900610024
 10
832.4304397175927
 20
268.7551732622118
 30
4.185207900610024
 10
835.0436546733831
 20
266.0319459155309
 30
4.185207900610024
 10
840.950724996504
 20
264.3541144859085
 30
4.185207900610024
 10
846.6923557564948
 20
264.6058806232363
 30
4.185207900610024
 10
851.5708750117806
 20
265.7315284930687
 30
4.185207900610024
 10
853.9868415600793
 20
266.6187612993468
 30
4.185207900610024
 10
855.1584875270659
 20
267.1306929565055
 30
4.185207900610024
  0
SPLINE
  5
5B9
330
1F
100
AcDbEntity
  8
Default
100
AcDbSpline
210
0.0
220
0.0
230
1.0
 70
     8
 71
     3
 72
    12
 73
     8
 74
     0
 42
0.000000001
 43
0.0000000001
 40
0.0
 40
0.0
 40
0.0
 40
0.0
 40
0.1510110321465192
 40
0.3037660471064116
 40
0.5900965017365678
 40
0.8249401141264362
 40
1.014583801502342
 40
1.014583801502342
 40
1.014583801502342
 40
1.014583801502342
 10
848.853230935224
 20
286.536277366883
 30
4.185207900610024
 10
847.6044435582814
 20
286.2617625571802
 30
4.185207900610024
 10
845.1283832039861
 20
285.5594794683042
 30
4.185207900610024
 10
840.5199390019127
 20
283.6026260533988
 30
4.185207900610024
 10
835.7268777191061
 20
280.4314632522736
 30
4.185207900610024
 10
831.9341620108984
 20
275.6019802918276
 30
4.185207900610024
 10
831.4206995747277
 20
271.8628338767326
 30
4.185207900610024
 10
831.9558365029358
 20
270.3188378673814
 30
4.185207900610024
  0
ENDSEC
  0
SECTION
  2
OBJECTS
  0
DICTIONARY
  5
C
330
0
100
AcDbDictionary
281
     1
  3
ACAD_BACKGROUND
350
11E
  3
ACAD_CIP_PREVIOUS_PRODUCT_INFO
350
11D
  3
ACAD_COLOR
350
101
  3
ACAD_DETAILVIEWSTYLE
350
118
  3
ACAD_GROUP
350
D
  3
ACAD_LAYOUT
350
1A
  3
ACAD_MATERIAL
350
DE
  3
ACAD_MLEADERSTYLE
350
DC
  3
ACAD_MLINESTYLE
350
17
  3
ACAD_PLOTSETTINGS
350
19
  3
ACAD_PLOTSTYLENAME
350
E
  3
ACAD_SCALELIST
350
103
  3
ACAD_SECTIONVIEWSTYLE
350
116
  3
ACAD_TABLESTYLE
350
DB
  3
ACAD_VISUALSTYLE
350
2A
  3
ACDB_RECOMPOSE_DATA
350
610
  3
AcDbVariableDictionary
350
3AE
  0
DICTIONARY
  5
474
330
2
100
AcDbDictionary
280
     1
281
     1
  3
ACAD_LAYERSTATES
360
475
  0
DICTIONARY
  5
121
330
10
100
AcDbDictionary
280
     1
281
     1
  3
ADSK_XREC_LAYER_RECONCILED
360
122
  0
DICTIONARY
  5
123
330
3B
100
AcDbDictionary
280
     1
281
     1
  3
ADSK_XREC_LAYER_RECONCILED
360
124
  0
DICTIONARY
  5
363
330
1F
100
AcDbDictionary
280
     1
281
     1
  3
ACAD_SORTENTS
360
364
  0
DICTIONARY
  5
11E
102
{ACAD_REACTORS
330
C
102
}
330
C
100
AcDbDictionary
281
     1
  0
XRECORD
  5
11D
102
{ACAD_REACTORS
330
C
102
}
330
C
100
AcDbXrecord
280
     1
300
ACD
300
2016
300
ACD_F_S
  0
DICTIONARY
  5
101
102
{ACAD_REACTORS
330
C
102
}
330
C
100
AcDbDictionary
281
     1
  0
DICTIONARY
  5
118
102
{ACAD_REACTORS
330
C
102
}
330
C
100
AcDbDictionary
281
     1
  3
Imperial24
350
119
  0
DICTIONARY
  5
D
102
{ACAD_REACTORS
330
C
102
}
330
C
100
AcDbDictionary
281
     1
  0
DICTIONARY
  5
1A
102
{ACAD_REACTORS
330
C
102
}
330
C
100
AcDbDictionary
281
     1
  3
Layout1
350
1E
  3
Layout2
350
26
  3
Model
350
22
  0
DICTIONARY
  5
DE
102
{ACAD_REACTORS
330
C
102
}
330
C
100
AcDbDictionary
281
     1
  3
ByBlock
350
E7
  3
ByLayer
350
DF
  3
Global
350
EF
  0
DICTIONARY
  5
DC
102
{ACAD_REACTORS
330
C
102
}
330
C
100
AcDbDictionary
281
     1
  3
Standard
350
115
  0
DICTIONARY
  5
17
102
{ACAD_REACTORS
330
C
102
}
330
C
100
AcDbDictionary
281
     1
  3
Standard
350
18
  0
DICTIONARY
  5
19
102
{ACAD_REACTORS
330
C
102
}
330
C
100
AcDbDictionary
281
     1
  0
ACDBDICTIONARYWDFLT
  5
E
102
{ACAD_REACTORS
330
C
102
}
330
C
100
AcDbDictionary
281
     1
  3
Normal
350
F
100
AcDbDictionaryWithDefault
340
F
  0
DICTIONARY
  5
103
102
{ACAD_REACTORS
330
C
102
}
330
C
100
AcDbDictionary
281
     1
  3
A0
350
104
  3
A1
350
105
  3
A2
350
106
  3
A3
350
107
  3
A4
350
108
  3
A5
350
109
  3
A6
350
10A
  3
A7
350
10B
  3
A8
350
10C
  3
A9
350
10D
  3
B0
350
10E
  3
B1
350
10F
  3
B2
350
110
  3
B3
350
111
  3
B4
350
112
  3
B5
350
113
  3
B6
350
114
  0
DICTIONARY
  5
116
102
{ACAD_REACTORS
330
C
102
}
330
C
100
AcDbDictionary
281
     1
  3
Imperial24
350
117
  0
DICTIONARY
  5
DB
102
{ACAD_REACTORS
330
C
102
}
330
C
100
AcDbDictionary
281
     1
  3
Standard
350
102
  0
DICTIONARY
  5
2A
102
{ACAD_REACTORS
330
C
102
}
330
C
100
AcDbDictionary
281
     1
  3
2dWireframe
350
2F
  3
3D Hidden
350
31
  3
3dWireframe
350
30
  3
Basic
350
32
  3
Brighten
350
36
  3
ColorChange
350
3A
  3
Conceptual
350
34
  3
Dim
350
35
  3
EdgeColorOff
350
100
  3
Facepattern
350
39
  3
Flat
350
2B
  3
FlatWithEdges
350
2C
  3
Gouraud
350
2D
  3
GouraudWithEdges
350
2E
  3
Hidden
350
F8
  3
JitterOff
350
FE
  3
Linepattern
350
38
  3
OverhangOff
350
FF
  3
Realistic
350
33
  3
Shaded
350
FD
  3
Shaded with edges
350
FC
  3
Shades of Gray
350
F9
  3
Sketchy
350
FA
  3
Thicken
350
37
  3
Wireframe
350
F7
  3
X-Ray
350
FB
  0
XRECORD
  5
610
102
{ACAD_REACTORS
330
C
102
}
330
C
100
AcDbXrecord
280
     1
 90
        1
330
102
330
117
330
119
  0
DICTIONARY
  5
3AE
102
{ACAD_REACTORS
330
C
102
}
330
C
100
AcDbDictionary
281
     1
  3
CANNOSCALE
350
4A7
  3
CMLEADERSTYLE
350
4A3
  3
CTABLESTYLE
350
4A2
  3
CVIEWDETAILSTYLE
350
4A4
  3
CVIEWSECTIONSTYLE
350
4A5
  3
LAYEREVAL
350
4A9
  3
LAYERNOTIFY
350
4AA
  3
LIGHTINGUNITS
350
4A8
  3
MSLTSCALE
350
4A6
  0
DICTIONARY
  5
475
102
{ACAD_REACTORS
330
474
102
}
330
474
100
AcDbDictionary
281
     1
  0
XRECORD
  5
122
102
{ACAD_REACTORS
330
121
102
}
330
121
100
AcDbXrecord
280
     1
290
     1
  0
XRECORD
  5
124
102
{ACAD_REACTORS
330
123
102
}
330
123
100
AcDbXrecord
280
     1
290
     1
  0
SORTENTSTABLE
  5
364
102
{ACAD_REACTORS
330
363
102
}
330
363
100
AcDbSortentsTable
330
1F
331
2D3
  5
2D3
331
2AF
  5
2AF
331
2DA
  5
2DA
331
2CE
  5
2CE
331
35B
  5
35B
331
2AA
  5
2AA
331
34F
  5
34F
331
2C9
  5
2C9
331
356
  5
356
331
34A
  5
34A
331
2D6
  5
2D6
331
351
  5
351
331
2D1
  5
2D1
331
35E
  5
35E
331
2AD
  5
2AD
331
2D8
  5
2D8
331
359
  5
359
331
2CC
  5
2CC
331
34D
  5
34D
331
2A8
  5
2A8
331
354
  5
354
331
2D4
  5
2D4
331
2DB
  5
2DB
331
35C
  5
35C
331
2CF
  5
2CF
331
2AB
  5
2AB
331
2CA
  5
2CA
331
357
  5
357
331
34B
  5
34B
331
2D7
  5
2D7
331
352
  5
352
331
2D2
  5
2D2
331
2AE
  5
2AE
331
2D9
  5
2D9
331
2CD
  5
2CD
331
35A
  5
35A
331
4B3
  5
3B0
331
2A9
  5
2A9
331
34E
  5
34E
331
355
  5
355
331
2D5
  5
2D5
331
350
  5
350
331
2DC
  5
2DC
331
35D
  5
35D
331
2D0
  5
2D0
331
2AC
  5
2AC
331
358
  5
358
331
34C
  5
34C
331
353
  5
353
  0
ACDBDETAILVIEWSTYLE
  5
119
102
{ACAD_XDICTIONARY
360
49F
102
}
102
{ACAD_REACTORS
330
118
102
}
330
118
100
AcDbModelDocViewStyle
 70
     0
  3
Imperial24
290
     0
100
AcDbDetailViewStyle
 70
     0
 71
     0
 90
        3
 71
     1
340
11
 62
   256
 40
0.24
340
0
 62
   256
 40
0.24
300

 40
0.36
280
     3
 71
     2
340
16
 90
       25
 62
   256
 71
     3
340
11
 62
   256
 40
0.24
 90
        1
 40
0.75
 90
        1
300
%<\AcVar ViewType \f "%tc1">% %<\AcVar ViewDetailId>%\PSCALE %<\AcVar ViewScale \f "%sn">%
 71
     4
340
16
 90
       25
 62
   256
340
16
 90
       25
 62
   256
280
     0
  0
LAYOUT
  5
1E
102
{ACAD_REACTORS
330
1A
102
}
330
1A
100
AcDbPlotSettings
  1

  2
none_device
  4

  6

 40
0.0
 41
0.0
 42
0.0
 43
0.0
 44
0.0
 45
0.0
 46
0.0
 47
0.0
 48
0.0
 49
0.0
140
0.0
141
0.0
142
1.0
143
1.0
 70
   688
 72
     0
 73
     0
 74
     5
  7

 75
    16
147
1.0
 76
     0
 77
     2
 78
   300
148
0.0
149
0.0
100
AcDbLayout
  1
Layout1
 70
     1
 71
     1
 10
0.0
 20
0.0
 11
12.0
 21
9.0
 12
0.0
 22
0.0
 32
0.0
 14
1.000000000000000E+20
 24
1.000000000000000E+20
 34
1.000000000000000E+20
 15
-1.000000000000000E+20
 25
-1.000000000000000E+20
 35
-1.000000000000000E+20
146
0.0
 13
0.0
 23
0.0
 33
0.0
 16
1.0
 26
0.0
 36
0.0
 17
0.0
 27
1.0
 37
0.0
 76
     0
330
1B
  0
LAYOUT
  5
26
102
{ACAD_REACTORS
330
1A
102
}
330
1A
100
AcDbPlotSettings
  1

  2
none_device
  4

  6

 40
0.0
 41
0.0
 42
0.0
 43
0.0
 44
0.0
 45
0.0
 46
0.0
 47
0.0
 48
0.0
 49
0.0
140
0.0
141
0.0
142
1.0
143
1.0
 70
   688
 72
     0
 73
     0
 74
     5
  7

 75
    16
147
1.0
 76
     0
 77
     2
 78
   300
148
0.0
149
0.0
100
AcDbLayout
  1
Layout2
 70
     1
 71
     2
 10
0.0
 20
0.0
 11
0.0
 21
0.0
 12
0.0
 22
0.0
 32
0.0
 14
0.0
 24
0.0
 34
0.0
 15
0.0
 25
0.0
 35
0.0
146
0.0
 13
0.0
 23
0.0
 33
0.0
 16
1.0
 26
0.0
 36
0.0
 17
0.0
 27
1.0
 37
0.0
 76
     0
330
23
  0
LAYOUT
  5
22
102
{ACAD_REACTORS
330
1A
102
}
330
1A
100
AcDbPlotSettings
  1

  2
none_device
  4

  6

 40
0.0
 41
0.0
 42
0.0
 43
0.0
 44
0.0
 45
0.0
 46
0.0
 47
0.0
 48
0.0
 49
0.0
140
0.0
141
0.0
142
1.0
143
1.0
 70
  1712
 72
     0
 73
     0
 74
     0
  7

 75
     0
147
1.0
 76
     0
 77
     2
 78
   300
148
0.0
149
0.0
100
AcDbLayout
  1
Model
 70
     1
 71
     0
 10
0.0
 20
0.0
 11
12.0
 21
9.0
 12
0.0
 22
0.0
 32
0.0
 14
1.000000000000000E+20
 24
1.000000000000000E+20
 34
1.000000000000000E+20
 15
-1.000000000000000E+20
 25
-1.000000000000000E+20
 35
-1.000000000000000E+20
146
0.0
 13
0.0
 23
0.0
 33
0.0
 16
1.0
 26
0.0
 36
0.0
 17
0.0
 27
1.0
 37
0.0
 76
     0
330
1F
331
29
  0
MATERIAL
  5
E7
102
{ACAD_XDICTIONARY
360
E8
102
}
102
{ACAD_REACTORS
330
DE
102
}
330
DE
100
AcDbMaterial
  1
ByBlock
 72
     0
 43
0.0208333333333333
 43
0.0
 43
0.0
 43
0.0
 43
0.0
 43
0.0208333333333333
 43
0.0
 43
0.0
 43
0.0
 43
0.0
 43
1.0
 43
0.0
 43
0.0
 43
0.0
 43
0.0
 43
1.0
 77
     0
 47
0.0208333333333333
 47
0.0
 47
0.0
 47
0.0
 47
0.0
 47
0.0208333333333333
 47
0.0
 47
0.0
 47
0.0
 47
0.0
 47
1.0
 47
0.0
 47
0.0
 47
0.0
 47
0.0
 47
1.0
171
     0
 49
0.0208333333333333
 49
0.0
 49
0.0
 49
0.0
 49
0.0
 49
0.0208333333333333
 49
0.0
 49
0.0
 49
0.0
 49
0.0
 49
1.0
 49
0.0
 49
0.0
 49
0.0
 49
0.0
 49
1.0
175
     0
142
0.0208333333333333
142
0.0
142
0.0
142
0.0
142
0.0
142
0.0208333333333333
142
0.0
142
0.0
142
0.0
142
0.0
142
1.0
142
0.0
142
0.0
142
0.0
142
0.0
142
1.0
179
     0
144
0.0208333333333333
144
0.0
144
0.0
144
0.0
144
0.0
144
0.0208333333333333
144
0.0
144
0.0
144
0.0
144
0.0
144
1.0
144
0.0
144
0.0
144
0.0
144
0.0
144
1.0
147
0.0208333333333333
147
0.0
147
0.0
147
0.0
147
0.0
147
0.0208333333333333
147
0.0
147
0.0
147
0.0
147
0.0
147
1.0
147
0.0
147
0.0
147
0.0
147
0.0
147
1.0
  0
MATERIAL
  5
DF
102
{ACAD_XDICTIONARY
360
E0
102
}
102
{ACAD_REACTORS
330
DE
102
}
330
DE
100
AcDbMaterial
  1
ByLayer
 72
     0
 43
0.0208333333333333
 43
0.0
 43
0.0
 43
0.0
 43
0.0
 43
0.0208333333333333
 43
0.0
 43
0.0
 43
0.0
 43
0.0
 43
1.0
 43
0.0
 43
0.0
 43
0.0
 43
0.0
 43
1.0
 77
     0
 47
0.0208333333333333
 47
0.0
 47
0.0
 47
0.0
 47
0.0
 47
0.0208333333333333
 47
0.0
 47
0.0
 47
0.0
 47
0.0
 47
1.0
 47
0.0
 47
0.0
 47
0.0
 47
0.0
 47
1.0
171
     0
 49
0.0208333333333333
 49
0.0
 49
0.0
 49
0.0
 49
0.0
 49
0.0208333333333333
 49
0.0
 49
0.0
 49
0.0
 49
0.0
 49
1.0
 49
0.0
 49
0.0
 49
0.0
 49
0.0
 49
1.0
175
     0
142
0.0208333333333333
142
0.0
142
0.0
142
0.0
142
0.0
142
0.0208333333333333
142
0.0
142
0.0
142
0.0
142
0.0
142
1.0
142
0.0
142
0.0
142
0.0
142
0.0
142
1.0
179
     0
144
0.0208333333333333
144
0.0
144
0.0
144
0.0
144
0.0
144
0.0208333333333333
144
0.0
144
0.0
144
0.0
144
0.0
144
1.0
144
0.0
144
0.0
144
0.0
144
0.0
144
1.0
147
0.0208333333333333
147
0.0
147
0.0
147
0.0
147
0.0
147
0.0208333333333333
147
0.0
147
0.0
147
0.0
147
0.0
147
1.0
147
0.0
147
0.0
147
0.0
147
0.0
147
1.0
  0
MATERIAL
  5
EF
102
{ACAD_XDICTIONARY
360
F0
102
}
102
{ACAD_REACTORS
330
DE
102
}
330
DE
100
AcDbMaterial
  1
Global
 72
     0
 43
0.0208333333333333
 43
0.0
 43
0.0
 43
0.0
 43
0.0
 43
0.0208333333333333
 43
0.0
 43
0.0
 43
0.0
 43
0.0
 43
1.0
 43
0.0
 43
0.0
 43
0.0
 43
0.0
 43
1.0
 77
     0
 47
0.0208333333333333
 47
0.0
 47
0.0
 47
0.0
 47
0.0
 47
0.0208333333333333
 47
0.0
 47
0.0
 47
0.0
 47
0.0
 47
1.0
 47
0.0
 47
0.0
 47
0.0
 47
0.0
 47
1.0
171
     0
 49
0.0208333333333333
 49
0.0
 49
0.0
 49
0.0
 49
0.0
 49
0.0208333333333333
 49
0.0
 49
0.0
 49
0.0
 49
0.0
 49
1.0
 49
0.0
 49
0.0
 49
0.0
 49
0.0
 49
1.0
175
     0
142
0.0208333333333333
142
0.0
142
0.0
142
0.0
142
0.0
142
0.0208333333333333
142
0.0
142
0.0
142
0.0
142
0.0
142
1.0
142
0.0
142
0.0
142
0.0
142
0.0
142
1.0
179
     0
144
0.0208333333333333
144
0.0
144
0.0
144
0.0
144
0.0
144
0.0208333333333333
144
0.0
144
0.0
144
0.0
144
0.0
144
1.0
144
0.0
144
0.0
144
0.0
144
0.0
144
1.0
147
0.0208333333333333
147
0.0
147
0.0
147
0.0
147
0.0
147
0.0208333333333333
147
0.0
147
0.0
147
0.0
147
0.0
147
1.0
147
0.0
147
0.0
147
0.0
147
0.0
147
1.0
  0
MLEADERSTYLE
  5
115
102
{ACAD_REACTORS
330
DC
102
}
330
DC
100
AcDbMLeaderStyle
179
     2
170
     2
171
     1
172
     0
 90
        2
 40
0.0
 41
0.0
173
     1
 91
-1056964608
340
14
 92
       -2
290
     1
 42
0.09
291
     1
 43
0.36
  3
Standard
 44
0.18
300

342
11
174
     1
178
     6
175
     1
176
     0
 93
-1056964608
 45
0.18
292
     0
297
     0
 46
0.18
 94
-1056964608
 47
1.0
 49
1.0
140
1.0
293
     1
141
0.0
294
     1
177
     0
142
1.0
295
     1
296
     0
143
0.125
271
     0
272
     9
273
     9
298
     1
  0
MLINESTYLE
  5
18
102
{ACAD_REACTORS
330
17
102
}
330
17
100
AcDbMlineStyle
  2
STANDARD
 70
     0
  3

 62
   256
 51
90.0
 52
90.0
 71
     2
 49
0.5
 62
   256
  6
BYLAYER
 49
-0.5
 62
   256
  6
BYLAYER
  0
ACDBPLACEHOLDER
  5
F
102
{ACAD_REACTORS
330
E
102
}
330
E
  0
SCALE
  5
104
102
{ACAD_REACTORS
330
103
102
}
330
103
100
AcDbScale
 70
     0
300
1:1
140
1.0
141
1.0
290
     1
  0
SCALE
  5
105
102
{ACAD_REACTORS
330
103
102
}
330
103
100
AcDbScale
 70
     0
300
1/128" = 1'-0"
140
0.0078125
141
12.0
290
     0
  0
SCALE
  5
106
102
{ACAD_REACTORS
330
103
102
}
330
103
100
AcDbScale
 70
     0
300
1/64" = 1'-0"
140
0.015625
141
12.0
290
     0
  0
SCALE
  5
107
102
{ACAD_REACTORS
330
103
102
}
330
103
100
AcDbScale
 70
     0
300
1/32" = 1'-0"
140
0.03125
141
12.0
290
     0
  0
SCALE
  5
108
102
{ACAD_REACTORS
330
103
102
}
330
103
100
AcDbScale
 70
     0
300
1/16" = 1'-0"
140
0.0625
141
12.0
290
     0
  0
SCALE
  5
109
102
{ACAD_REACTORS
330
103
102
}
330
103
100
AcDbScale
 70
     0
300
3/32" = 1'-0"
140
0.09375
141
12.0
290
     0
  0
SCALE
  5
10A
102
{ACAD_REACTORS
330
103
102
}
330
103
100
AcDbScale
 70
     0
300
1/8" = 1'-0"
140
0.125
141
12.0
290
     0
  0
SCALE
  5
10B
102
{ACAD_REACTORS
330
103
102
}
330
103
100
AcDbScale
 70
     0
300
3/16" = 1'-0"
140
0.1875
141
12.0
290
     0
  0
SCALE
  5
10C
102
{ACAD_REACTORS
330
103
102
}
330
103
100
AcDbScale
 70
     0
300
1/4" = 1'-0"
140
0.25
141
12.0
290
     0
  0
SCALE
  5
10D
102
{ACAD_REACTORS
330
103
102
}
330
103
100
AcDbScale
 70
     0
300
3/8" = 1'-0"
140
0.375
141
12.0
290
     0
  0
SCALE
  5
10E
102
{ACAD_REACTORS
330
103
102
}
330
103
100
AcDbScale
 70
     0
300
1/2" = 1'-0"
140
0.5
141
12.0
290
     0
  0
SCALE
  5
10F
102
{ACAD_REACTORS
330
103
102
}
330
103
100
AcDbScale
 70
     0
300
3/4" = 1'-0"
140
0.75
141
12.0
290
     0
  0
SCALE
  5
110
102
{ACAD_REACTORS
330
103
102
}
330
103
100
AcDbScale
 70
     0
300
1" = 1'-0"
140
1.0
141
12.0
290
     0
  0
SCALE
  5
111
102
{ACAD_REACTORS
330
103
102
}
330
103
100
AcDbScale
 70
     0
300
1-1/2" = 1'-0"
140
1.5
141
12.0
290
     0
  0
SCALE
  5
112
102
{ACAD_REACTORS
330
103
102
}
330
103
100
AcDbScale
 70
     0
300
3" = 1'-0"
140
3.0
141
12.0
290
     0
  0
SCALE
  5
113
102
{ACAD_REACTORS
330
103
102
}
330
103
100
AcDbScale
 70
     0
300
6" = 1'-0"
140
6.0
141
12.0
290
     0
  0
SCALE
  5
114
102
{ACAD_REACTORS
330
103
102
}
330
103
100
AcDbScale
 70
     0
300
1'-0" = 1'-0"
140
12.0
141
12.0
290
     0
  0
ACDBSECTIONVIEWSTYLE
  5
117
102
{ACAD_XDICTIONARY
360
49D
102
}
102
{ACAD_REACTORS
330
116
102
}
330
116
100
AcDbModelDocViewStyle
 70
     0
  3
Imperial24
290
     0
100
AcDbSectionViewStyle
 70
     0
 71
     0
 90
       78
 71
     1
340
11
 62
   256
 40
0.24
340
0
340
0
 62
   256
 40
0.24
300
I, O, Q, S, X, Z
 40
0.48
 90
        3
 40
0.18
 90
        1
 71
     2
340
16
 90
       25
 62
   256
340
16
 90
       50
 62
   256
 40
0.24
 40
0.0
 40
0.24
 71
     3
340
11
 62
   256
 40
0.24
 90
        1
 40
0.75
 90
        1
300
%<\AcVar ViewType \f "%tc1">% %<\AcVar ViewSectionStartId>%-%<\AcVar ViewSectionEndId>%\PSCALE %<\AcVar ViewScale \f "%sn">%
 71
     4
 62
   256
 62
   257
300
ANSI31
 40
1.0
 90
        0
290
     0
290
     0
 90
        6
 40
0.0
 40
1.570796326794896
 40
0.2617993877991494
 40
1.308996938995747
 40
-0.2617993877991494
 40
1.832595714594046
  0
TABLESTYLE
  5
102
102
{ACAD_XDICTIONARY
360
60C
102
}
102
{ACAD_REACTORS
330
DB
102
}
330
DB
100
AcDbTableStyle
280
     0
  3
Standard
 70
     0
 71
     0
 40
0.06
 41
0.06
280
     0
281
     0
  7
Standard
140
0.18
170
     2
 62
     0
 63
     7
283
     0
 90
      512
 91
        0
  1

274
    -2
284
     1
 64
     0
275
    -2
285
     1
 65
     0
276
    -2
286
     1
 66
     0
277
    -2
287
     1
 67
     0
278
    -2
288
     1
 68
     0
279
    -2
289
     1
 69
     0
  7
Standard
140
0.25
170
     5
 62
     0
 63
     7
283
     0
 90
      512
 91
        0
  1

274
    -2
284
     1
 64
     0
275
    -2
285
     1
 65
     0
276
    -2
286
     1
 66
     0
277
    -2
287
     1
 67
     0
278
    -2
288
     1
 68
     0
279
    -2
289
     1
 69
     0
  7
Standard
140
0.18
170
     5
 62
     0
 63
     7
283
     0
 90
      512
 91
        0
  1

274
    -2
284
     1
 64
     0
275
    -2
285
     1
 65
     0
276
    -2
286
     1
 66
     0
277
    -2
287
     1
 67
     0
278
    -2
288
     1
 68
     0
279
    -2
289
     1
 69
     0
  0
VISUALSTYLE
  5
2F
102
{ACAD_REACTORS
330
2A
102
}
330
2A
100
AcDbVisualStyle
  2
2dWireframe
 70
     4
177
     3
291
     0
 70
    58
 90
        0
176
     1
 90
        2
176
     1
 90
        0
176
     1
 90
        0
176
     1
 40
0.6
176
     1
 40
30.0
176
     1
 62
     7
420
 16777215
176
     1
 90
        1
176
     1
 90
        4
176
     1
 62
     7
176
     1
 62
   257
176
     1
 90
        1
176
     1
 90
        1
176
     1
 40
1.0
176
     1
 90
        0
176
     1
 62
   257
176
     1
 40
1.0
176
     1
 90
        1
176
     1
 90
        6
176
     1
 90
        2
176
     1
 62
     7
176
     1
 90
        5
176
     1
 90
        0
176
     1
 90
        0
176
     1
290
     0
176
     1
 90
        1
176
     1
 40
0.0
176
     1
 90
        0
176
     1
290
     1
176
     1
290
     1
176
     1
290
     0
176
     1
290
     0
176
     1
290
     0
176
     1
290
     0
176
     1
290
     0
176
     1
290
     0
176
     1
290
     0
176
     1
 90
       50
176
     1
 40
0.0
176
     1
 40
1.0
176
     1
 90
        0
176
     1
 62
    18
420
        0
176
     1
 90
       50
176
     1
 90
        3
176
     1
 62
     5
420
      255
176
     1
290
     0
176
     1
 90
       50
176
     1
 90
       50
176
     1
 90
       50
176
     1
290
     0
176
     1
 90
       50
176
     1
 62
   256
176
     0
 40
1.0
176
     0
 90
        2
176
     1
  1
strokes_ogs.tif
176
     1
290
     0
176
     1
 40
1.0
176
     1
 40
1.0
176
     1
  0
VISUALSTYLE
  5
31
102
{ACAD_REACTORS
330
2A
102
}
330
2A
100
AcDbVisualStyle
  2
3D Hidden
 70
     6
177
     3
291
     0
 70
    58
 90
        1
176
     1
 90
        2
176
     1
 90
        2
176
     1
 90
        0
176
     1
 40
0.6
176
     1
 40
30.0
176
     1
 62
     7
420
 16777215
176
     1
 90
        2
176
     1
 90
        2
176
     1
 62
     7
176
     1
 62
   257
176
     1
 90
        2
176
     1
 90
        1
176
     1
 40
40.0
176
     1
 90
        0
176
     1
 62
   257
176
     1
 40
1.0
176
     1
 90
        1
176
     1
 90
        6
176
     1
 90
        2
176
     1
 62
     7
176
     1
 90
        3
176
     1
 90
        0
176
     1
 90
        0
176
     1
290
     0
176
     1
 90
        1
176
     1
 40
0.0
176
     1
 90
        0
176
     1
290
     0
176
     1
290
     1
176
     1
290
     1
176
     1
290
     0
176
     1
290
     0
176
     1
290
     0
176
     1
290
     0
176
     1
290
     0
176
     1
290
     0
176
     1
 90
       50
176
     1
 40
0.0
176
     1
 40
1.0
176
     1
 90
        0
176
     1
 62
    18
420
        0
176
     1
 90
       50
176
     1
 90
        3
176
     1
 62
     5
420
      255
176
     1
290
     0
176
     1
 90
       50
176
     1
 90
       50
176
     1
 90
       50
176
     1
290
     0
176
     1
 90
       50
176
     1
 62
   256
176
     0
 40
1.0
176
     0
 90
        2
176
     1
  1
strokes_ogs.tif
176
     1
290
     0
176
     1
 40
1.0
176
     1
 40
1.0
176
     1
  0
VISUALSTYLE
  5
30
102
{ACAD_REACTORS
330
2A
102
}
330
2A
100
AcDbVisualStyle
  2
3dWireframe
 70
     5
177
     3
291
     0
 70
    58
 90
        0
176
     1
 90
        2
176
     1
 90
        0
176
     1
 90
        0
176
     1
 40
0.6
176
     1
 40
30.0
176
     1
 62
     7
420
 16777215
176
     1
 90
        1
176
     1
 90
        4
176
     1
 62
     7
176
     1
 62
   257
176
     1
 90
        1
176
     1
 90
        1
176
     1
 40
1.0
176
     1
 90
        0
176
     1
 62
   257
176
     1
 40
1.0
176
     1
 90
        1
176
     1
 90
        6
176
     1
 90
        2
176
     1
 62
     7
176
     1
 90
        5
176
     1
 90
        0
176
     1
 90
        0
176
     1
290
     0
176
     1
 90
        1
176
     1
 40
0.0
176
     1
 90
        0
176
     1
290
     0
176
     1
290
     1
176
     1
290
     1
176
     1
290
     0
176
     1
290
     0
176
     1
290
     0
176
     1
290
     0
176
     1
290
     0
176
     1
290
     0
176
     1
 90
       50
176
     1
 40
0.0
176
     1
 40
1.0
176
     1
 90
        0
176
     1
 62
    18
420
        0
176
     1
 90
       50
176
     1
 90
        3
176
     1
 62
     5
420
      255
176
     1
290
     0
176
     1
 90
       50
176
     1
 90
       50
176
     1
 90
       50
176
     1
290
     0
176
     1
 90
       50
176
     1
 62
   256
176
     0
 40
1.0
176
     0
 90
        2
176
     1
  1
strokes_ogs.tif
176
     1
290
     0
176
     1
 40
1.0
176
     1
 40
1.0
176
     1
  0
VISUALSTYLE
  5
32
102
{ACAD_REACTORS
330
2A
102
}
330
2A
100
AcDbVisualStyle
  2
Basic
 70
     7
177
     3
291
     1
 70
    58
 90
        1
176
     1
 90
        0
176
     1
 90
        1
176
     1
 90
        0
176
     1
 40
0.6
176
     1
 40
30.0
176
     1
 62
     7
420
 16777215
176
     1
 90
        0
176
     1
 90
        4
176
     1
 62
     7
176
     1
 62
   257
176
     1
 90
        1
176
     1
 90
        1
176
     1
 40
1.0
176
     1
 90
        8
176
     1
 62
     7
176
     1
 40
1.0
176
     1
 90
        1
176
     1
 90
        6
176
     1
 90
        2
176
     1
 62
     7
176
     1
 90
        5
176
     1
 90
        0
176
     1
 90
        0
176
     1
290
     0
176
     1
 90
        1
176
     1
 40
0.0
176
     1
 90
        0
176
     1
290
     0
176
     1
290
     1
176
     1
290
     1
176
     1
290
     0
176
     1
290
     0
176
     1
290
     0
176
     1
290
     0
176
     1
290
     0
176
     1
290
     0
176
     1
 90
       50
176
     1
 40
0.0
176
     1
 40
1.0
176
     1
 90
        0
176
     1
 62
    18
420
        0
176
     1
 90
       50
176
     1
 90
        3
176
     1
 62
     5
420
      255
176
     1
290
     0
176
     1
 90
       50
176
     1
 90
       50
176
     1
 90
       50
176
     1
290
     0
176
     1
 90
       50
176
     1
 62
   256
176
     0
 40
1.0
176
     0
 90
        2
176
     1
  1
strokes_ogs.tif
176
     1
290
     0
176
     1
 40
1.0
176
     1
 40
1.0
176
     1
  0
VISUALSTYLE
  5
36
102
{ACAD_REACTORS
330
2A
102
}
330
2A
100
AcDbVisualStyle
  2
Brighten
 70
    12
177
     3
291
     1
 70
    58
 90
        2
176
     1
 90
        2
176
     1
 90
        0
176
     1
 90
        0
176
     1
 40
0.6
176
     1
 40
30.0
176
     1
 62
     7
420
 16777215
176
     1
 90
        1
176
     1
 90
        4
176
     1
 62
     7
176
     1
 62
   257
176
     1
 90
        1
176
     1
 90
        1
176
     1
 40
1.0
176
     1
 90
        8
176
     1
 62
     7
176
     1
 40
1.0
176
     1
 90
        1
176
     1
 90
        6
176
     1
 90
        2
176
     1
 62
     7
176
     1
 90
        5
176
     1
 90
        0
176
     1
 90
        0
176
     1
290
     0
176
     1
 90
        1
176
     1
 40
50.0
176
     1
 90
        0
176
     1
290
     0
176
     1
290
     1
176
     1
290
     1
176
     1
290
     0
176
     1
290
     0
176
     1
290
     0
176
     1
290
     0
176
     1
290
     0
176
     1
290
     0
176
     1
 90
       50
176
     1
 40
0.0
176
     1
 40
1.0
176
     1
 90
        0
176
     1
 62
    18
420
        0
176
     1
 90
       50
176
     1
 90
        3
176
     1
 62
     5
420
      255
176
     1
290
     0
176
     1
 90
       50
176
     1
 90
       50
176
     1
 90
       50
176
     1
290
     0
176
     1
 90
       50
176
     1
 62
   256
176
     0
 40
1.0
176
     0
 90
        2
176
     1
  1
strokes_ogs.tif
176
     1
290
     0
176
     1
 40
1.0
176
     1
 40
1.0
176
     1
  0
VISUALSTYLE
  5
3A
102
{ACAD_REACTORS
330
2A
102
}
330
2A
100
AcDbVisualStyle
  2
ColorChange
 70
    16
177
     3
291
     1
 70
    58
 90
        2
176
     1
 90
        2
176
     1
 90
        3
176
     1
 90
        0
176
     1
 40
0.6
176
     1
 40
30.0
176
     1
 62
     8
420
  8421504
176
     1
 90
        1
176
     1
 90
        4
176
     1
 62
     7
176
     1
 62
   257
176
     1
 90
        1
176
     1
 90
        1
176
     1
 40
1.0
176
     1
 90
        8
176
     1
 62
     8
420
  8421504
176
     1
 40
1.0
176
     1
 90
        1
176
     1
 90
        6
176
     1
 90
        2
176
     1
 62
     7
176
     1
 90
        5
176
     1
 90
        0
176
     1
 90
        0
176
     1
290
     0
176
     1
 90
        1
176
     1
 40
0.0
176
     1
 90
        0
176
     1
290
     0
176
     1
290
     1
176
     1
290
     1
176
     1
290
     0
176
     1
290
     0
176
     1
290
     0
176
     1
290
     0
176
     1
290
     0
176
     1
290
     0
176
     1
 90
       50
176
     1
 40
0.0
176
     1
 40
1.0
176
     1
 90
        0
176
     1
 62
    18
420
        0
176
     1
 90
       50
176
     1
 90
        3
176
     1
 62
     5
420
      255
176
     1
290
     0
176
     1
 90
       50
176
     1
 90
       50
176
     1
 90
       50
176
     1
290
     0
176
     1
 90
       50
176
     1
 62
   256
176
     0
 40
1.0
176
     0
 90
        2
176
     1
  1
strokes_ogs.tif
176
     1
290
     0
176
     1
 40
1.0
176
     1
 40
1.0
176
     1
  0
VISUALSTYLE
  5
34
102
{ACAD_REACTORS
330
2A
102
}
330
2A
100
AcDbVisualStyle
  2
Conceptual
 70
     9
177
     3
291
     0
 70
    58
 90
        3
176
     1
 90
        2
176
     1
 90
        0
176
     1
 90
        0
176
     1
 40
0.6
176
     1
 40
30.0
176
     1
 62
     7
420
 16777215
176
     1
 90
        2
176
     1
 90
        2
176
     1
 62
     7
176
     1
 62
   257
176
     1
 90
        1
176
     1
 90
        1
176
     1
 40
40.0
176
     1
 90
        8
176
     1
 62
     7
176
     1
 40
1.0
176
     1
 90
        1
176
     1
 90
        6
176
     1
 90
        2
176
     1
 62
     7
176
     1
 90
        3
176
     1
 90
        0
176
     1
 90
        0
176
     1
290
     0
176
     1
 90
        1
176
     1
 40
0.0
176
     1
 90
        0
176
     1
290
     0
176
     1
290
     1
176
     1
290
     1
176
     1
290
     0
176
     1
290
     0
176
     1
290
     0
176
     1
290
     0
176
     1
290
     0
176
     1
290
     0
176
     1
 90
       50
176
     1
 40
0.0
176
     1
 40
1.0
176
     1
 90
        0
176
     1
 62
    18
420
        0
176
     1
 90
       50
176
     1
 90
        3
176
     1
 62
     5
420
      255
176
     1
290
     0
176
     1
 90
       50
176
     1
 90
       50
176
     1
 90
       50
176
     1
290
     0
176
     1
 90
       50
176
     1
 62
   256
176
     0
 40
1.0
176
     0
 90
        2
176
     1
  1
strokes_ogs.tif
176
     1
290
     0
176
     1
 40
1.0
176
     1
 40
1.0
176
     1
  0
VISUALSTYLE
  5
35
102
{ACAD_REACTORS
330
2A
102
}
330
2A
100
AcDbVisualStyle
  2
Dim
 70
    11
177
     3
291
     1
 70
    58
 90
        2
176
     1
 90
        2
176
     1
 90
        0
176
     1
 90
        0
176
     1
 40
0.6
176
     1
 40
30.0
176
     1
 62
     7
420
 16777215
176
     1
 90
        1
176
     1
 90
        4
176
     1
 62
     7
176
     1
 62
   257
176
     1
 90
        1
176
     1
 90
        1
176
     1
 40
1.0
176
     1
 90
        8
176
     1
 62
     7
176
     1
 40
1.0
176
     1
 90
        1
176
     1
 90
        6
176
     1
 90
        2
176
     1
 62
     7
176
     1
 90
        5
176
     1
 90
        0
176
     1
 90
        0
176
     1
290
     0
176
     1
 90
        1
176
     1
 40
-50.0
176
     1
 90
        0
176
     1
290
     0
176
     1
290
     1
176
     1
290
     1
176
     1
290
     0
176
     1
290
     0
176
     1
290
     0
176
     1
290
     0
176
     1
290
     0
176
     1
290
     0
176
     1
 90
       50
176
     1
 40
0.0
176
     1
 40
1.0
176
     1
 90
        0
176
     1
 62
    18
420
        0
176
     1
 90
       50
176
     1
 90
        3
176
     1
 62
     5
420
      255
176
     1
290
     0
176
     1
 90
       50
176
     1
 90
       50
176
     1
 90
       50
176
     1
290
     0
176
     1
 90
       50
176
     1
 62
   256
176
     0
 40
1.0
176
     0
 90
        2
176
     1
  1
strokes_ogs.tif
176
     1
290
     0
176
     1
 40
1.0
176
     1
 40
1.0
176
     1
  0
VISUALSTYLE
  5
100
102
{ACAD_REACTORS
330
2A
102
}
330
2A
100
AcDbVisualStyle
  2
EdgeColorOff
 70
    22
177
     3
291
     1
 70
    58
 90
        2
176
     0
 90
        2
176
     0
 90
        0
176
     0
 90
        0
176
     0
 40
0.6
176
     0
 40
30.0
176
     0
 62
     7
420
 16777215
176
     0
 90
        1
176
     0
 90
        4
176
     0
 62
     7
176
     0
 62
   257
176
     0
 90
        1
176
     0
 90
        1
176
     0
 40
1.0
176
     0
 90
        8
176
     2
 62
     7
176
     0
 40
1.0
176
     0
 90
        1
176
     0
 90
        6
176
     0
 90
        2
176
     0
 62
     7
176
     0
 90
        5
176
     0
 90
        0
176
     0
 90
        0
176
     0
290
     0
176
     0
 90
        1
176
     0
 40
0.0
176
     0
 90
        0
176
     0
290
     0
176
     0
290
     1
176
     0
290
     1
176
     0
290
     0
176
     0
290
     0
176
     0
290
     0
176
     0
290
     0
176
     0
290
     0
176
     0
290
     0
176
     0
 90
       50
176
     0
 40
0.0
176
     0
 40
1.0
176
     0
 90
        0
176
     0
 62
    18
420
        0
176
     0
 90
       50
176
     0
 90
        3
176
     0
 62
     5
420
      255
176
     0
290
     0
176
     0
 90
       50
176
     0
 90
       50
176
     0
 90
       50
176
     0
290
     0
176
     0
 90
       50
176
     0
 62
   256
176
     0
 40
1.0
176
     0
 90
        2
176
     0
  1
strokes_ogs.tif
176
     0
290
     0
176
     0
 40
1.0
176
     0
 40
1.0
176
     0
  0
VISUALSTYLE
  5
39
102
{ACAD_REACTORS
330
2A
102
}
330
2A
100
AcDbVisualStyle
  2
Facepattern
 70
    15
177
     3
291
     1
 70
    58
 90
        2
176
     1
 90
        2
176
     1
 90
        0
176
     1
 90
        0
176
     1
 40
0.6
176
     1
 40
30.0
176
     1
 62
     7
420
 16777215
176
     1
 90
        1
176
     1
 90
        4
176
     1
 62
     7
176
     1
 62
   257
176
     1
 90
        1
176
     1
 90
        1
176
     1
 40
1.0
176
     1
 90
        8
176
     1
 62
     7
176
     1
 40
1.0
176
     1
 90
        1
176
     1
 90
        6
176
     1
 90
        2
176
     1
 62
     7
176
     1
 90
        5
176
     1
 90
        0
176
     1
 90
        0
176
     1
290
     0
176
     1
 90
        1
176
     1
 40
0.0
176
     1
 90
        0
176
     1
290
     0
176
     1
290
     1
176
     1
290
     1
176
     1
290
     0
176
     1
290
     0
176
     1
290
     0
176
     1
290
     0
176
     1
290
     0
176
     1
290
     0
176
     1
 90
       50
176
     1
 40
0.0
176
     1
 40
1.0
176
     1
 90
        0
176
     1
 62
    18
420
        0
176
     1
 90
       50
176
     1
 90
        3
176
     1
 62
     5
420
      255
176
     1
290
     0
176
     1
 90
       50
176
     1
 90
       50
176
     1
 90
       50
176
     1
290
     0
176
     1
 90
       50
176
     1
 62
   256
176
     0
 40
1.0
176
     0
 90
        2
176
     1
  1
strokes_ogs.tif
176
     1
290
     0
176
     1
 40
1.0
176
     1
 40
1.0
176
     1
  0
VISUALSTYLE
  5
2B
102
{ACAD_REACTORS
330
2A
102
}
330
2A
100
AcDbVisualStyle
  2
Flat
 70
     0
177
     3
291
     1
 70
    58
 90
        2
176
     1
 90
        1
176
     1
 90
        1
176
     1
 90
        2
176
     1
 40
0.6
176
     1
 40
30.0
176
     1
 62
     7
420
 16777215
176
     1
 90
        0
176
     1
 90
        4
176
     1
 62
     7
176
     1
 62
   257
176
     1
 90
        1
176
     1
 90
        1
176
     1
 40
1.0
176
     1
 90
        8
176
     1
 62
     7
176
     1
 40
1.0
176
     1
 90
        1
176
     1
 90
        6
176
     1
 90
        2
176
     1
 62
     7
176
     1
 90
        5
176
     1
 90
        0
176
     1
 90
        0
176
     1
290
     0
176
     1
 90
       13
176
     1
 40
0.0
176
     1
 90
        0
176
     1
290
     0
176
     1
290
     1
176
     1
290
     1
176
     1
290
     0
176
     1
290
     0
176
     1
290
     0
176
     1
290
     0
176
     1
290
     0
176
     1
290
     0
176
     1
 90
       50
176
     1
 40
0.0
176
     1
 40
1.0
176
     1
 90
        0
176
     1
 62
    18
420
        0
176
     1
 90
       50
176
     1
 90
        3
176
     1
 62
     5
420
      255
176
     1
290
     0
176
     1
 90
       50
176
     1
 90
       50
176
     1
 90
       50
176
     1
290
     0
176
     1
 90
       50
176
     1
 62
   256
176
     0
 40
1.0
176
     0
 90
        2
176
     1
  1
strokes_ogs.tif
176
     1
290
     0
176
     1
 40
1.0
176
     1
 40
1.0
176
     1
  0
VISUALSTYLE
  5
2C
102
{ACAD_REACTORS
330
2A
102
}
330
2A
100
AcDbVisualStyle
  2
FlatWithEdges
 70
     1
177
     3
291
     1
 70
    58
 90
        2
176
     1
 90
        1
176
     1
 90
        1
176
     1
 90
        2
176
     1
 40
0.6
176
     1
 40
30.0
176
     1
 62
     7
420
 16777215
176
     1
 90
        1
176
     1
 90
        4
176
     1
 62
     7
176
     1
 62
   257
176
     1
 90
        1
176
     1
 90
        1
176
     1
 40
1.0
176
     1
 90
        0
176
     1
 62
   257
176
     1
 40
1.0
176
     1
 90
        1
176
     1
 90
        6
176
     1
 90
        2
176
     1
 62
     7
176
     1
 90
        5
176
     1
 90
        0
176
     1
 90
        0
176
     1
290
     0
176
     1
 90
       13
176
     1
 40
0.0
176
     1
 90
        0
176
     1
290
     0
176
     1
290
     1
176
     1
290
     1
176
     1
290
     0
176
     1
290
     0
176
     1
290
     0
176
     1
290
     0
176
     1
290
     0
176
     1
290
     0
176
     1
 90
       50
176
     1
 40
0.0
176
     1
 40
1.0
176
     1
 90
        0
176
     1
 62
    18
420
        0
176
     1
 90
       50
176
     1
 90
        3
176
     1
 62
     5
420
      255
176
     1
290
     0
176
     1
 90
       50
176
     1
 90
       50
176
     1
 90
       50
176
     1
290
     0
176
     1
 90
       50
176
     1
 62
   256
176
     0
 40
1.0
176
     0
 90
        2
176
     1
  1
strokes_ogs.tif
176
     1
290
     0
176
     1
 40
1.0
176
     1
 40
1.0
176
     1
  0
VISUALSTYLE
  5
2D
102
{ACAD_REACTORS
330
2A
102
}
330
2A
100
AcDbVisualStyle
  2
Gouraud
 70
     2
177
     3
291
     1
 70
    58
 90
        2
176
     1
 90
        2
176
     1
 90
        1
176
     1
 90
        2
176
     1
 40
0.6
176
     1
 40
30.0
176
     1
 62
     7
420
 16777215
176
     1
 90
        0
176
     1
 90
        4
176
     1
 62
     7
176
     1
 62
   257
176
     1
 90
        1
176
     1
 90
        1
176
     1
 40
1.0
176
     1
 90
        0
176
     1
 62
     7
176
     1
 40
1.0
176
     1
 90
        1
176
     1
 90
        6
176
     1
 90
        2
176
     1
 62
     7
176
     1
 90
        5
176
     1
 90
        0
176
     1
 90
        0
176
     1
290
     0
176
     1
 90
       13
176
     1
 40
0.0
176
     1
 90
        0
176
     1
290
     0
176
     1
290
     1
176
     1
290
     1
176
     1
290
     0
176
     1
290
     0
176
     1
290
     0
176
     1
290
     0
176
     1
290
     0
176
     1
290
     0
176
     1
 90
       50
176
     1
 40
0.0
176
     1
 40
1.0
176
     1
 90
        0
176
     1
 62
    18
420
        0
176
     1
 90
       50
176
     1
 90
        3
176
     1
 62
     5
420
      255
176
     1
290
     0
176
     1
 90
       50
176
     1
 90
       50
176
     1
 90
       50
176
     1
290
     0
176
     1
 90
       50
176
     1
 62
   256
176
     0
 40
1.0
176
     0
 90
        2
176
     1
  1
strokes_ogs.tif
176
     1
290
     0
176
     1
 40
1.0
176
     1
 40
1.0
176
     1
  0
VISUALSTYLE
  5
2E
102
{ACAD_REACTORS
330
2A
102
}
330
2A
100
AcDbVisualStyle
  2
GouraudWithEdges
 70
     3
177
     3
291
     1
 70
    58
 90
        2
176
     1
 90
        2
176
     1
 90
        1
176
     1
 90
        2
176
     1
 40
0.6
176
     1
 40
30.0
176
     1
 62
     7
420
 16777215
176
     1
 90
        1
176
     1
 90
        4
176
     1
 62
     7
176
     1
 62
   257
176
     1
 90
        1
176
     1
 90
        1
176
     1
 40
1.0
176
     1
 90
        0
176
     1
 62
   257
176
     1
 40
1.0
176
     1
 90
        1
176
     1
 90
        6
176
     1
 90
        2
176
     1
 62
     7
176
     1
 90
        5
176
     1
 90
        0
176
     1
 90
        0
176
     1
290
     0
176
     1
 90
       13
176
     1
 40
0.0
176
     1
 90
        0
176
     1
290
     0
176
     1
290
     1
176
     1
290
     1
176
     1
290
     0
176
     1
290
     0
176
     1
290
     0
176
     1
290
     0
176
     1
290
     0
176
     1
290
     0
176
     1
 90
       50
176
     1
 40
0.0
176
     1
 40
1.0
176
     1
 90
        0
176
     1
 62
    18
420
        0
176
     1
 90
       50
176
     1
 90
        3
176
     1
 62
     5
420
      255
176
     1
290
     0
176
     1
 90
       50
176
     1
 90
       50
176
     1
 90
       50
176
     1
290
     0
176
     1
 90
       50
176
     1
 62
   256
176
     0
 40
1.0
176
     0
 90
        2
176
     1
  1
strokes_ogs.tif
176
     1
290
     0
176
     1
 40
1.0
176
     1
 40
1.0
176
     1
  0
VISUALSTYLE
  5
F8
102
{ACAD_REACTORS
330
2A
102
}
330
2A
100
AcDbVisualStyle
  2
Hidden
 70
     6
177
     3
291
     0
 70
    58
 90
        1
176
     1
 90
        2
176
     1
 90
        2
176
     1
 90
        0
176
     1
 40
0.6
176
     1
 40
30.0
176
     1
 62
     7
420
 16777215
176
     1
 90
        2
176
     1
 90
        2
176
     1
 62
     7
176
     1
 62
   257
176
     1
 90
        2
176
     1
 90
        1
176
     1
 40
40.0
176
     1
 90
        0
176
     1
 62
   257
176
     1
 40
1.0
176
     1
 90
        1
176
     1
 90
        6
176
     1
 90
        2
176
     1
 62
     7
176
     1
 90
        3
176
     1
 90
        0
176
     1
 90
        0
176
     1
290
     0
176
     1
 90
        1
176
     1
 40
0.0
176
     1
 90
        0
176
     1
290
     0
176
     1
290
     1
176
     1
290
     1
176
     1
290
     0
176
     1
290
     0
176
     1
290
     0
176
     1
290
     0
176
     1
290
     0
176
     1
290
     0
176
     1
 90
       50
176
     1
 40
0.0
176
     1
 40
1.0
176
     1
 90
        0
176
     1
 62
    18
420
        0
176
     1
 90
       50
176
     1
 90
        3
176
     1
 62
     5
420
      255
176
     1
290
     0
176
     1
 90
       50
176
     1
 90
       50
176
     1
 90
       50
176
     1
290
     0
176
     1
 90
       50
176
     1
 62
   256
176
     0
 40
1.0
176
     0
 90
        2
176
     1
  1
strokes_ogs.tif
176
     1
290
     0
176
     1
 40
1.0
176
     1
 40
1.0
176
     1
  0
VISUALSTYLE
  5
FE
102
{ACAD_REACTORS
330
2A
102
}
330
2A
100
AcDbVisualStyle
  2
JitterOff
 70
    20
177
     3
291
     1
 70
    58
 90
        2
176
     0
 90
        2
176
     0
 90
        0
176
     0
 90
        0
176
     0
 40
0.6
176
     0
 40
30.0
176
     0
 62
     7
420
 16777215
176
     0
 90
        1
176
     0
 90
        4
176
     0
 62
     7
176
     0
 62
   257
176
     0
 90
        1
176
     0
 90
        1
176
     0
 40
1.0
176
     0
 90
       10
176
     2
 62
     7
176
     0
 40
1.0
176
     0
 90
        1
176
     0
 90
        6
176
     0
 90
        2
176
     0
 62
     7
176
     0
 90
        5
176
     0
 90
        0
176
     0
 90
        0
176
     0
290
     0
176
     0
 90
        1
176
     0
 40
0.0
176
     0
 90
        0
176
     0
290
     0
176
     0
290
     1
176
     0
290
     1
176
     0
290
     0
176
     0
290
     0
176
     0
290
     0
176
     0
290
     0
176
     0
290
     0
176
     0
290
     0
176
     0
 90
       50
176
     0
 40
0.0
176
     0
 40
1.0
176
     0
 90
        0
176
     0
 62
    18
420
        0
176
     0
 90
       50
176
     0
 90
        3
176
     0
 62
     5
420
      255
176
     0
290
     0
176
     0
 90
       50
176
     0
 90
       50
176
     0
 90
       50
176
     0
290
     0
176
     0
 90
       50
176
     0
 62
   256
176
     0
 40
1.0
176
     0
 90
        2
176
     0
  1
strokes_ogs.tif
176
     0
290
     0
176
     0
 40
1.0
176
     0
 40
1.0
176
     0
  0
VISUALSTYLE
  5
38
102
{ACAD_REACTORS
330
2A
102
}
330
2A
100
AcDbVisualStyle
  2
Linepattern
 70
    14
177
     3
291
     1
 70
    58
 90
        2
176
     1
 90
        2
176
     1
 90
        0
176
     1
 90
        0
176
     1
 40
0.6
176
     1
 40
30.0
176
     1
 62
     7
420
 16777215
176
     1
 90
        1
176
     1
 90
        4
176
     1
 62
     7
176
     1
 62
   257
176
     1
 90
        7
176
     1
 90
        7
176
     1
 40
1.0
176
     1
 90
        8
176
     1
 62
     7
176
     1
 40
1.0
176
     1
 90
        1
176
     1
 90
        6
176
     1
 90
        2
176
     1
 62
     7
176
     1
 90
        5
176
     1
 90
        0
176
     1
 90
        0
176
     1
290
     0
176
     1
 90
        1
176
     1
 40
0.0
176
     1
 90
        0
176
     1
290
     0
176
     1
290
     1
176
     1
290
     1
176
     1
290
     0
176
     1
290
     0
176
     1
290
     0
176
     1
290
     0
176
     1
290
     0
176
     1
290
     0
176
     1
 90
       50
176
     1
 40
0.0
176
     1
 40
1.0
176
     1
 90
        0
176
     1
 62
    18
420
        0
176
     1
 90
       50
176
     1
 90
        3
176
     1
 62
     5
420
      255
176
     1
290
     0
176
     1
 90
       50
176
     1
 90
       50
176
     1
 90
       50
176
     1
290
     0
176
     1
 90
       50
176
     1
 62
   256
176
     0
 40
1.0
176
     0
 90
        2
176
     1
  1
strokes_ogs.tif
176
     1
290
     0
176
     1
 40
1.0
176
     1
 40
1.0
176
     1
  0
VISUALSTYLE
  5
FF
102
{ACAD_REACTORS
330
2A
102
}
330
2A
100
AcDbVisualStyle
  2
OverhangOff
 70
    21
177
     3
291
     1
 70
    58
 90
        2
176
     0
 90
        2
176
     0
 90
        0
176
     0
 90
        0
176
     0
 40
0.6
176
     0
 40
30.0
176
     0
 62
     7
420
 16777215
176
     0
 90
        1
176
     0
 90
        4
176
     0
 62
     7
176
     0
 62
   257
176
     0
 90
        1
176
     0
 90
        1
176
     0
 40
1.0
176
     0
 90
        9
176
     2
 62
     7
176
     0
 40
1.0
176
     0
 90
        1
176
     0
 90
        6
176
     0
 90
        2
176
     0
 62
     7
176
     0
 90
        5
176
     0
 90
        0
176
     0
 90
        0
176
     0
290
     0
176
     0
 90
        1
176
     0
 40
0.0
176
     0
 90
        0
176
     0
290
     0
176
     0
290
     1
176
     0
290
     1
176
     0
290
     0
176
     0
290
     0
176
     0
290
     0
176
     0
290
     0
176
     0
290
     0
176
     0
290
     0
176
     0
 90
       50
176
     0
 40
0.0
176
     0
 40
1.0
176
     0
 90
        0
176
     0
 62
    18
420
        0
176
     0
 90
       50
176
     0
 90
        3
176
     0
 62
     5
420
      255
176
     0
290
     0
176
     0
 90
       50
176
     0
 90
       50
176
     0
 90
       50
176
     0
290
     0
176
     0
 90
       50
176
     0
 62
   256
176
     0
 40
1.0
176
     0
 90
        2
176
     0
  1
strokes_ogs.tif
176
     0
290
     0
176
     0
 40
1.0
176
     0
 40
1.0
176
     0
  0
VISUALSTYLE
  5
33
102
{ACAD_REACTORS
330
2A
102
}
330
2A
100
AcDbVisualStyle
  2
Realistic
 70
     8
177
     3
291
     0
 70
    58
 90
        2
176
     1
 90
        2
176
     1
 90
        0
176
     1
 90
        0
176
     1
 40
0.6
176
     1
 40
30.0
176
     1
 62
     7
420
 16777215
176
     1
 90
        1
176
     1
 90
        0
176
     1
 62
     7
176
     1
 62
   257
176
     1
 90
        1
176
     1
 90
        1
176
     1
 40
1.0
176
     1
 90
        8
176
     1
 62
     8
420
  7895160
176
     1
 40
1.0
176
     1
 90
        1
176
     1
 90
        6
176
     1
 90
        2
176
     1
 62
     7
176
     1
 90
        5
176
     1
 90
        0
176
     1
 90
        0
176
     1
290
     0
176
     1
 90
       13
176
     1
 40
0.0
176
     1
 90
        0
176
     1
290
     0
176
     1
290
     1
176
     1
290
     1
176
     1
290
     0
176
     1
290
     0
176
     1
290
     0
176
     1
290
     0
176
     1
290
     0
176
     1
290
     0
176
     1
 90
       50
176
     1
 40
0.0
176
     1
 40
1.0
176
     1
 90
        0
176
     1
 62
    18
420
        0
176
     1
 90
       50
176
     1
 90
        3
176
     1
 62
     5
420
      255
176
     1
290
     0
176
     1
 90
       50
176
     1
 90
       50
176
     1
 90
       50
176
     1
290
     0
176
     1
 90
       50
176
     1
 62
   256
176
     0
 40
1.0
176
     0
 90
        2
176
     1
  1
strokes_ogs.tif
176
     1
290
     0
176
     1
 40
1.0
176
     1
 40
1.0
176
     1
  0
VISUALSTYLE
  5
FD
102
{ACAD_REACTORS
330
2A
102
}
330
2A
100
AcDbVisualStyle
  2
Shaded
 70
    27
177
     3
291
     0
 70
    58
 90
        2
176
     1
 90
        2
176
     1
 90
        1
176
     1
 90
        2
176
     1
 40
0.6
176
     1
 40
30.0
176
     1
 62
     7
420
 16777215
176
     1
 90
        0
176
     1
 90
        4
176
     1
 62
     7
176
     1
 62
   257
176
     1
 90
        1
176
     1
 90
        1
176
     1
 40
1.0
176
     1
 90
        8
176
     1
 62
   257
176
     1
 40
1.0
176
     1
 90
        1
176
     1
 90
        6
176
     1
 90
        2
176
     1
 62
     8
420
  7895160
176
     1
 90
        3
176
     1
 90
        0
176
     1
 90
        0
176
     1
290
     0
176
     1
 90
        5
176
     1
 40
0.0
176
     1
 90
        0
176
     1
290
     0
176
     1
290
     1
176
     1
290
     1
176
     1
290
     0
176
     1
290
     0
176
     1
290
     0
176
     1
290
     0
176
     1
290
     0
176
     1
290
     0
176
     1
 90
       50
176
     1
 40
0.0
176
     1
 40
1.0
176
     1
 90
        0
176
     1
 62
    18
420
        0
176
     1
 90
       50
176
     1
 90
        3
176
     1
 62
     5
420
      255
176
     1
290
     0
176
     1
 90
       50
176
     1
 90
       50
176
     1
 90
       50
176
     1
290
     0
176
     1
 90
       50
176
     1
 62
   256
176
     0
 40
1.0
176
     0
 90
        2
176
     1
  1
strokes_ogs.tif
176
     1
290
     0
176
     1
 40
1.0
176
     1
 40
1.0
176
     1
  0
VISUALSTYLE
  5
FC
102
{ACAD_REACTORS
330
2A
102
}
330
2A
100
AcDbVisualStyle
  2
Shaded with edges
 70
    26
177
     3
291
     0
 70
    58
 90
        2
176
     1
 90
        2
176
     1
 90
        1
176
     1
 90
        2
176
     1
 40
0.6
176
     1
 40
30.0
176
     1
 62
     7
420
 16777215
176
     1
 90
        1
176
     1
 90
       10
176
     1
 62
     7
176
     1
 62
   257
176
     1
 90
        2
176
     1
 90
        1
176
     1
 40
1.0
176
     1
 90
        8
176
     1
 62
   257
176
     1
 40
1.0
176
     1
 90
        1
176
     1
 90
        6
176
     1
 90
        2
176
     1
 62
     7
176
     1
 90
        3
176
     1
 90
        0
176
     1
 90
        0
176
     1
290
     0
176
     1
 90
        5
176
     1
 40
0.0
176
     1
 90
        0
176
     1
290
     0
176
     1
290
     1
176
     1
290
     1
176
     1
290
     0
176
     1
290
     0
176
     1
290
     0
176
     1
290
     0
176
     1
290
     0
176
     1
290
     0
176
     1
 90
       50
176
     1
 40
0.0
176
     1
 40
1.0
176
     1
 90
        0
176
     1
 62
    18
420
        0
176
     1
 90
       50
176
     1
 90
        3
176
     1
 62
     5
420
      255
176
     1
290
     0
176
     1
 90
       50
176
     1
 90
       50
176
     1
 90
       50
176
     1
290
     0
176
     1
 90
       50
176
     1
 62
   256
176
     0
 40
1.0
176
     0
 90
        2
176
     1
  1
strokes_ogs.tif
176
     1
290
     0
176
     1
 40
1.0
176
     1
 40
1.0
176
     1
  0
VISUALSTYLE
  5
F9
102
{ACAD_REACTORS
330
2A
102
}
330
2A
100
AcDbVisualStyle
  2
Shades of Gray
 70
    23
177
     3
291
     0
 70
    58
 90
        2
176
     1
 90
        2
176
     1
 90
        3
176
     1
 90
        0
176
     1
 40
0.6
176
     1
 40
30.0
176
     1
 62
     7
420
 16777215
176
     1
 90
        2
176
     1
 90
        2
176
     1
 62
     7
176
     1
 62
     7
176
     1
 90
        1
176
     1
 90
        1
176
     1
 40
40.0
176
     1
 90
        8
176
     1
 62
     7
176
     1
 40
1.0
176
     1
 90
        1
176
     1
 90
        6
176
     1
 90
        2
176
     1
 62
     7
176
     1
 90
        3
176
     1
 90
        0
176
     1
 90
        0
176
     1
290
     0
176
     1
 90
        1
176
     1
 40
0.0
176
     1
 90
        0
176
     1
290
     0
176
     1
290
     1
176
     1
290
     1
176
     1
290
     0
176
     1
290
     0
176
     1
290
     0
176
     1
290
     0
176
     1
290
     0
176
     1
290
     0
176
     1
 90
       50
176
     1
 40
0.0
176
     1
 40
1.0
176
     1
 90
        0
176
     1
 62
    18
420
        0
176
     1
 90
       50
176
     1
 90
        3
176
     1
 62
     5
420
      255
176
     1
290
     0
176
     1
 90
       50
176
     1
 90
       50
176
     1
 90
       50
176
     1
290
     0
176
     1
 90
       50
176
     1
 62
   256
176
     0
 40
1.0
176
     0
 90
        2
176
     1
  1
strokes_ogs.tif
176
     1
290
     0
176
     1
 40
1.0
176
     1
 40
1.0
176
     1
  0
VISUALSTYLE
  5
FA
102
{ACAD_REACTORS
330
2A
102
}
330
2A
100
AcDbVisualStyle
  2
Sketchy
 70
    24
177
     3
291
     0
 70
    58
 90
        1
176
     1
 90
        2
176
     1
 90
        2
176
     1
 90
        0
176
     1
 40
0.6
176
     1
 40
30.0
176
     1
 62
     7
420
 16777215
176
     1
 90
        2
176
     1
 90
        2
176
     1
 62
     7
176
     1
 62
     7
176
     1
 90
        1
176
     1
 90
        1
176
     1
 40
40.0
176
     1
 90
       11
176
     1
 62
     7
176
     1
 40
1.0
176
     1
 90
        1
176
     1
 90
        6
176
     1
 90
        2
176
     1
 62
     7
176
     1
 90
        6
176
     1
 90
        0
176
     1
 90
        0
176
     1
290
     0
176
     1
 90
        1
176
     1
 40
0.0
176
     1
 90
        0
176
     1
290
     0
176
     1
290
     1
176
     1
290
     1
176
     1
290
     0
176
     1
290
     0
176
     1
290
     0
176
     1
290
     0
176
     1
290
     0
176
     1
290
     0
176
     1
 90
       50
176
     1
 40
0.0
176
     1
 40
1.0
176
     1
 90
        0
176
     1
 62
    18
420
        0
176
     1
 90
       50
176
     1
 90
        3
176
     1
 62
     5
420
      255
176
     1
290
     0
176
     1
 90
       50
176
     1
 90
       50
176
     1
 90
       50
176
     1
290
     0
176
     1
 90
       50
176
     1
 62
   256
176
     0
 40
1.0
176
     0
 90
        2
176
     1
  1
strokes_ogs.tif
176
     1
290
     0
176
     1
 40
1.0
176
     1
 40
1.0
176
     1
  0
VISUALSTYLE
  5
37
102
{ACAD_REACTORS
330
2A
102
}
330
2A
100
AcDbVisualStyle
  2
Thicken
 70
    13
177
     3
291
     1
 70
    58
 90
        2
176
     1
 90
        2
176
     1
 90
        0
176
     1
 90
        0
176
     1
 40
0.6
176
     1
 40
30.0
176
     1
 62
     7
420
 16777215
176
     1
 90
        1
176
     1
 90
        4
176
     1
 62
     7
176
     1
 62
   257
176
     1
 90
        1
176
     1
 90
        1
176
     1
 40
1.0
176
     1
 90
       12
176
     1
 62
     7
176
     1
 40
1.0
176
     1
 90
        1
176
     1
 90
        6
176
     1
 90
        2
176
     1
 62
     7
176
     1
 90
        5
176
     1
 90
        0
176
     1
 90
        0
176
     1
290
     0
176
     1
 90
        1
176
     1
 40
0.0
176
     1
 90
        0
176
     1
290
     0
176
     1
290
     1
176
     1
290
     1
176
     1
290
     0
176
     1
290
     0
176
     1
290
     0
176
     1
290
     0
176
     1
290
     0
176
     1
290
     0
176
     1
 90
       50
176
     1
 40
0.0
176
     1
 40
1.0
176
     1
 90
        0
176
     1
 62
    18
420
        0
176
     1
 90
       50
176
     1
 90
        3
176
     1
 62
     5
420
      255
176
     1
290
     0
176
     1
 90
       50
176
     1
 90
       50
176
     1
 90
       50
176
     1
290
     0
176
     1
 90
       50
176
     1
 62
   256
176
     0
 40
1.0
176
     0
 90
        2
176
     1
  1
strokes_ogs.tif
176
     1
290
     0
176
     1
 40
1.0
176
     1
 40
1.0
176
     1
  0
VISUALSTYLE
  5
F7
102
{ACAD_REACTORS
330
2A
102
}
330
2A
100
AcDbVisualStyle
  2
Wireframe
 70
     5
177
     3
291
     0
 70
    58
 90
        0
176
     1
 90
        2
176
     1
 90
        0
176
     1
 90
        0
176
     1
 40
0.6
176
     1
 40
30.0
176
     1
 62
     7
420
 16777215
176
     1
 90
        1
176
     1
 90
        4
176
     1
 62
     7
176
     1
 62
   257
176
     1
 90
        1
176
     1
 90
        1
176
     1
 40
1.0
176
     1
 90
        0
176
     1
 62
   257
176
     1
 40
1.0
176
     1
 90
        1
176
     1
 90
        6
176
     1
 90
        2
176
     1
 62
     7
176
     1
 90
        3
176
     1
 90
        0
176
     1
 90
        0
176
     1
290
     0
176
     1
 90
        1
176
     1
 40
0.0
176
     1
 90
        0
176
     1
290
     0
176
     1
290
     1
176
     1
290
     1
176
     1
290
     0
176
     1
290
     0
176
     1
290
     0
176
     1
290
     0
176
     1
290
     0
176
     1
290
     0
176
     1
 90
       50
176
     1
 40
0.0
176
     1
 40
1.0
176
     1
 90
        0
176
     1
 62
    18
420
        0
176
     1
 90
       50
176
     1
 90
        3
176
     1
 62
     5
420
      255
176
     1
290
     0
176
     1
 90
       50
176
     1
 90
       50
176
     1
 90
       50
176
     1
290
     0
176
     1
 90
       50
176
     1
 62
   256
176
     0
 40
1.0
176
     0
 90
        2
176
     1
  1
strokes_ogs.tif
176
     1
290
     0
176
     1
 40
1.0
176
     1
 40
1.0
176
     1
  0
VISUALSTYLE
  5
FB
102
{ACAD_REACTORS
330
2A
102
}
330
2A
100
AcDbVisualStyle
  2
X-Ray
 70
    25
177
     3
291
     0
 70
    58
 90
        2
176
     1
 90
        2
176
     1
 90
        1
176
     1
 90
        1
176
     1
 40
0.5
176
     1
 40
30.0
176
     1
 62
     7
420
 16777215
176
     1
 90
        1
176
     1
 90
        0
176
     1
 62
     7
176
     1
 62
   257
176
     1
 90
        1
176
     1
 90
        1
176
     1
 40
1.0
176
     1
 90
        8
176
     1
 62
     7
176
     1
 40
1.0
176
     1
 90
        1
176
     1
 90
        6
176
     1
 90
        2
176
     1
 62
     7
176
     1
 90
        3
176
     1
 90
        0
176
     1
 90
        0
176
     1
290
     0
176
     1
 90
       13
176
     1
 40
0.0
176
     1
 90
        0
176
     1
290
     0
176
     1
290
     1
176
     1
290
     1
176
     1
290
     0
176
     1
290
     0
176
     1
290
     0
176
     1
290
     0
176
     1
290
     0
176
     1
290
     0
176
     1
 90
       50
176
     1
 40
0.0
176
     1
 40
1.0
176
     1
 90
        0
176
     1
 62
    18
420
        0
176
     1
 90
       50
176
     1
 90
        3
176
     1
 62
     5
420
      255
176
     1
290
     0
176
     1
 90
       50
176
     1
 90
       50
176
     1
 90
       50
176
     1
290
     0
176
     1
 90
       50
176
     1
 62
   256
176
     0
 40
1.0
176
     0
 90
        2
176
     1
  1
strokes_ogs.tif
176
     1
290
     0
176
     1
 40
1.0
176
     1
 40
1.0
176
     1
  0
DICTIONARYVAR
  5
4A7
102
{ACAD_REACTORS
330
3AE
102
}
330
3AE
100
DictionaryVariables
280
     0
  1
1:1
  0
DICTIONARYVAR
  5
4A3
102
{ACAD_REACTORS
330
3AE
102
}
330
3AE
100
DictionaryVariables
280
     0
  1
STANDARD
  0
DICTIONARYVAR
  5
4A2
102
{ACAD_REACTORS
330
3AE
102
}
330
3AE
100
DictionaryVariables
280
     0
  1
STANDARD
  0
DICTIONARYVAR
  5
4A4
102
{ACAD_REACTORS
330
3AE
102
}
330
3AE
100
DictionaryVariables
280
     0
  1
Imperial24
  0
DICTIONARYVAR
  5
4A5
102
{ACAD_REACTORS
330
3AE
102
}
330
3AE
100
DictionaryVariables
280
     0
  1
Imperial24
  0
DICTIONARYVAR
  5
4A9
102
{ACAD_REACTORS
330
3AE
102
}
330
3AE
100
DictionaryVariables
280
     0
  1
1
  0
DICTIONARYVAR
  5
4AA
102
{ACAD_REACTORS
330
3AE
102
}
330
3AE
100
DictionaryVariables
280
     0
  1
15
  0
DICTIONARYVAR
  5
4A8
102
{ACAD_REACTORS
330
3AE
102
}
330
3AE
100
DictionaryVariables
280
     0
  1
0
  0
DICTIONARYVAR
  5
4A6
102
{ACAD_REACTORS
330
3AE
102
}
330
3AE
100
DictionaryVariables
280
     0
  1
0
  0
DICTIONARY
  5
49F
330
119
100
AcDbDictionary
280
     1
281
     1
  3
ACAD_XREC_ROUNDTRIP
360
60F
  0
DICTIONARY
  5
E8
330
E7
100
AcDbDictionary
280
     1
281
     1
  3
BUMPTILE
360
EA
  3
DIFFUSETILE
360
E9
  3
OPACITYTILE
360
ED
  3
REFLECTIONTILE
360
EC
  3
REFRACTIONTILE
360
EE
  3
SPECULARTILE
360
EB
  0
DICTIONARY
  5
E0
330
DF
100
AcDbDictionary
280
     1
281
     1
  3
BUMPTILE
360
E2
  3
DIFFUSETILE
360
E1
  3
OPACITYTILE
360
E5
  3
REFLECTIONTILE
360
E4
  3
REFRACTIONTILE
360
E6
  3
SPECULARTILE
360
E3
  0
DICTIONARY
  5
F0
330
EF
100
AcDbDictionary
280
     1
281
     1
  3
BUMPTILE
360
F2
  3
DIFFUSETILE
360
F1
  3
OPACITYTILE
360
F5
  3
REFLECTIONTILE
360
F4
  3
REFRACTIONTILE
360
F6
  3
SPECULARTILE
360
F3
  0
DICTIONARY
  5
49D
330
117
100
AcDbDictionary
280
     1
281
     1
  3
ACAD_XREC_ROUNDTRIP
360
60E
  0
DICTIONARY
  5
60C
330
102
100
AcDbDictionary
280
     1
281
     1
  3
ACAD_ROUNDTRIP_2008_TABLESTYLE_CELLSTYLEMAP
360
60D
  0
XRECORD
  5
60F
102
{ACAD_REACTORS
330
49F
102
}
330
49F
100
AcDbXrecord
280
     1
102
DISPLAYNAME
  1
Imperial24
102
FLAGS
 90
        0
  0
XRECORD
  5
EA
102
{ACAD_REACTORS
330
E8
102
}
330
E8
100
AcDbXrecord
280
     1
270
     1
271
     1
  0
XRECORD
  5
E9
102
{ACAD_REACTORS
330
E8
102
}
330
E8
100
AcDbXrecord
280
     1
270
     1
271
     1
  0
XRECORD
  5
ED
102
{ACAD_REACTORS
330
E8
102
}
330
E8
100
AcDbXrecord
280
     1
270
     1
271
     1
  0
XRECORD
  5
EC
102
{ACAD_REACTORS
330
E8
102
}
330
E8
100
AcDbXrecord
280
     1
270
     1
271
     1
  0
XRECORD
  5
EE
102
{ACAD_REACTORS
330
E8
102
}
330
E8
100
AcDbXrecord
280
     1
270
     1
271
     1
  0
XRECORD
  5
EB
102
{ACAD_REACTORS
330
E8
102
}
330
E8
100
AcDbXrecord
280
     1
270
     1
271
     1
  0
XRECORD
  5
E2
102
{ACAD_REACTORS
330
E0
102
}
330
E0
100
AcDbXrecord
280
     1
270
     1
271
     1
  0
XRECORD
  5
E1
102
{ACAD_REACTORS
330
E0
102
}
330
E0
100
AcDbXrecord
280
     1
270
     1
271
     1
  0
XRECORD
  5
E5
102
{ACAD_REACTORS
330
E0
102
}
330
E0
100
AcDbXrecord
280
     1
270
     1
271
     1
  0
XRECORD
  5
E4
102
{ACAD_REACTORS
330
E0
102
}
330
E0
100
AcDbXrecord
280
     1
270
     1
271
     1
  0
XRECORD
  5
E6
102
{ACAD_REACTORS
330
E0
102
}
330
E0
100
AcDbXrecord
280
     1
270
     1
271
     1
  0
XRECORD
  5
E3
102
{ACAD_REACTORS
330
E0
102
}
330
E0
100
AcDbXrecord
280
     1
270
     1
271
     1
  0
XRECORD
  5
F2
102
{ACAD_REACTORS
330
F0
102
}
330
F0
100
AcDbXrecord
280
     1
270
     1
271
     1
  0
XRECORD
  5
F1
102
{ACAD_REACTORS
330
F0
102
}
330
F0
100
AcDbXrecord
280
     1
270
     1
271
     1
  0
XRECORD
  5
F5
102
{ACAD_REACTORS
330
F0
102
}
330
F0
100
AcDbXrecord
280
     1
270
     1
271
     1
  0
XRECORD
  5
F4
102
{ACAD_REACTORS
330
F0
102
}
330
F0
100
AcDbXrecord
280
     1
270
     1
271
     1
  0
XRECORD
  5
F6
102
{ACAD_REACTORS
330
F0
102
}
330
F0
100
AcDbXrecord
280
     1
270
     1
271
     1
  0
XRECORD
  5
F3
102
{ACAD_REACTORS
330
F0
102
}
330
F0
100
AcDbXrecord
280
     1
270
     1
271
     1
  0
XRECORD
  5
60E
102
{ACAD_REACTORS
330
49D
102
}
330
49D
100
AcDbXrecord
280
     1
102
DISPLAYNAME
  1
Imperial24
102
FLAGS
 90
        0
  0
CELLSTYLEMAP
  5
60D
102
{ACAD_REACTORS
330
60C
102
}
330
60C
100
AcDbCellStyleMap
 90
        3
300
CELLSTYLE
  1
TABLEFORMAT_BEGIN
 90
        5
170
     1
 91
        0
 92
    32768
 62
   257
 93
        1
300
CONTENTFORMAT
  1
CONTENTFORMAT_BEGIN
 90
        0
 91
        0
 92
      512
 93
        0
300

 40
0.0
140
1.0
 94
        5
 62
     0
340
11
144
0.25
309
CONTENTFORMAT_END
171
     0
 94
        0
309
TABLEFORMAT_END
  1
CELLSTYLE_BEGIN
 90
        1
 91
        1
300
_TITLE
309
CELLSTYLE_END
300
CELLSTYLE
  1
TABLEFORMAT_BEGIN
 90
        5
170
     1
 91
        0
 92
        0
 62
   257
 93
        1
300
CONTENTFORMAT
  1
CONTENTFORMAT_BEGIN
 90
        0
 91
        0
 92
      512
 93
        0
300

 40
0.0
140
1.0
 94
        5
 62
     0
340
11
144
0.18
309
CONTENTFORMAT_END
171
     0
 94
        0
309
TABLEFORMAT_END
  1
CELLSTYLE_BEGIN
 90
        2
 91
        1
300
_HEADER
309
CELLSTYLE_END
300
CELLSTYLE
  1
TABLEFORMAT_BEGIN
 90
        5
170
     1
 91
        0
 92
        0
 62
   257
 93
        1
300
CONTENTFORMAT
  1
CONTENTFORMAT_BEGIN
 90
        0
 91
        0
 92
      512
 93
        0
300

 40
0.0
140
1.0
 94
        2
 62
     0
340
11
144
0.18
309
CONTENTFORMAT_END
171
     0
 94
        0
309
TABLEFORMAT_END
  1
CELLSTYLE_BEGIN
 90
        3
 91
        2
300
_DATA
309
CELLSTYLE_END
  0
ENDSEC
  0
SECTION
  2
ACDSDATA
 70
     2
 71
     8
  0
ACDSSCHEMA
 90
        0
  1
AcDb3DSolid_ASM_Data
  2
AcDbDs::ID
280
    10
 91
        8
  2
ASM_Data
280
    15
 91
        0
101
ACDSRECORD
 95
        0
 90
        1
  2
AcDbDs::TreatedAsObjectData
280
     1
291
     1
101
ACDSRECORD
 95
        0
 90
        2
  2
AcDbDs::Legacy
280
     1
291
     1
101
ACDSRECORD
  1
AcDbDs::ID
 90
        3
  2
AcDs:Indexable
280
     1
291
     1
101
ACDSRECORD
  1
AcDbDs::ID
 90
        4
  2
AcDbDs::HandleAttribute
280
     7
282
     1
  0
ACDSSCHEMA
 90
        1
  1
AcDbDs::TreatedAsObjectDataSchema
  2
AcDbDs::TreatedAsObjectData
280
     1
 91
        0
  0
ACDSSCHEMA
 90
        2
  1
AcDbDs::LegacySchema
  2
AcDbDs::Legacy
280
     1
 91
        0
  0
ACDSSCHEMA
 90
        3
  1
AcDbDs::IndexedPropertySchema
  2
AcDs:Indexable
280
     1
 91
        0
  0
ACDSSCHEMA
 90
        4
  1
AcDbDs::HandleAttributeSchema
  2
AcDbDs::HandleAttribute
280
     7
 91
        1
284
     1
  0
ACDSSCHEMA
 90
        5
  1
AcDb_Thumbnail_Schema
  2
AcDbDs::ID
280
    10
 91
        8
  2
Thumbnail_Data
280
    15
 91
        0
101
ACDSRECORD
 95
        5
 90
        1
  2
AcDbDs::TreatedAsObjectData
280
     1
291
     1
101
ACDSRECORD
 95
        5
 90
        2
  2
AcDbDs::Legacy
280
     1
291
     1
101
ACDSRECORD
  1
AcDbDs::ID
 90
        3
  2
AcDs:Indexable
280
     1
291
     1
101
ACDSRECORD
  1
AcDbDs::ID
 90
        4
  2
AcDbDs::HandleAttribute
280
     7
282
     1
  0
ACDSRECORD
 90
        5
  2
AcDbDs::ID
280
    10
320
22
  2
Thumbnail_Data
280
    15
 94
     1647
310
89504E470D0A1A0A0000000D4948445200000100000000670803000000D82A6C0200000300504C5445000000000000C8C8C80000000000000000000000000000000000000000000000000000330000660000990000CC0000FF0033000033330033660033990033CC0033FF0066000066330066660066990066CC0066FF0099
310
000099330099660099990099CC0099FF00CC0000CC3300CC6600CC9900CCCC00CCFF00FF0000FF3300FF6600FF9900FFCC00FFFF3300003300333300663300993300CC3300FF3333003333333333663333993333CC3333FF3366003366333366663366993366CC3366FF3399003399333399663399993399CC3399FF33CC00
310
33CC3333CC6633CC9933CCCC33CCFF33FF0033FF3333FF6633FF9933FFCC33FFFF6600006600336600666600996600CC6600FF6633006633336633666633996633CC6633FF6666006666336666666666996666CC6666FF6699006699336699666699996699CC6699FF66CC0066CC3366CC6666CC9966CCCC66CCFF66FF0066
310
FF3366FF6666FF9966FFCC66FFFF9900009900339900669900999900CC9900FF9933009933339933669933999933CC9933FF9966009966339966669966999966CC9966FF9999009999339999669999999999CC9999FF99CC0099CC3399CC6699CC9999CCCC99CCFF99FF0099FF3399FF6699FF9999FFCC99FFFFCC0000CC00
310
33CC0066CC0099CC00CCCC00FFCC3300CC3333CC3366CC3399CC33CCCC33FFCC6600CC6633CC6666CC6699CC66CCCC66FFCC9900CC9933CC9966CC9999CC99CCCC99FFCCCC00CCCC33CCCC66CCCC99CCCCCCCCCCFFCCFF00CCFF33CCFF66CCFF99CCFFCCCCFFFFFF0000FF0033FF0066FF0099FF00CCFF00FFFF3300FF3333
310
FF3366FF3399FF33CCFF33FFFF6600FF6633FF6666FF6699FF66CCFF66FFFF9900FF9933FF9966FF9999FF99CCFF99FFFFCC00FFCC33FFCC66FFCC99FFCCCCFFCCFFFFFF00FFFF33FFFF66FFFF99FFFFCCFFFFFF0000000D0D0D1A1A1A2828283535354343435050505D5D5D6B6B6B787878868686939393A1A1A1AEAEAEBB
310
BBBBC9C9C9D6D6D6E4E4E4F1F1F1FFFFFF00000000000000000000000000000000000000000000000000000000000008F1915C0000020F4944415478DAED9BCD8EC3200C8479FFF79DFB4ADDA6C1808154DA959899EF9256490F9E18FF414B31C618638C31C618638C31C698FF036F74ED8F573D01BA0F1640D37E55057045
310
4151016EBBA119066B01245DA0CAFF9AB5406DB3A002D16439015EE65636CB39009AECAF697F75151700725930BE79C51C88BA16969D04405880DBEF07F60B8F8846250263E1FBA844A0B0FBC1E8F3CE90F91A39ADE47F34FB45FF4306C7DF1FFBA06F8F4E560021AE21F18FC94F0E5F04EF0890A4B7FB1523CB02601020E9
310
F9665F10FCE15C01301100C9DA6F9E3BDB05E20A885AA4D16FF0914880596047EA28070BD02E01CCEA3C7409F08A016747C17EF287790DD008707A29384883D89A938482F8EC62F06AFC57A51DBA1682A32DBCEC5839401B2E40331968D6FE8E001F09489AE2CD5E1F63E16405201A8B7C29000F5FC4003201B6B200F530B8
310
AD6FE504D831D402146D0594F683206EFF7C22A4B13798167DAC7B83E3D260F0053AEB61B82F00A98830D819D21260D93771BEF234C455332050BEDBC59677758F310B5403AE89075C42146A01AE31719A1568974053EC0D4F06B48FB20AD087BA663F8872094C935DBC0F6A07101560703C20EF07E81241D8274619C600B0
310
0B509F9AEBB300C27FA9D904A84DFF2D08FA3363B14A2453203F131614583EC4D6FD77CD02ADF99F90B7B00CD403A1AD230F60FE2BF5569B473D14DE12A018638C31C618638CF9537E00AC354BBDD149E0560000000049454E44AE426082734B65B472F3E30670034817038DEE3F1780B673785A121AF6D02281F812EDF5D5
310
FE2941C77CBBC085B9B2B8C93463B4733E2C03B11839C7D12A187B857D02E83B04E8F7CC288765C0A91428076BD00380B2E40D2B25C4F4E37C6EDFEB199B1E2A087E2720F14C0FF900A85D1D4EC11CA107640230DB429E11C0D21EFA1B00772C08C3B75B00A09746C901F8BECEB782ECE1B0DE27E79DA4A26D99E305A06D71
310
C10C00FCCF33CADF8902730720A4ED2F04843C251EF7D1E2C940576DB41DB66E884C48A09BD6C67EC1508EC84C20707240A60377819D03B491E990AD956A98151DB15744B031907B9FBAB4122C4A427262C882303B0769E4E990D9A9EE266B10DA01F09937FB02772EEE052ECA18C50000000049454E44AE426082
  0
ENDSEC
  0
EOF
