  0
SECTION
  2
HEADER
  9
$ACADVER
  1
AC1027
  9
$ACADMAINTVER
 70
   105
  9
$DWGCODEPAGE
  3
ANSI_1252
  9
$LASTSAVEDBY
  1
Sandra
  9
$REQUIREDVERSIONS
160
                 0
  9
$INSBASE
 10
0.0
 20
0.0
 30
0.0
  9
$EXTMIN
 10
-1872.664069511292
 20
-1872.264023205656
 30
410.4821166992187
  9
$EXTMAX
 10
1872.664069511303
 20
1873.063891972067
 30
679.8884514435696
  9
$LIMMIN
 10
0.0
 20
0.0
  9
$LIMMAX
 10
12.0
 20
9.0
  9
$ORTHOMODE
 70
     1
  9
$REGENMODE
 70
     1
  9
$FILLMODE
 70
     1
  9
$QTEXTMODE
 70
     0
  9
$MIRRTEXT
 70
     1
  9
$LTSCALE
 40
1.0
  9
$ATTMODE
 70
     1
  9
$TEXTSIZE
 40
0.2
  9
$TRACEWID
 40
0.05
  9
$TEXTSTYLE
  7
Standard
  9
$CLAYER
  8
Default
  9
$CELTYPE
  6
ByLayer
  9
$CECOLOR
 62
   256
  9
$CELTSCALE
 40
1.0
  9
$DISPSILH
 70
     0
  9
$DIMSCALE
 40
1.0
  9
$DIMASZ
 40
0.18
  9
$DIMEXO
 40
0.0625
  9
$DIMDLI
 40
0.38
  9
$DIMRND
 40
0.0
  9
$DIMDLE
 40
0.0
  9
$DIMEXE
 40
0.18
  9
$DIMTP
 40
0.0
  9
$DIMTM
 40
0.0
  9
$DIMTXT
 40
0.18
  9
$DIMCEN
 40
0.09
  9
$DIMTSZ
 40
0.0
  9
$DIMTOL
 70
     0
  9
$DIMLIM
 70
     0
  9
$DIMTIH
 70
     1
  9
$DIMTOH
 70
     1
  9
$DIMSE1
 70
     0
  9
$DIMSE2
 70
     0
  9
$DIMTAD
 70
     0
  9
$DIMZIN
 70
     0
  9
$DIMBLK
  1

  9
$DIMASO
 70
     1
  9
$DIMSHO
 70
     1
  9
$DIMPOST
  1

  9
$DIMAPOST
  1

  9
$DIMALT
 70
     0
  9
$DIMALTD
 70
     2
  9
$DIMALTF
 40
25.4
  9
$DIMLFAC
 40
1.0
  9
$DIMTOFL
 70
     0
  9
$DIMTVP
 40
0.0
  9
$DIMTIX
 70
     0
  9
$DIMSOXD
 70
     0
  9
$DIMSAH
 70
     0
  9
$DIMBLK1
  1

  9
$DIMBLK2
  1

  9
$DIMSTYLE
  2
Standard
  9
$DIMCLRD
 70
     0
  9
$DIMCLRE
 70
     0
  9
$DIMCLRT
 70
     0
  9
$DIMTFAC
 40
1.0
  9
$DIMGAP
 40
0.09
  9
$DIMJUST
 70
     0
  9
$DIMSD1
 70
     0
  9
$DIMSD2
 70
     0
  9
$DIMTOLJ
 70
     1
  9
$DIMTZIN
 70
     0
  9
$DIMALTZ
 70
     0
  9
$DIMALTTZ
 70
     0
  9
$DIMUPT
 70
     0
  9
$DIMDEC
 70
     4
  9
$DIMTDEC
 70
     4
  9
$DIMALTU
 70
     2
  9
$DIMALTTD
 70
     2
  9
$DIMTXSTY
  7
Standard
  9
$DIMAUNIT
 70
     0
  9
$DIMADEC
 70
     0
  9
$DIMALTRND
 40
0.0
  9
$DIMAZIN
 70
     0
  9
$DIMDSEP
 70
    46
  9
$DIMATFIT
 70
     3
  9
$DIMFRAC
 70
     0
  9
$DIMLDRBLK
  1

  9
$DIMLUNIT
 70
     2
  9
$DIMLWD
 70
    -2
  9
$DIMLWE
 70
    -2
  9
$DIMTMOVE
 70
     2
  9
$DIMFXL
 40
1.0
  9
$DIMFXLON
 70
     0
  9
$DIMJOGANG
 40
0.7853981633974483
  9
$DIMTFILL
 70
     0
  9
$DIMTFILLCLR
 70
     0
  9
$DIMARCSYM
 70
     0
  9
$DIMLTYPE
  6

  9
$DIMLTEX1
  6

  9
$DIMLTEX2
  6

  9
$DIMTXTDIRECTION
 70
     0
  9
$LUNITS
 70
     2
  9
$LUPREC
 70
     3
  9
$SKETCHINC
 40
0.1
  9
$FILLETRAD
 40
0.5
  9
$AUNITS
 70
     0
  9
$AUPREC
 70
     0
  9
$MENU
  1
.
  9
$ELEVATION
 40
0.0
  9
$PELEVATION
 40
0.0
  9
$THICKNESS
 40
0.0
  9
$LIMCHECK
 70
     0
  9
$CHAMFERA
 40
0.0
  9
$CHAMFERB
 40
0.0
  9
$CHAMFERC
 40
0.0
  9
$CHAMFERD
 40
0.0
  9
$SKPOLY
 70
     0
  9
$TDCREATE
 40
2456645.631200914
  9
$TDUCREATE
 40
2456645.797867581
  9
$TDUPDATE
 40
2457842.444730081
  9
$TDUUPDATE
 40
2457842.611396748
  9
$TDINDWG
 40
0.0178676042
  9
$TDUSRTIMER
 40
0.0178676042
  9
$USRTIMER
 70
     1
  9
$ANGBASE
 50
0.0
  9
$ANGDIR
 70
     0
  9
$PDMODE
 70
     0
  9
$PDSIZE
 40
0.0
  9
$PLINEWID
 40
0.0
  9
$SPLFRAME
 70
     0
  9
$SPLINETYPE
 70
     6
  9
$SPLINESEGS
 70
     8
  9
$HANDSEED
  5
8EC1D
  9
$SURFTAB1
 70
     6
  9
$SURFTAB2
 70
     6
  9
$SURFTYPE
 70
     6
  9
$SURFU
 70
     6
  9
$SURFV
 70
     6
  9
$UCSBASE
  2

  9
$UCSNAME
  2

  9
$UCSORG
 10
0.0
 20
0.0
 30
0.0
  9
$UCSXDIR
 10
1.0
 20
0.0
 30
0.0
  9
$UCSYDIR
 10
0.0
 20
1.0
 30
0.0
  9
$UCSORTHOREF
  2

  9
$UCSORTHOVIEW
 70
     0
  9
$UCSORGTOP
 10
0.0
 20
0.0
 30
0.0
  9
$UCSORGBOTTOM
 10
0.0
 20
0.0
 30
0.0
  9
$UCSORGLEFT
 10
0.0
 20
0.0
 30
0.0
  9
$UCSORGRIGHT
 10
0.0
 20
0.0
 30
0.0
  9
$UCSORGFRONT
 10
0.0
 20
0.0
 30
0.0
  9
$UCSORGBACK
 10
0.0
 20
0.0
 30
0.0
  9
$PUCSBASE
  2

  9
$PUCSNAME
  2

  9
$PUCSORG
 10
0.0
 20
0.0
 30
0.0
  9
$PUCSXDIR
 10
1.0
 20
0.0
 30
0.0
  9
$PUCSYDIR
 10
0.0
 20
1.0
 30
0.0
  9
$PUCSORTHOREF
  2

  9
$PUCSORTHOVIEW
 70
     0
  9
$PUCSORGTOP
 10
0.0
 20
0.0
 30
0.0
  9
$PUCSORGBOTTOM
 10
0.0
 20
0.0
 30
0.0
  9
$PUCSORGLEFT
 10
0.0
 20
0.0
 30
0.0
  9
$PUCSORGRIGHT
 10
0.0
 20
0.0
 30
0.0
  9
$PUCSORGFRONT
 10
0.0
 20
0.0
 30
0.0
  9
$PUCSORGBACK
 10
0.0
 20
0.0
 30
0.0
  9
$USERI1
 70
     0
  9
$USERI2
 70
     0
  9
$USERI3
 70
     0
  9
$USERI4
 70
     0
  9
$USERI5
 70
     0
  9
$USERR1
 40
0.0
  9
$USERR2
 40
0.0
  9
$USERR3
 40
0.0
  9
$USERR4
 40
0.0
  9
$USERR5
 40
0.0
  9
$WORLDVIEW
 70
     1
  9
$SHADEDGE
 70
     3
  9
$SHADEDIF
 70
    70
  9
$TILEMODE
 70
     1
  9
$MAXACTVP
 70
    64
  9
$PINSBASE
 10
0.0
 20
0.0
 30
0.0
  9
$PLIMCHECK
 70
     0
  9
$PEXTMIN
 10
1.000000000000000E+20
 20
1.000000000000000E+20
 30
1.000000000000000E+20
  9
$PEXTMAX
 10
-1.000000000000000E+20
 20
-1.000000000000000E+20
 30
-1.000000000000000E+20
  9
$PLIMMIN
 10
0.0
 20
0.0
  9
$PLIMMAX
 10
12.0
 20
9.0
  9
$UNITMODE
 70
     0
  9
$VISRETAIN
 70
     1
  9
$PLINEGEN
 70
     0
  9
$PSLTSCALE
 70
     1
  9
$TREEDEPTH
 70
  3020
  9
$CMLSTYLE
  2
Standard
  9
$CMLJUST
 70
     0
  9
$CMLSCALE
 40
1.0
  9
$PROXYGRAPHICS
 70
     1
  9
$MEASUREMENT
 70
     0
  9
$CELWEIGHT
370
    -1
  9
$ENDCAPS
280
     0
  9
$JOINSTYLE
280
     0
  9
$LWDISPLAY
290
     0
  9
$INSUNITS
 70
     4
  9
$HYPERLINKBASE
  1

  9
$STYLESHEET
  1

  9
$XEDIT
290
     1
  9
$CEPSNTYPE
380
     0
  9
$PSTYLEMODE
290
     1
  9
$FINGERPRINTGUID
  2
{FC8FAFDD-357F-438E-9EC2-F14C2B0D427C}
  9
$VERSIONGUID
  2
{4612EB04-8C39-4E34-923A-BE5490B2B928}
  9
$EXTNAMES
290
     1
  9
$PSVPSCALE
 40
0.0
  9
$OLESTARTUP
290
     0
  9
$SORTENTS
280
   127
  9
$INDEXCTL
280
     0
  9
$HIDETEXT
280
     1
  9
$XCLIPFRAME
280
     0
  9
$HALOGAP
280
     0
  9
$OBSCOLOR
 70
   257
  9
$OBSLTYPE
280
     0
  9
$INTERSECTIONDISPLAY
280
     0
  9
$INTERSECTIONCOLOR
 70
   257
  9
$DIMASSOC
280
     2
  9
$PROJECTNAME
  1

  9
$CAMERADISPLAY
290
     0
  9
$LENSLENGTH
 40
50.0
  9
$CAMERAHEIGHT
 40
0.0
  9
$STEPSPERSEC
 40
2.0
  9
$STEPSIZE
 40
6.0
  9
$3DDWFPREC
 40
2.0
  9
$PSOLWIDTH
 40
0.25
  9
$PSOLHEIGHT
 40
4.0
  9
$LOFTANG1
 40
1.570796326794896
  9
$LOFTANG2
 40
1.570796326794896
  9
$LOFTMAG1
 40
0.0
  9
$LOFTMAG2
 40
0.0
  9
$LOFTPARAM
 70
     7
  9
$LOFTNORMALS
280
     1
  9
$LATITUDE
 40
37.795
  9
$LONGITUDE
 40
-122.394
  9
$NORTHDIRECTION
 40
0.0
  9
$TIMEZONE
 70
 -8000
  9
$LIGHTGLYPHDISPLAY
280
     1
  9
$TILEMODELIGHTSYNCH
280
     1
  9
$CMATERIAL
347
44
  9
$SOLIDHIST
280
     0
  9
$SHOWHIST
280
     1
  9
$DWFFRAME
280
     2
  9
$DGNFRAME
280
     0
  9
$REALWORLDSCALE
290
     1
  9
$INTERFERECOLOR
 62
     1
  9
$INTERFEREOBJVS
345
33
  9
$INTERFEREVPVS
346
30
  9
$CSHADOW
280
     0
  9
$SHADOWPLANELOCATION
 40
0.0
  0
ENDSEC
  0
SECTION
  2
CLASSES
  0
CLASS
  1
ACDBDICTIONARYWDFLT
  2
AcDbDictionaryWithDefault
  3
ObjectDBX Classes
 90
        0
 91
        1
280
     0
281
     0
  0
CLASS
  1
VISUALSTYLE
  2
AcDbVisualStyle
  3
ObjectDBX Classes
 90
     4095
 91
       26
280
     0
281
     0
  0
CLASS
  1
MATERIAL
  2
AcDbMaterial
  3
ObjectDBX Classes
 90
     1153
 91
        3
280
     0
281
     0
  0
CLASS
  1
SCALE
  2
AcDbScale
  3
ObjectDBX Classes
 90
     1153
 91
       33
280
     0
281
     0
  0
CLASS
  1
SUN
  2
AcDbSun
  3
SCENEOE
 90
     1153
 91
        1
280
     0
281
     0
  0
CLASS
  1
DICTIONARYVAR
  2
AcDbDictionaryVar
  3
ObjectDBX Classes
 90
        0
 91
        9
280
     0
281
     0
  0
CLASS
  1
TABLESTYLE
  2
AcDbTableStyle
  3
ObjectDBX Classes
 90
     4095
 91
        1
280
     0
281
     0
  0
CLASS
  1
MLEADERSTYLE
  2
AcDbMLeaderStyle
  3
ACDB_MLEADERSTYLE_CLASS
 90
     4095
 91
        1
280
     0
281
     0
  0
CLASS
  1
ACDBSECTIONVIEWSTYLE
  2
AcDbSectionViewStyle
  3
ObjectDBX Classes
 90
     1025
 91
        1
280
     0
281
     0
  0
CLASS
  1
ACDBDETAILVIEWSTYLE
  2
AcDbDetailViewStyle
  3
ObjectDBX Classes
 90
     1025
 91
        1
280
     0
281
     0
  0
CLASS
  1
SOLID_BACKGROUND
  2
AcDbSolidBackground
  3
SCENEOE
 90
     4095
 91
        0
280
     0
281
     0
  0
CLASS
  1
NPOCOLLECTION
  2
AcDbImpNonPersistentObjectsCollection
  3
ObjectDBX Classes
 90
     1153
 91
        0
280
     0
281
     0
  0
CLASS
  1
SORTENTSTABLE
  2
AcDbSortentsTable
  3
ObjectDBX Classes
 90
        0
 91
        1
280
     0
281
     0
  0
CLASS
  1
CELLSTYLEMAP
  2
AcDbCellStyleMap
  3
ObjectDBX Classes
 90
     1152
 91
        1
280
     0
281
     0
  0
ENDSEC
  0
SECTION
  2
TABLES
  0
TABLE
  2
VPORT
  5
8
102
{ACAD_XDICTIONARY
360
8E5FF
102
}
330
0
100
AcDbSymbolTable
 70
     1
  0
VPORT
  5
29
330
8
100
AcDbSymbolTableRecord
100
AcDbViewportTableRecord
  2
*Active
 70
     0
 10
0.0
 20
0.0
 11
1.0
 21
1.0
 12
-1237.752619135391
 22
1154.826695767352
 13
0.0
 23
0.0
 14
0.5
 24
0.5
 15
0.5
 25
0.5
 16
-0.0000000000052296
 26
0.0
 36
23549.13477679686
 17
1427.278841683776
 27
-660.6413507085122
 37
428.3468627929687
 40
5765.509923895074
 41
2.334549878345498
 42
50.0
 43
0.0
 44
0.0
 50
0.0
 51
0.0
 71
     0
 72
   100
 73
     1
 74
     3
 75
     0
 76
     0
 77
     0
 78
     0
281
     0
 65
     1
110
0.0
120
0.0
130
0.0
111
1.0
121
0.0
131
0.0
112
0.0
122
1.0
132
0.0
 79
     0
146
0.0
348
2F
 60
     3
 61
     5
292
     1
282
     1
141
0.0
142
0.0
 63
   250
421
  3355443
361
69
1001
ACAD_NAV_VCDISPLAY
1070
     3
  0
ENDTAB
  0
TABLE
  2
LTYPE
  5
5
330
0
100
AcDbSymbolTable
 70
     1
  0
LTYPE
  5
14
330
5
100
AcDbSymbolTableRecord
100
AcDbLinetypeTableRecord
  2
ByBlock
 70
     0
  3

 72
    65
 73
     0
 40
0.0
  0
LTYPE
  5
15
330
5
100
AcDbSymbolTableRecord
100
AcDbLinetypeTableRecord
  2
ByLayer
 70
     0
  3

 72
    65
 73
     0
 40
0.0
  0
LTYPE
  5
16
330
5
100
AcDbSymbolTableRecord
100
AcDbLinetypeTableRecord
  2
Continuous
 70
     0
  3
Solid line
 72
    65
 73
     0
 40
0.0
  0
ENDTAB
  0
TABLE
  2
LAYER
  5
2
102
{ACAD_XDICTIONARY
360
8E64F
102
}
330
0
100
AcDbSymbolTable
 70
     2
  0
LAYER
  5
10
102
{ACAD_XDICTIONARY
360
8E648
102
}
330
2
100
AcDbSymbolTableRecord
100
AcDbLayerTableRecord
  2
0
 70
     0
 62
     7
  6
Continuous
370
    -3
390
F
347
46
348
0
  0
LAYER
  5
6A
102
{ACAD_XDICTIONARY
360
8E64A
102
}
330
2
100
AcDbSymbolTableRecord
100
AcDbLayerTableRecord
  2
Default
 70
     0
 62
     7
  6
Continuous
370
    -3
390
F
347
46
348
0
  0
ENDTAB
  0
TABLE
  2
STYLE
  5
3
330
0
100
AcDbSymbolTable
 70
     1
  0
STYLE
  5
11
330
3
100
AcDbSymbolTableRecord
100
AcDbTextStyleTableRecord
  2
Standard
 70
     0
 40
0.0
 41
1.0
 50
0.0
 71
     0
 42
0.2
  3
txt
  4

  0
ENDTAB
  0
TABLE
  2
VIEW
  5
6
330
0
100
AcDbSymbolTable
 70
     0
  0
ENDTAB
  0
TABLE
  2
UCS
  5
7
330
0
100
AcDbSymbolTable
 70
     0
  0
ENDTAB
  0
TABLE
  2
APPID
  5
9
330
0
100
AcDbSymbolTable
 70
     3
  0
APPID
  5
12
330
9
100
AcDbSymbolTableRecord
100
AcDbRegAppTableRecord
  2
ACAD
 70
     0
  0
APPID
  5
8E655
330
9
100
AcDbSymbolTableRecord
100
AcDbRegAppTableRecord
  2
ACAD_NAV_VCDISPLAY
 70
     0
  0
APPID
  5
8E8BE
330
9
100
AcDbSymbolTableRecord
100
AcDbRegAppTableRecord
  2
ACAD_EXEMPT_FROM_CAD_STANDARDS
 70
     0
  0
ENDTAB
  0
TABLE
  2
DIMSTYLE
  5
A
330
0
100
AcDbSymbolTable
 70
     1
100
AcDbDimStyleTable
 71
     1
340
27
  0
DIMSTYLE
105
27
330
A
100
AcDbSymbolTableRecord
100
AcDbDimStyleTableRecord
  2
Standard
 70
     0
340
11
  0
ENDTAB
  0
TABLE
  2
BLOCK_RECORD
  5
1
330
0
100
AcDbSymbolTable
 70
     1
  0
BLOCK_RECORD
  5
1F
102
{ACAD_XDICTIONARY
360
8E7A5
102
}
330
1
100
AcDbSymbolTableRecord
100
AcDbBlockTableRecord
  2
*Model_Space
340
22
 70
     0
280
     1
281
     0
  0
BLOCK_RECORD
  5
1B
330
1
100
AcDbSymbolTableRecord
100
AcDbBlockTableRecord
  2
*Paper_Space
340
1E
 70
     0
280
     1
281
     0
  0
BLOCK_RECORD
  5
23
330
1
100
AcDbSymbolTableRecord
100
AcDbBlockTableRecord
  2
*Paper_Space0
340
26
 70
     0
280
     1
281
     0
  0
ENDTAB
  0
ENDSEC
  0
SECTION
  2
BLOCKS
  0
BLOCK
  5
20
330
1F
100
AcDbEntity
  8
0
100
AcDbBlockBegin
  2
*Model_Space
 70
     0
 10
0.0
 20
0.0
 30
0.0
  3
*Model_Space
  1

  0
ENDBLK
  5
21
330
1F
100
AcDbEntity
  8
0
100
AcDbBlockEnd
  0
BLOCK
  5
1C
330
1B
100
AcDbEntity
 67
     1
  8
0
100
AcDbBlockBegin
  2
*Paper_Space
 70
     0
 10
0.0
 20
0.0
 30
0.0
  3
*Paper_Space
  1

  0
ENDBLK
  5
1D
330
1B
100
AcDbEntity
 67
     1
  8
0
100
AcDbBlockEnd
  0
BLOCK
  5
24
330
23
100
AcDbEntity
 67
     1
  8
0
100
AcDbBlockBegin
  2
*Paper_Space0
 70
     0
 10
0.0
 20
0.0
 30
0.0
  3
*Paper_Space0
  1

  0
ENDBLK
  5
25
330
23
100
AcDbEntity
 67
     1
  8
0
100
AcDbBlockEnd
  0
ENDSEC
  0
SECTION
  2
ENTITIES
  0
SPLINE
  5
8E8AC
330
1F
100
AcDbEntity
  8
Default
100
AcDbSpline
210
0.0
220
0.0
230
1.0
 70
    24
 71
     2
 72
     6
 73
     3
 74
     0
 42
0.000000001
 43
0.0000000001
 40
0.0
 40
0.0
 40
0.0
 40
45.0
 40
45.0
 40
45.0
 10
609.5000000000039
 20
571.8061843832053
 30
679.8884514435696
 10
609.5000000000039
 20
0.3999343832053734
 30
679.8884514435696
 10
609.5000000000039
 20
-571.0063156167945
 30
679.8884514435696
  0
SPLINE
  5
8E8AD
330
1F
100
AcDbEntity
  8
Default
100
AcDbSpline
210
0.0
220
0.0
230
1.0
 70
    24
 71
     2
 72
     6
 73
     3
 74
     0
 42
0.000000001
 43
0.0000000001
 40
0.0
 40
0.0
 40
0.0
 40
45.0
 40
45.0
 40
45.0
 10
571.4062500000054
 20
-609.1000656167968
 30
679.8884514435696
 10
0.0000000000054561
 20
-609.1000656167968
 30
679.8884514435696
 10
-571.4062500000017
 20
-609.1000656167968
 30
679.8884514435696
  0
SPLINE
  5
8E8AE
330
1F
100
AcDbEntity
  8
Default
100
AcDbSpline
210
0.0
220
0.0
230
1.0
 70
    24
 71
     2
 72
     6
 73
     3
 74
     0
 42
0.000000001
 43
0.0000000001
 40
0.0
 40
0.0
 40
0.0
 40
45.0
 40
45.0
 40
45.0
 10
-609.5000000000003
 20
-571.0063156167945
 30
679.8884514435696
 10
-609.5000000000003
 20
0.3999343832053734
 30
679.8884514435696
 10
-609.5000000000003
 20
571.8061843832053
 30
679.8884514435696
  0
SPLINE
  5
8E8AF
330
1F
100
AcDbEntity
  8
Default
100
AcDbSpline
210
0.0
220
0.0
230
1.0
 70
    24
 71
     2
 72
     6
 73
     3
 74
     0
 42
0.000000001
 43
0.0000000001
 40
0.0
 40
0.0
 40
0.0
 40
45.0
 40
45.0
 40
45.0
 10
-571.4062500000017
 20
609.8999343832039
 30
679.8884514435696
 10
0.0000000000054561
 20
609.8999343832039
 30
679.8884514435696
 10
571.4062500000054
 20
609.8999343832039
 30
679.8884514435696
  0
SPLINE
  5
8E8B0
330
1F
100
AcDbEntity
  8
Default
100
AcDbSpline
210
0.0
220
0.0
230
1.0
 70
    12
 71
     2
 72
     6
 73
     3
 74
     0
 42
0.000000001
 43
0.0000000001
 40
0.0
 40
0.0
 40
0.0
 40
2.35619449019235
 40
2.35619449019235
 40
2.35619449019235
 10
-609.5000000000003
 20
571.8061843832053
 30
679.8884514435696
 41
1.0
 10
-609.5000000000005
 20
609.8999343832039
 30
679.8884514435696
 41
0.7071067811865451
 10
-571.4062500000017
 20
609.8999343832039
 30
679.8884514435696
 41
1.0
  0
SPLINE
  5
8E8B1
330
1F
100
AcDbEntity
  8
Default
100
AcDbSpline
210
0.0
220
0.0
230
1.0
 70
    12
 71
     2
 72
     6
 73
     3
 74
     0
 42
0.000000001
 43
0.0000000001
 40
0.0
 40
0.0
 40
0.0
 40
2.35619449019235
 40
2.35619449019235
 40
2.35619449019235
 10
571.4062500000054
 20
609.8999343832039
 30
679.8884514435696
 41
1.0
 10
609.5000000000039
 20
609.8999343832075
 30
679.8884514435696
 41
0.7071067811865371
 10
609.5000000000039
 20
571.8061843832053
 30
679.8884514435696
 41
1.0
  0
SPLINE
  5
8E8B2
330
1F
100
AcDbEntity
  8
Default
100
AcDbSpline
210
0.0
220
0.0
230
1.0
 70
    12
 71
     2
 72
     6
 73
     3
 74
     0
 42
0.000000001
 43
0.0000000001
 40
0.0
 40
0.0
 40
0.0
 40
2.356194490192339
 40
2.356194490192339
 40
2.356194490192339
 10
609.5000000000039
 20
-571.0063156167945
 30
679.8884514435696
 41
1.0
 10
609.5000000000039
 20
-609.1000656167931
 30
679.8884514435696
 41
0.707106781186551
 10
571.4062500000054
 20
-609.1000656167968
 30
679.8884514435696
 41
1.0
  0
SPLINE
  5
8E8B3
330
1F
100
AcDbEntity
  8
Default
100
AcDbSpline
210
0.0
220
0.0
230
1.0
 70
    12
 71
     2
 72
     6
 73
     3
 74
     0
 42
0.000000001
 43
0.0000000001
 40
0.0
 40
0.0
 40
0.0
 40
2.35619449019235
 40
2.35619449019235
 40
2.35619449019235
 10
-571.4062500000017
 20
-609.1000656167968
 30
679.8884514435696
 41
1.0
 10
-609.5000000000005
 20
-609.1000656167968
 30
679.8884514435696
 41
0.707106781186546
 10
-609.5000000000003
 20
-571.0063156167945
 30
679.8884514435696
 41
1.0
  0
SPLINE
  5
8EA32
330
1F
100
AcDbEntity
  8
Default
100
AcDbSpline
210
0.0
220
0.0
230
1.0
 70
     8
 71
     3
 72
    12
 73
     8
 74
     0
 42
0.000000001
 43
0.0000000001
 40
-15.35241690788854
 40
-15.35241690788854
 40
-15.35241690788854
 40
-15.35241690788854
 40
-11.42846741267097
 40
-7.624448814229928
 40
-3.868777023834103
 40
-1.918304340297428
 40
0.0
 40
0.0
 40
0.0
 40
0.0
 10
-268.5998267394016
 20
1476.85030663485
 30
410.4821166992187
 10
-268.5992909633633
 20
1510.057835445641
 30
410.4821166992187
 10
-280.4221421505913
 20
1575.635708710972
 30
410.4821166992187
 10
-333.8759276287601
 20
1659.193964683702
 30
410.4821166992187
 10
-401.9455865061727
 20
1705.287506267484
 30
410.4821166992187
 10
-464.0721642231051
 20
1723.933263371297
 30
410.4821166992187
 10
-496.8344037386459
 20
1727.10344496093
 30
410.4821166992187
 10
-513.0744713772632
 20
1727.089967190189
 30
410.4821166992187
  0
SPLINE
  5
8EA33
330
1F
100
AcDbEntity
  8
Default
100
AcDbSpline
210
0.0
220
0.0
230
1.0
 70
     8
 71
     3
 72
    12
 73
     8
 74
     0
 42
0.000000001
 43
0.0000000001
 40
0.0
 40
0.0
 40
0.0
 40
0.0
 40
1.918304340297428
 40
3.868777023834103
 40
7.624448814229928
 40
11.42846741267097
 40
15.35241690788854
 40
15.35241690788854
 40
15.35241690788854
 40
15.35241690788854
 10
-513.0744713772632
 20
1727.089967190189
 30
410.4821166992187
 10
-529.3145390158811
 20
1727.10344496093
 30
410.4821166992187
 10
-562.0767785314215
 20
1723.933263371297
 30
410.4821166992187
 10
-624.2033562483539
 20
1705.287506267484
 30
410.4821166992187
 10
-692.2730151257669
 20
1659.193964683702
 30
410.4821166992187
 10
-745.7268006039357
 20
1575.635708710972
 30
410.4821166992187
 10
-757.5496517911638
 20
1510.057835445641
 30
410.4821166992187
 10
-757.5491160151255
 20
1476.85030663485
 30
410.4821166992187
  0
SPLINE
  5
8EA34
330
1F
100
AcDbEntity
  8
Default
100
AcDbSpline
210
0.0
220
0.0
230
1.0
 70
     8
 71
     3
 72
    12
 73
     8
 74
     0
 42
0.000000001
 43
0.0000000001
 40
-14.89017237659325
 40
-14.89017237659325
 40
-14.89017237659325
 40
-14.89017237659325
 40
-11.21816892444778
 40
-7.516681648226318
 40
-3.774518777477096
 40
-1.889354184169619
 40
0.0
 40
0.0
 40
0.0
 40
0.0
 10
-757.5491160151255
 20
1476.85030663485
 30
410.4821166992187
 10
-757.5574487643107
 20
1445.756482770319
 30
410.4821166992187
 10
-744.6757626881744
 20
1383.34371850895
 30
410.4821166992187
 10
-690.014813688364
 20
1304.430423711943
 30
410.4821166992187
 10
-622.3718593759058
 20
1260.821824936249
 30
410.4821166992187
 10
-561.0291695904493
 20
1242.846238872503
 30
410.4821166992187
 10
-529.0696740395169
 20
1239.772497083613
 30
410.4821166992187
 10
-513.0744713772632
 20
1239.770774070876
 30
410.4821166992187
  0
SPLINE
  5
8EA35
330
1F
100
AcDbEntity
  8
Default
100
AcDbSpline
210
0.0
220
0.0
230
1.0
 70
     8
 71
     3
 72
    12
 73
     8
 74
     0
 42
0.000000001
 43
0.0000000001
 40
0.0
 40
0.0
 40
0.0
 40
0.0
 40
1.889354184169619
 40
3.774518777477096
 40
7.516681648226318
 40
11.21816892444778
 40
14.89017237659325
 40
14.89017237659325
 40
14.89017237659325
 40
14.89017237659325
 10
-513.0744713772632
 20
1239.770774070876
 30
410.4821166992187
 10
-497.0792687150101
 20
1239.772497083613
 30
410.4821166992187
 10
-465.1197731640777
 20
1242.846238872503
 30
410.4821166992187
 10
-403.7770833786212
 20
1260.821824936249
 30
410.4821166992187
 10
-336.1341290661631
 20
1304.430423711943
 30
410.4821166992187
 10
-281.4731800663526
 20
1383.34371850895
 30
410.4821166992187
 10
-268.5914939902159
 20
1445.756482770319
 30
410.4821166992187
 10
-268.5998267394016
 20
1476.85030663485
 30
410.4821166992187
  0
SPLINE
  5
8EA36
330
1F
100
AcDbEntity
  8
Default
100
AcDbSpline
210
0.0
220
0.0
230
1.0
 70
     8
 71
     3
 72
    24
 73
    20
 74
     0
 42
0.000000001
 43
0.0000000001
 40
0.0
 40
0.0
 40
0.0
 40
0.0
 40
1.0
 40
2.0
 40
3.0
 40
4.0
 40
5.0
 40
6.0
 40
7.0
 40
8.0
 40
9.0
 40
10.0
 40
11.0
 40
12.0
 40
13.0
 40
14.0
 40
15.0
 40
16.0
 40
17.0
 40
17.0
 40
17.0
 40
17.0
 10
-891.8246941471297
 20
1515.806030109571
 30
410.4821166992187
 10
-887.5720233555648
 20
1506.982324089781
 30
410.4821166992187
 10
-877.5775686160132
 20
1490.117770508996
 30
410.4821166992187
 10
-860.809185562708
 20
1465.98772020906
 30
410.4821166992187
 10
-842.4948561326806
 20
1443.020547044978
 30
410.4821166992187
 10
-824.0087691898489
 20
1420.202375688317
 30
410.4821166992187
 10
-805.3574755751169
 20
1397.514205946515
 30
410.4821166992187
 10
-786.0427792365331
 20
1375.385775341877
 30
410.4821166992187
 10
-765.9804215217909
 20
1353.930422534755
 30
410.4821166992187
 10
-745.2630094904552
 20
1333.116449564343
 30
410.4821166992187
 10
-724.7881094191175
 20
1312.046901426288
 30
410.4821166992187
 10
-702.6942614657782
 20
1292.656448264092
 30
410.4821166992187
 10
-679.0461945941183
 20
1275.199196134676
 30
410.4821166992187
 10
-653.9432010539999
 20
1259.896585822439
 30
410.4821166992187
 10
-627.5369773035122
 20
1246.969054663215
 30
410.4821166992187
 10
-599.9852129706746
 20
1236.689389268216
 30
410.4821166992187
 10
-571.5183149759901
 20
1229.311460178734
 30
410.4821166992187
 10
-542.4441135522442
 20
1224.89929790721
 30
410.4821166992187
 10
-522.8640882364539
 20
1223.932142795267
 30
410.4821166992187
 10
-513.0744981784551
 20
1223.948439467687
 30
410.4821166992187
  0
SPLINE
  5
8EA37
330
1F
100
AcDbEntity
  8
Default
100
AcDbSpline
210
0.0
220
0.0
230
1.0
 70
     8
 71
     3
 72
    24
 73
    20
 74
     0
 42
0.000000001
 43
0.0000000001
 40
-17.0
 40
-17.0
 40
-17.0
 40
-17.0
 40
-16.0
 40
-15.0
 40
-14.0
 40
-13.0
 40
-12.0
 40
-11.0
 40
-10.0
 40
-9.0
 40
-8.0
 40
-7.0
 40
-6.0
 40
-5.0
 40
-4.0
 40
-3.0
 40
-2.0
 40
-1.0
 40
0.0
 40
0.0
 40
0.0
 40
0.0
 10
-513.0744981784551
 20
1223.948439467687
 30
410.4821166992187
 10
-503.2849081204567
 20
1223.932142795267
 30
410.4821166992187
 10
-483.7048828046663
 20
1224.89929790721
 30
410.4821166992187
 10
-454.6306813809206
 20
1229.311460178734
 30
410.4821166992187
 10
-426.1637833862359
 20
1236.689389268216
 30
410.4821166992187
 10
-398.6120190533984
 20
1246.969054663215
 30
410.4821166992187
 10
-372.2057953029107
 20
1259.896585822439
 30
410.4821166992187
 10
-347.1028017627923
 20
1275.199196134676
 30
410.4821166992187
 10
-323.4547348911324
 20
1292.656448264092
 30
410.4821166992187
 10
-301.3608869377931
 20
1312.046901426288
 30
410.4821166992187
 10
-280.8859868664553
 20
1333.116449564343
 30
410.4821166992187
 10
-260.1685748351197
 20
1353.930422534755
 30
410.4821166992187
 10
-240.1062171203776
 20
1375.385775341877
 30
410.4821166992187
 10
-220.7915207817937
 20
1397.514205946515
 30
410.4821166992187
 10
-202.1402271670618
 20
1420.202375688317
 30
410.4821166992187
 10
-183.6541402242301
 20
1443.020547044978
 30
410.4821166992187
 10
-165.3398107942025
 20
1465.98772020906
 30
410.4821166992187
 10
-148.5714277408974
 20
1490.117770508996
 30
410.4821166992187
 10
-138.5769730013462
 20
1506.982324089781
 30
410.4821166992187
 10
-134.3243022097808
 20
1515.806030109571
 30
410.4821166992187
  0
SPLINE
  5
8EA38
330
1F
100
AcDbEntity
  8
Default
100
AcDbSpline
210
0.0
220
0.0
230
1.0
 70
     8
 71
     3
 72
    10
 73
     6
 74
     0
 42
0.000000001
 43
0.0000000001
 40
0.0
 40
0.0
 40
0.0
 40
0.0
 40
1.0
 40
2.0
 40
3.0
 40
3.0
 40
3.0
 40
3.0
 10
-134.3243022097808
 20
1515.806030109571
 30
410.4821166992187
 10
-128.6065166899798
 20
1527.438090745415
 30
410.4821166992187
 10
-123.2136398222646
 20
1553.217158592719
 30
410.4821166992187
 10
-128.3317333610457
 20
1591.971191952877
 30
410.4821166992187
 10
-136.3537219317922
 20
1616.588823143198
 30
410.4821166992187
 10
-141.2780659748068
 20
1628.536883879416
 30
410.4821166992187
  0
SPLINE
  5
8EA39
330
1F
100
AcDbEntity
  8
Default
100
AcDbSpline
210
0.0
220
0.0
230
1.0
 70
     8
 71
     3
 72
    10
 73
     6
 74
     0
 42
0.000000001
 43
0.0000000001
 40
-3.0
 40
-3.0
 40
-3.0
 40
-3.0
 40
-2.0
 40
-1.0
 40
0.0
 40
0.0
 40
0.0
 40
0.0
 10
-141.2780659748068
 20
1628.536883879416
 30
410.4821166992187
 10
-161.0492007539151
 20
1676.297575361852
 30
410.4821166992187
 10
-223.602824160896
 20
1761.179746709924
 30
410.4821166992187
 10
-358.2272601062141
 20
1842.874219676349
 30
410.4821166992187
 10
-461.4677121706872
 20
1861.579676563933
 30
410.4821166992187
 10
-513.0744713772632
 20
1861.160226137679
 30
410.4821166992187
  0
SPLINE
  5
8EA3A
330
1F
100
AcDbEntity
  8
Default
100
AcDbSpline
210
0.0
220
0.0
230
1.0
 70
     8
 71
     3
 72
    10
 73
     6
 74
     0
 42
0.000000001
 43
0.0000000001
 40
0.0
 40
0.0
 40
0.0
 40
0.0
 40
1.0
 40
2.0
 40
3.0
 40
3.0
 40
3.0
 40
3.0
 10
-513.0744713772632
 20
1861.160226137679
 30
410.4821166992187
 10
-564.6812305838397
 20
1861.579676563933
 30
410.4821166992187
 10
-667.921682648313
 20
1842.874219676349
 30
410.4821166992187
 10
-802.5461185936309
 20
1761.179746709924
 30
410.4821166992187
 10
-865.0997420006119
 20
1676.297575361852
 30
410.4821166992187
 10
-884.8708767797202
 20
1628.536883879416
 30
410.4821166992187
  0
SPLINE
  5
8EA3B
330
1F
100
AcDbEntity
  8
Default
100
AcDbSpline
210
0.0
220
0.0
230
1.0
 70
     8
 71
     3
 72
    10
 73
     6
 74
     0
 42
0.000000001
 43
0.0000000001
 40
-3.0
 40
-3.0
 40
-3.0
 40
-3.0
 40
-2.0
 40
-1.0
 40
0.0
 40
0.0
 40
0.0
 40
0.0
 10
-884.8708767797202
 20
1628.536883879416
 30
410.4821166992187
 10
-889.7952208227348
 20
1616.588823143198
 30
410.4821166992187
 10
-897.8172093934814
 20
1591.971191952877
 30
410.4821166992187
 10
-902.9353029322624
 20
1553.217158592719
 30
410.4821166992187
 10
-897.5424260645477
 20
1527.438090745415
 30
410.4821166992187
 10
-891.8246405447462
 20
1515.806030109571
 30
410.4821166992187
  0
SPLINE
  5
8EA3C
330
1F
100
AcDbEntity
  8
Default
100
AcDbSpline
210
0.0
220
0.0
230
1.0
 70
     8
 71
     3
 72
    19
 73
    15
 74
     0
 42
0.000000001
 43
0.0000000001
 40
-12.0
 40
-12.0
 40
-12.0
 40
-12.0
 40
-11.0
 40
-10.0
 40
-9.0
 40
-8.0
 40
-7.0
 40
-6.0
 40
-5.0
 40
-4.0
 40
-3.0
 40
-2.0
 40
-1.0
 40
0.0
 40
0.0
 40
0.0
 40
0.0
 10
-303.1778375242238
 20
1310.598878371422
 30
410.4821166992187
 10
-285.7780297646618
 20
1327.356044586037
 30
410.4821166992187
 10
-251.2737449171127
 20
1360.988877391944
 30
410.4821166992187
 10
-199.3760804590106
 20
1412.013046539768
 30
410.4821166992187
 10
-156.100652932505
 20
1469.230691438406
 30
410.4821166992187
 10
-112.2905699720263
 20
1530.392307977803
 30
410.4821166992187
 10
-117.6915347366207
 20
1605.72586413327
 30
410.4821166992187
 10
-148.0291221111902
 20
1671.882621327007
 30
410.4821166992187
 10
-190.3658987598146
 20
1731.038490780616
 30
410.4821166992187
 10
-243.2664185208414
 20
1780.969607132506
 30
410.4821166992187
 10
-303.8946889332892
 20
1821.044929638901
 30
410.4821166992187
 10
-370.3302935410875
 20
1850.500543458298
 30
410.4821166992187
 10
-440.6594831857209
 20
1868.790708605766
 30
410.4821166992187
 10
-488.928932126682
 20
1873.052548926366
 30
410.4821166992187
 10
-513.0744713772632
 20
1873.063891972067
 30
410.4821166992187
  0
SPLINE
  5
8EA3D
330
1F
100
AcDbEntity
  8
Default
100
AcDbSpline
210
0.0
220
0.0
230
1.0
 70
     8
 71
     3
 72
    19
 73
    15
 74
     0
 42
0.000000001
 43
0.0000000001
 40
0.0
 40
0.0
 40
0.0
 40
0.0
 40
1.0
 40
2.0
 40
3.0
 40
4.0
 40
5.0
 40
6.0
 40
7.0
 40
8.0
 40
9.0
 40
10.0
 40
11.0
 40
12.0
 40
12.0
 40
12.0
 40
12.0
 10
-513.0744713772632
 20
1873.063891972067
 30
410.4821166992187
 10
-537.2200106278451
 20
1873.052548926366
 30
410.4821166992187
 10
-585.489459568806
 20
1868.790708605766
 30
410.4821166992187
 10
-655.8186492134396
 20
1850.500543458298
 30
410.4821166992187
 10
-722.2542538212374
 20
1821.044929638901
 30
410.4821166992187
 10
-782.8825242336861
 20
1780.969607132506
 30
410.4821166992187
 10
-835.783043994712
 20
1731.038490780616
 30
410.4821166992187
 10
-878.1198206433369
 20
1671.882621327007
 30
410.4821166992187
 10
-908.4574080179063
 20
1605.72586413327
 30
410.4821166992187
 10
-913.8583727825007
 20
1530.392307977803
 30
410.4821166992187
 10
-870.0482898220215
 20
1469.230691438406
 30
410.4821166992187
 10
-826.7728622955164
 20
1412.013046539768
 30
410.4821166992187
 10
-774.8751978374143
 20
1360.988877391944
 30
410.4821166992187
 10
-740.3709129898652
 20
1327.356044586037
 30
410.4821166992187
 10
-722.9711052303032
 20
1310.598878371422
 30
410.4821166992187
  0
ARC
  5
8EA3E
330
1F
100
AcDbEntity
  8
Default
100
AcDbCircle
 10
-581.4268558953394
 20
1703.18490225371
 30
410.4821166992187
 40
455.7859007505599
100
AcDbArc
 50
304.5347986330985
 51
313.3741222382037
  0
SPLINE
  5
8EA3F
330
1F
100
AcDbEntity
  8
Default
100
AcDbSpline
210
0.0
220
0.0
230
1.0
 70
     8
 71
     3
 72
    14
 73
    10
 74
     0
 42
0.000000001
 43
0.0000000001
 40
0.0000000000000002
 40
0.0000000000000002
 40
0.0000000000000002
 40
0.0000000000000002
 40
1.0
 40
2.0
 40
3.0
 40
4.0
 40
5.0
 40
6.0
 40
7.0
 40
7.0
 40
7.0
 40
7.0
 10
-268.4116580748346
 20
1371.881003610199
 30
410.4821166992187
 10
-258.0796482408991
 20
1381.642663872255
 30
410.4821166992187
 10
-237.6661938314978
 20
1401.470260292621
 30
410.4821166992187
 10
-209.3447128969833
 20
1433.367621044198
 30
410.4821166992187
 10
-181.7996380173304
 20
1465.975142164106
 30
410.4821166992187
 10
-156.5881111227149
 20
1500.322928898848
 30
410.4821166992187
 10
-137.4181558592145
 20
1539.224004638789
 30
410.4821166992187
 10
-138.5957818807287
 20
1582.918767499123
 30
410.4821166992187
 10
-146.5179981933506
 20
1610.239070386205
 30
410.4821166992187
 10
-151.8098256050439
 20
1623.460136688924
 30
410.4821166992187
  0
ARC
  5
8EA40
330
1F
100
AcDbEntity
  8
Default
100
AcDbCircle
 10
-444.7220868591876
 20
1703.18490225371
 30
410.4821166992187
 40
455.7859007505599
100
AcDbArc
 50
226.6258777617963
 51
235.4652013669014
  0
SPLINE
  5
8EA41
330
1F
100
AcDbEntity
  8
Default
100
AcDbSpline
210
0.0
220
0.0
230
1.0
 70
     8
 71
     3
 72
    14
 73
    10
 74
     0
 42
0.000000001
 43
0.0000000001
 40
0.0000000000000002
 40
0.0000000000000002
 40
0.0000000000000002
 40
0.0000000000000002
 40
1.0
 40
2.0
 40
3.0
 40
4.0
 40
5.0
 40
6.0
 40
7.0
 40
7.0
 40
7.0
 40
7.0
 10
-757.7372846796925
 20
1371.881003610199
 30
410.4821166992187
 10
-768.0692945136279
 20
1381.642663872255
 30
410.4821166992187
 10
-788.4827489230287
 20
1401.470260292621
 30
410.4821166992187
 10
-816.8042298575437
 20
1433.367621044198
 30
410.4821166992187
 10
-844.3493047371967
 20
1465.975142164106
 30
410.4821166992187
 10
-869.5608316318121
 20
1500.322928898848
 30
410.4821166992187
 10
-888.7307868953126
 20
1539.224004638789
 30
410.4821166992187
 10
-887.5531608737983
 20
1582.918767499123
 30
410.4821166992187
 10
-879.6309445611765
 20
1610.239070386205
 30
410.4821166992187
 10
-874.3391171494831
 20
1623.460136688924
 30
410.4821166992187
  0
SPLINE
  5
8EA42
330
1F
100
AcDbEntity
  8
Default
100
AcDbSpline
210
0.0
220
0.0
230
1.0
 70
    24
 71
     2
 72
     6
 73
     3
 74
     0
 42
0.000000001
 43
0.0000000001
 40
1.144412679649788
 40
1.144412679649788
 40
1.144412679649788
 40
3.293043573786101
 40
3.293043573786101
 40
3.293043573786101
 10
-299.690078077982
 20
1313.960484357089
 30
410.4821166992187
 10
-283.8568777459404
 20
1291.50387330411
 30
410.4821166992187
 10
-268.0236774138984
 20
1269.047262251131
 30
410.4821166992187
  0
SPLINE
  5
8EA43
330
1F
100
AcDbEntity
  8
Default
100
AcDbSpline
210
0.0
220
0.0
230
1.0
 70
    12
 71
     2
 72
     8
 73
     5
 74
     0
 42
0.000000001
 43
0.0000000001
 40
0.0
 40
0.0
 40
0.0
 40
0.197163615910639
 40
0.197163615910639
 40
0.3943272318212779
 40
0.3943272318212779
 40
0.3943272318212779
 10
-268.0236774138984
 20
1269.047262251131
 30
410.4821166992187
 41
1.0
 10
-266.2594652501725
 20
1267.027907679222
 30
410.4821166992187
 41
0.903610101610362
 10
-266.7059293019183
 20
1264.383875286034
 30
410.4821166992187
 41
1.0
 10
-267.1523933536646
 20
1261.739842892845
 30
410.4821166992187
 41
0.903610101610362
 10
-269.4835763319543
 20
1260.410782430758
 30
410.4821166992187
 41
1.0
  0
SPLINE
  5
8EA44
330
1F
100
AcDbEntity
  8
Default
100
AcDbSpline
210
0.0
220
0.0
230
1.0
 70
    12
 71
     2
 72
     6
 73
     3
 74
     0
 42
0.000000001
 43
0.0000000001
 40
0.0
 40
0.0
 40
0.0
 40
0.3210187875113308
 40
0.3210187875113308
 40
0.3210187875113308
 10
-269.4835763319543
 20
1260.410782430758
 30
410.4821166992187
 41
1.0
 10
-273.8745135623422
 20
1257.994814796014
 30
410.4821166992187
 41
0.742740032477747
 10
-276.7301210098913
 20
1262.110999115042
 30
410.4821166992187
 41
1.0
  0
SPLINE
  5
8EA45
330
1F
100
AcDbEntity
  8
Default
100
AcDbSpline
210
0.0
220
0.0
230
1.0
 70
    24
 71
     2
 72
     6
 73
     3
 74
     0
 42
0.000000001
 43
0.0000000001
 40
0.0
 40
0.0
 40
0.0
 40
2.103763487843004
 40
2.103763487843004
 40
2.103763487843004
 10
-276.7301210098913
 20
1262.110999115042
 30
410.4821166992187
 10
-292.3549147593071
 20
1284.272051802958
 30
410.4821166992187
 10
-307.979708508723
 20
1306.433104490874
 30
410.4821166992187
  0
LINE
  5
8EA46
330
1F
100
AcDbEntity
  8
Default
100
AcDbLine
 10
-299.3147446106641
 20
1294.143360090827
 30
410.4821166992187
 11
-300.024230849303
 21
1293.621662740611
 31
410.4821166992187
  0
ARC
  5
8EA47
330
1F
100
AcDbEntity
  8
Default
100
AcDbCircle
 10
-300.8588434077178
 20
1294.75670037219
 30
410.4821166992187
 40
1.408860726886862
100
AcDbArc
 50
216.5632865949757
 51
306.3276799419451
  0
SPLINE
  5
8EA48
330
1F
100
AcDbEntity
  8
Default
100
AcDbSpline
210
0.0
220
0.0
230
1.0
 70
    24
 71
     2
 72
     6
 73
     3
 74
     0
 42
0.000000001
 43
0.0000000001
 40
0.0
 40
0.0
 40
0.0
 40
0.5262007377155152
 40
0.5262007377155152
 40
0.5262007377155152
 10
-301.9904394323648
 20
1293.917427481666
 30
410.4821166992187
 10
-305.8521329417435
 20
1299.394385268828
 30
410.4821166992187
 10
-309.7138264511223
 20
1304.871343055989
 30
410.4821166992187
  0
LINE
  5
8EA49
330
1F
100
AcDbEntity
  8
Default
100
AcDbLine
 10
-290.2323680654408
 20
1300.546385454185
 30
410.4821166992187
 11
-289.5029463719625
 21
1301.039763023042
 31
410.4821166992187
  0
ARC
  5
8EA4A
330
1F
100
AcDbEntity
  8
Default
100
AcDbCircle
 10
-290.2929028477311
 20
1302.207654363671
 30
410.4821166992187
 40
1.4099650411
100
AcDbArc
 50
304.0742445701037
 51
35.64663332136792
  0
SPLINE
  5
8EA4B
330
1F
100
AcDbEntity
  8
Default
100
AcDbSpline
210
0.0
220
0.0
230
1.0
 70
    24
 71
     2
 72
     6
 73
     3
 74
     0
 42
0.000000001
 43
0.0000000001
 40
0.0
 40
0.0
 40
0.0
 40
0.6042843821236103
 40
0.6042843821236103
 40
0.6042843821236103
 10
-289.1471276106936
 20
1303.02936022547
 30
410.4821166992187
 10
-293.574757388626
 20
1309.30918264082
 30
410.4821166992187
 10
-298.0023871665585
 20
1315.589005056169
 30
410.4821166992187
  0
SPLINE
  5
8EA4C
330
1F
100
AcDbEntity
  8
Default
100
AcDbSpline
210
0.0
220
0.0
230
1.0
 70
    24
 71
     2
 72
     6
 73
     3
 74
     0
 42
0.000000001
 43
0.0000000001
 40
1.144473090120382
 40
1.144473090120382
 40
1.144473090120382
 40
3.293043573786101
 40
3.293043573786101
 40
3.293043573786101
 10
-726.4575555393767
 20
1313.959221586042
 30
410.4821166992187
 10
-742.290310708368
 20
1291.503241918587
 30
410.4821166992187
 10
-758.1230658773592
 20
1269.047262251131
 30
410.4821166992187
  0
SPLINE
  5
8EA4D
330
1F
100
AcDbEntity
  8
Default
100
AcDbSpline
210
0.0
220
0.0
230
1.0
 70
    12
 71
     2
 72
     8
 73
     5
 74
     0
 42
0.000000001
 43
0.0000000001
 40
0.0
 40
0.0
 40
0.0
 40
0.197163615910639
 40
0.197163615910639
 40
0.3943272318212779
 40
0.3943272318212779
 40
0.3943272318212779
 10
-758.1230658773592
 20
1269.047262251131
 30
410.4821166992187
 41
1.0
 10
-759.8872780410852
 20
1267.027907679222
 30
410.4821166992187
 41
0.903610101610362
 10
-759.4408139893394
 20
1264.383875286034
 30
410.4821166992187
 41
1.0
 10
-758.9943499375931
 20
1261.739842892845
 30
410.4821166992187
 41
0.903610101610362
 10
-756.6631669593034
 20
1260.410782430758
 30
410.4821166992187
 41
1.0
  0
SPLINE
  5
8EA4E
330
1F
100
AcDbEntity
  8
Default
100
AcDbSpline
210
0.0
220
0.0
230
1.0
 70
    12
 71
     2
 72
     6
 73
     3
 74
     0
 42
0.000000001
 43
0.0000000001
 40
0.0
 40
0.0
 40
0.0
 40
0.3210187875113308
 40
0.3210187875113308
 40
0.3210187875113308
 10
-756.6631669593034
 20
1260.410782430758
 30
410.4821166992187
 41
1.0
 10
-752.272229728916
 20
1257.994814796014
 30
410.4821166992187
 41
0.742740032477747
 10
-749.4166222813665
 20
1262.110999115042
 30
410.4821166992187
 41
1.0
  0
SPLINE
  5
8EA4F
330
1F
100
AcDbEntity
  8
Default
100
AcDbSpline
210
0.0
220
0.0
230
1.0
 70
    24
 71
     2
 72
     6
 73
     3
 74
     0
 42
0.000000001
 43
0.0000000001
 40
0.0
 40
0.0
 40
0.0
 40
2.103704346881143
 40
2.103704346881143
 40
2.103704346881143
 10
-749.4166222813665
 20
1262.110999115042
 30
410.4821166992187
 10
-733.7922677758752
 20
1284.271428811838
 30
410.4821166992187
 10
-718.1679132703843
 20
1306.431858508634
 30
410.4821166992187
  0
LINE
  5
8EA50
330
1F
100
AcDbEntity
  8
Default
100
AcDbLine
 10
-726.8319986805936
 20
1294.143360090827
 30
410.4821166992187
 11
-726.1225124419548
 21
1293.621662740611
 31
410.4821166992187
  0
ARC
  5
8EA51
330
1F
100
AcDbEntity
  8
Default
100
AcDbCircle
 10
-725.2878998835399
 20
1294.75670037219
 30
410.4821166992187
 40
1.408860726886862
100
AcDbArc
 50
233.6723200580538
 51
323.4367134050243
  0
SPLINE
  5
8EA52
330
1F
100
AcDbEntity
  8
Default
100
AcDbSpline
210
0.0
220
0.0
230
1.0
 70
    24
 71
     2
 72
     6
 73
     3
 74
     0
 42
0.000000001
 43
0.0000000001
 40
0.0
 40
0.0
 40
0.0
 40
0.5261413565638918
 40
0.5261413565638918
 40
0.5261413565638918
 10
-724.1563038588928
 20
1293.917427481666
 30
410.4821166992187
 10
-720.2950461372116
 20
1299.393767200404
 30
410.4821166992187
 10
-716.4337884155302
 20
1304.870106919141
 30
410.4821166992187
  0
LINE
  5
8EA53
330
1F
100
AcDbEntity
  8
Default
100
AcDbLine
 10
-735.9143752258169
 20
1300.546385454185
 30
410.4821166992187
 11
-736.6437969192952
 21
1301.039763023042
 31
410.4821166992187
  0
ARC
  5
8EA54
330
1F
100
AcDbEntity
  8
Default
100
AcDbCircle
 10
-735.8538404435266
 20
1302.207654363671
 30
410.4821166992187
 40
1.4099650411
100
AcDbArc
 50
144.353366678632
 51
235.9257554298741
  0
SPLINE
  5
8EA55
330
1F
100
AcDbEntity
  8
Default
100
AcDbSpline
210
0.0
220
0.0
230
1.0
 70
    24
 71
     2
 72
     6
 73
     3
 74
     0
 42
0.000000001
 43
0.0000000001
 40
0.0
 40
0.0
 40
0.0
 40
0.6042235994859217
 40
0.6042235994859217
 40
0.6042235994859217
 10
-736.9996156805641
 20
1303.02936022547
 30
410.4821166992187
 10
-732.5724312608513
 20
1309.308550977679
 30
410.4821166992187
 10
-728.1452468411389
 20
1315.587741729888
 30
410.4821166992187
  0
SPLINE
  5
8EA69
330
1F
100
AcDbEntity
  8
Default
100
AcDbSpline
210
0.0
220
0.0
230
1.0
 70
     8
 71
     3
 72
    12
 73
     8
 74
     0
 42
0.000000001
 43
0.0000000001
 40
-15.35241690788854
 40
-15.35241690788854
 40
-15.35241690788854
 40
-15.35241690788854
 40
-11.42846741267097
 40
-7.624448814229928
 40
-3.868777023834103
 40
-1.918304340297428
 40
0.0
 40
0.0
 40
0.0
 40
0.0
 10
268.5998267394125
 20
1476.85030663485
 30
410.4821166992187
 10
268.5992909633742
 20
1510.057835445641
 30
410.4821166992187
 10
280.4221421506022
 20
1575.635708710972
 30
410.4821166992187
 10
333.875927628771
 20
1659.193964683702
 30
410.4821166992187
 10
401.9455865061836
 20
1705.287506267484
 30
410.4821166992187
 10
464.072164223116
 20
1723.933263371297
 30
410.4821166992187
 10
496.8344037386568
 20
1727.10344496093
 30
410.4821166992187
 10
513.0744713772742
 20
1727.089967190189
 30
410.4821166992187
  0
SPLINE
  5
8EA6A
330
1F
100
AcDbEntity
  8
Default
100
AcDbSpline
210
0.0
220
0.0
230
1.0
 70
     8
 71
     3
 72
    12
 73
     8
 74
     0
 42
0.000000001
 43
0.0000000001
 40
0.0
 40
0.0
 40
0.0
 40
0.0
 40
1.918304340297428
 40
3.868777023834103
 40
7.624448814229928
 40
11.42846741267097
 40
15.35241690788854
 40
15.35241690788854
 40
15.35241690788854
 40
15.35241690788854
 10
513.0744713772742
 20
1727.089967190189
 30
410.4821166992187
 10
529.314539015892
 20
1727.10344496093
 30
410.4821166992187
 10
562.0767785314324
 20
1723.933263371297
 30
410.4821166992187
 10
624.2033562483648
 20
1705.287506267484
 30
410.4821166992187
 10
692.2730151257779
 20
1659.193964683702
 30
410.4821166992187
 10
745.7268006039466
 20
1575.635708710972
 30
410.4821166992187
 10
757.5496517911747
 20
1510.057835445641
 30
410.4821166992187
 10
757.5491160151364
 20
1476.85030663485
 30
410.4821166992187
  0
SPLINE
  5
8EA6B
330
1F
100
AcDbEntity
  8
Default
100
AcDbSpline
210
0.0
220
0.0
230
1.0
 70
     8
 71
     3
 72
    12
 73
     8
 74
     0
 42
0.000000001
 43
0.0000000001
 40
-14.89017237659325
 40
-14.89017237659325
 40
-14.89017237659325
 40
-14.89017237659325
 40
-11.21816892444778
 40
-7.516681648226318
 40
-3.774518777477096
 40
-1.889354184169619
 40
0.0
 40
0.0
 40
0.0
 40
0.0
 10
757.5491160151364
 20
1476.85030663485
 30
410.4821166992187
 10
757.5574487643216
 20
1445.756482770319
 30
410.4821166992187
 10
744.6757626881853
 20
1383.34371850895
 30
410.4821166992187
 10
690.0148136883749
 20
1304.430423711943
 30
410.4821166992187
 10
622.3718593759167
 20
1260.821824936249
 30
410.4821166992187
 10
561.0291695904602
 20
1242.846238872503
 30
410.4821166992187
 10
529.0696740395278
 20
1239.772497083613
 30
410.4821166992187
 10
513.0744713772742
 20
1239.770774070876
 30
410.4821166992187
  0
SPLINE
  5
8EA6C
330
1F
100
AcDbEntity
  8
Default
100
AcDbSpline
210
0.0
220
0.0
230
1.0
 70
     8
 71
     3
 72
    12
 73
     8
 74
     0
 42
0.000000001
 43
0.0000000001
 40
0.0
 40
0.0
 40
0.0
 40
0.0
 40
1.889354184169619
 40
3.774518777477096
 40
7.516681648226318
 40
11.21816892444778
 40
14.89017237659325
 40
14.89017237659325
 40
14.89017237659325
 40
14.89017237659325
 10
513.0744713772742
 20
1239.770774070876
 30
410.4821166992187
 10
497.079268715021
 20
1239.772497083613
 30
410.4821166992187
 10
465.1197731640886
 20
1242.846238872503
 30
410.4821166992187
 10
403.7770833786321
 20
1260.821824936249
 30
410.4821166992187
 10
336.1341290661739
 20
1304.430423711943
 30
410.4821166992187
 10
281.4731800663635
 20
1383.34371850895
 30
410.4821166992187
 10
268.5914939902268
 20
1445.756482770319
 30
410.4821166992187
 10
268.5998267394125
 20
1476.85030663485
 30
410.4821166992187
  0
SPLINE
  5
8EA6D
330
1F
100
AcDbEntity
  8
Default
100
AcDbSpline
210
0.0
220
0.0
230
1.0
 70
     8
 71
     3
 72
    24
 73
    20
 74
     0
 42
0.000000001
 43
0.0000000001
 40
0.0
 40
0.0
 40
0.0
 40
0.0
 40
1.0
 40
2.0
 40
3.0
 40
4.0
 40
5.0
 40
6.0
 40
7.0
 40
8.0
 40
9.0
 40
10.0
 40
11.0
 40
12.0
 40
13.0
 40
14.0
 40
15.0
 40
16.0
 40
17.0
 40
17.0
 40
17.0
 40
17.0
 10
891.8246941471407
 20
1515.806030109571
 30
410.4821166992187
 10
887.5720233555757
 20
1506.982324089781
 30
410.4821166992187
 10
877.577568616024
 20
1490.117770508996
 30
410.4821166992187
 10
860.809185562719
 20
1465.98772020906
 30
410.4821166992187
 10
842.4948561326914
 20
1443.020547044978
 30
410.4821166992187
 10
824.0087691898597
 20
1420.202375688317
 30
410.4821166992187
 10
805.3574755751279
 20
1397.514205946515
 30
410.4821166992187
 10
786.042779236544
 20
1375.385775341877
 30
410.4821166992187
 10
765.9804215218018
 20
1353.930422534755
 30
410.4821166992187
 10
745.2630094904661
 20
1333.116449564343
 30
410.4821166992187
 10
724.7881094191284
 20
1312.046901426288
 30
410.4821166992187
 10
702.6942614657891
 20
1292.656448264092
 30
410.4821166992187
 10
679.0461945941292
 20
1275.199196134676
 30
410.4821166992187
 10
653.9432010540108
 20
1259.896585822439
 30
410.4821166992187
 10
627.5369773035231
 20
1246.969054663215
 30
410.4821166992187
 10
599.9852129706855
 20
1236.689389268216
 30
410.4821166992187
 10
571.5183149760009
 20
1229.311460178734
 30
410.4821166992187
 10
542.4441135522552
 20
1224.89929790721
 30
410.4821166992187
 10
522.8640882364648
 20
1223.932142795267
 30
410.4821166992187
 10
513.0744981784659
 20
1223.948439467687
 30
410.4821166992187
  0
SPLINE
  5
8EA6E
330
1F
100
AcDbEntity
  8
Default
100
AcDbSpline
210
0.0
220
0.0
230
1.0
 70
     8
 71
     3
 72
    24
 73
    20
 74
     0
 42
0.000000001
 43
0.0000000001
 40
-17.0
 40
-17.0
 40
-17.0
 40
-17.0
 40
-16.0
 40
-15.0
 40
-14.0
 40
-13.0
 40
-12.0
 40
-11.0
 40
-10.0
 40
-9.0
 40
-8.0
 40
-7.0
 40
-6.0
 40
-5.0
 40
-4.0
 40
-3.0
 40
-2.0
 40
-1.0
 40
0.0
 40
0.0
 40
0.0
 40
0.0
 10
513.0744981784659
 20
1223.948439467687
 30
410.4821166992187
 10
503.2849081204676
 20
1223.932142795267
 30
410.4821166992187
 10
483.7048828046772
 20
1224.89929790721
 30
410.4821166992187
 10
454.6306813809315
 20
1229.311460178734
 30
410.4821166992187
 10
426.1637833862469
 20
1236.689389268216
 30
410.4821166992187
 10
398.6120190534093
 20
1246.969054663215
 30
410.4821166992187
 10
372.2057953029216
 20
1259.896585822439
 30
410.4821166992187
 10
347.1028017628032
 20
1275.199196134676
 30
410.4821166992187
 10
323.4547348911433
 20
1292.656448264092
 30
410.4821166992187
 10
301.360886937804
 20
1312.046901426288
 30
410.4821166992187
 10
280.8859868664663
 20
1333.116449564343
 30
410.4821166992187
 10
260.1685748351306
 20
1353.930422534755
 30
410.4821166992187
 10
240.1062171203885
 20
1375.385775341877
 30
410.4821166992187
 10
220.7915207818046
 20
1397.514205946515
 30
410.4821166992187
 10
202.1402271670727
 20
1420.202375688317
 30
410.4821166992187
 10
183.654140224241
 20
1443.020547044978
 30
410.4821166992187
 10
165.3398107942134
 20
1465.98772020906
 30
410.4821166992187
 10
148.5714277409083
 20
1490.117770508996
 30
410.4821166992187
 10
138.5769730013571
 20
1506.982324089781
 30
410.4821166992187
 10
134.3243022097917
 20
1515.806030109571
 30
410.4821166992187
  0
SPLINE
  5
8EA6F
330
1F
100
AcDbEntity
  8
Default
100
AcDbSpline
210
0.0
220
0.0
230
1.0
 70
     8
 71
     3
 72
    10
 73
     6
 74
     0
 42
0.000000001
 43
0.0000000001
 40
0.0
 40
0.0
 40
0.0
 40
0.0
 40
1.0
 40
2.0
 40
3.0
 40
3.0
 40
3.0
 40
3.0
 10
134.3243022097917
 20
1515.806030109571
 30
410.4821166992187
 10
128.6065166899907
 20
1527.438090745415
 30
410.4821166992187
 10
123.2136398222756
 20
1553.217158592719
 30
410.4821166992187
 10
128.3317333610566
 20
1591.971191952877
 30
410.4821166992187
 10
136.3537219318032
 20
1616.588823143198
 30
410.4821166992187
 10
141.2780659748177
 20
1628.536883879416
 30
410.4821166992187
  0
SPLINE
  5
8EA70
330
1F
100
AcDbEntity
  8
Default
100
AcDbSpline
210
0.0
220
0.0
230
1.0
 70
     8
 71
     3
 72
    10
 73
     6
 74
     0
 42
0.000000001
 43
0.0000000001
 40
-3.0
 40
-3.0
 40
-3.0
 40
-3.0
 40
-2.0
 40
-1.0
 40
0.0
 40
0.0
 40
0.0
 40
0.0
 10
141.2780659748177
 20
1628.536883879416
 30
410.4821166992187
 10
161.049200753926
 20
1676.297575361852
 30
410.4821166992187
 10
223.6028241609069
 20
1761.179746709924
 30
410.4821166992187
 10
358.227260106225
 20
1842.874219676349
 30
410.4821166992187
 10
461.4677121706981
 20
1861.579676563933
 30
410.4821166992187
 10
513.0744713772742
 20
1861.160226137679
 30
410.4821166992187
  0
SPLINE
  5
8EA71
330
1F
100
AcDbEntity
  8
Default
100
AcDbSpline
210
0.0
220
0.0
230
1.0
 70
     8
 71
     3
 72
    10
 73
     6
 74
     0
 42
0.000000001
 43
0.0000000001
 40
0.0
 40
0.0
 40
0.0
 40
0.0
 40
1.0
 40
2.0
 40
3.0
 40
3.0
 40
3.0
 40
3.0
 10
513.0744713772742
 20
1861.160226137679
 30
410.4821166992187
 10
564.6812305838507
 20
1861.579676563933
 30
410.4821166992187
 10
667.9216826483239
 20
1842.874219676349
 30
410.4821166992187
 10
802.5461185936419
 20
1761.179746709924
 30
410.4821166992187
 10
865.0997420006229
 20
1676.297575361852
 30
410.4821166992187
 10
884.8708767797312
 20
1628.536883879416
 30
410.4821166992187
  0
SPLINE
  5
8EA72
330
1F
100
AcDbEntity
  8
Default
100
AcDbSpline
210
0.0
220
0.0
230
1.0
 70
     8
 71
     3
 72
    10
 73
     6
 74
     0
 42
0.000000001
 43
0.0000000001
 40
-3.0
 40
-3.0
 40
-3.0
 40
-3.0
 40
-2.0
 40
-1.0
 40
0.0
 40
0.0
 40
0.0
 40
0.0
 10
884.8708767797312
 20
1628.536883879416
 30
410.4821166992187
 10
889.7952208227456
 20
1616.588823143198
 30
410.4821166992187
 10
897.8172093934922
 20
1591.971191952877
 30
410.4821166992187
 10
902.9353029322733
 20
1553.217158592719
 30
410.4821166992187
 10
897.5424260645587
 20
1527.438090745415
 30
410.4821166992187
 10
891.8246405447572
 20
1515.806030109571
 30
410.4821166992187
  0
SPLINE
  5
8EA73
330
1F
100
AcDbEntity
  8
Default
100
AcDbSpline
210
0.0
220
0.0
230
1.0
 70
     8
 71
     3
 72
    19
 73
    15
 74
     0
 42
0.000000001
 43
0.0000000001
 40
-12.0
 40
-12.0
 40
-12.0
 40
-12.0
 40
-11.0
 40
-10.0
 40
-9.0
 40
-8.0
 40
-7.0
 40
-6.0
 40
-5.0
 40
-4.0
 40
-3.0
 40
-2.0
 40
-1.0
 40
0.0
 40
0.0
 40
0.0
 40
0.0
 10
303.1778375242347
 20
1310.598878371422
 30
410.4821166992187
 10
285.7780297646727
 20
1327.356044586037
 30
410.4821166992187
 10
251.2737449171236
 20
1360.988877391944
 30
410.4821166992187
 10
199.3760804590215
 20
1412.013046539768
 30
410.4821166992187
 10
156.1006529325159
 20
1469.230691438406
 30
410.4821166992187
 10
112.2905699720372
 20
1530.392307977803
 30
410.4821166992187
 10
117.6915347366316
 20
1605.72586413327
 30
410.4821166992187
 10
148.0291221112011
 20
1671.882621327007
 30
410.4821166992187
 10
190.3658987598255
 20
1731.038490780616
 30
410.4821166992187
 10
243.2664185208523
 20
1780.969607132506
 30
410.4821166992187
 10
303.8946889333001
 20
1821.044929638901
 30
410.4821166992187
 10
370.3302935410984
 20
1850.500543458298
 30
410.4821166992187
 10
440.6594831857319
 20
1868.790708605766
 30
410.4821166992187
 10
488.9289321266928
 20
1873.052548926366
 30
410.4821166992187
 10
513.0744713772742
 20
1873.063891972067
 30
410.4821166992187
  0
SPLINE
  5
8EA74
330
1F
100
AcDbEntity
  8
Default
100
AcDbSpline
210
0.0
220
0.0
230
1.0
 70
     8
 71
     3
 72
    19
 73
    15
 74
     0
 42
0.000000001
 43
0.0000000001
 40
0.0
 40
0.0
 40
0.0
 40
0.0
 40
1.0
 40
2.0
 40
3.0
 40
4.0
 40
5.0
 40
6.0
 40
7.0
 40
8.0
 40
9.0
 40
10.0
 40
11.0
 40
12.0
 40
12.0
 40
12.0
 40
12.0
 10
513.0744713772742
 20
1873.063891972067
 30
410.4821166992187
 10
537.220010627856
 20
1873.052548926366
 30
410.4821166992187
 10
585.4894595688169
 20
1868.790708605766
 30
410.4821166992187
 10
655.8186492134504
 20
1850.500543458298
 30
410.4821166992187
 10
722.2542538212483
 20
1821.044929638901
 30
410.4821166992187
 10
782.882524233697
 20
1780.969607132506
 30
410.4821166992187
 10
835.7830439947228
 20
1731.038490780616
 30
410.4821166992187
 10
878.1198206433478
 20
1671.882621327007
 30
410.4821166992187
 10
908.4574080179173
 20
1605.72586413327
 30
410.4821166992187
 10
913.8583727825116
 20
1530.392307977803
 30
410.4821166992187
 10
870.0482898220325
 20
1469.230691438406
 30
410.4821166992187
 10
826.7728622955273
 20
1412.013046539768
 30
410.4821166992187
 10
774.8751978374253
 20
1360.988877391944
 30
410.4821166992187
 10
740.3709129898762
 20
1327.356044586037
 30
410.4821166992187
 10
722.9711052303141
 20
1310.598878371422
 30
410.4821166992187
  0
ARC
  5
8EA75
330
1F
100
AcDbEntity
  8
Default
100
AcDbCircle
 10
581.4268558953504
 20
1703.18490225371
 30
410.4821166992187
 40
455.7859007505599
100
AcDbArc
 50
226.6258777617963
 51
235.4652013669014
  0
SPLINE
  5
8EA76
330
1F
100
AcDbEntity
  8
Default
100
AcDbSpline
210
0.0
220
0.0
230
1.0
 70
     8
 71
     3
 72
    14
 73
    10
 74
     0
 42
0.000000001
 43
0.0000000001
 40
0.0000000000000002
 40
0.0000000000000002
 40
0.0000000000000002
 40
0.0000000000000002
 40
1.0
 40
2.0
 40
3.0
 40
4.0
 40
5.0
 40
6.0
 40
7.0
 40
7.0
 40
7.0
 40
7.0
 10
268.4116580748455
 20
1371.881003610199
 30
410.4821166992187
 10
258.07964824091
 20
1381.642663872255
 30
410.4821166992187
 10
237.6661938315087
 20
1401.470260292621
 30
410.4821166992187
 10
209.3447128969942
 20
1433.367621044198
 30
410.4821166992187
 10
181.7996380173413
 20
1465.975142164106
 30
410.4821166992187
 10
156.5881111227259
 20
1500.322928898848
 30
410.4821166992187
 10
137.4181558592254
 20
1539.224004638789
 30
410.4821166992187
 10
138.5957818807396
 20
1582.918767499123
 30
410.4821166992187
 10
146.5179981933616
 20
1610.239070386205
 30
410.4821166992187
 10
151.8098256050548
 20
1623.460136688924
 30
410.4821166992187
  0
ARC
  5
8EA77
330
1F
100
AcDbEntity
  8
Default
100
AcDbCircle
 10
444.7220868591984
 20
1703.18490225371
 30
410.4821166992187
 40
455.7859007505599
100
AcDbArc
 50
304.5347986330985
 51
313.3741222382037
  0
SPLINE
  5
8EA78
330
1F
100
AcDbEntity
  8
Default
100
AcDbSpline
210
0.0
220
0.0
230
1.0
 70
     8
 71
     3
 72
    14
 73
    10
 74
     0
 42
0.000000001
 43
0.0000000001
 40
0.0000000000000002
 40
0.0000000000000002
 40
0.0000000000000002
 40
0.0000000000000002
 40
1.0
 40
2.0
 40
3.0
 40
4.0
 40
5.0
 40
6.0
 40
7.0
 40
7.0
 40
7.0
 40
7.0
 10
757.7372846797033
 20
1371.881003610199
 30
410.4821166992187
 10
768.0692945136388
 20
1381.642663872255
 30
410.4821166992187
 10
788.4827489230397
 20
1401.470260292621
 30
410.4821166992187
 10
816.8042298575546
 20
1433.367621044198
 30
410.4821166992187
 10
844.3493047372076
 20
1465.975142164106
 30
410.4821166992187
 10
869.560831631823
 20
1500.322928898848
 30
410.4821166992187
 10
888.7307868953234
 20
1539.224004638789
 30
410.4821166992187
 10
887.5531608738093
 20
1582.918767499123
 30
410.4821166992187
 10
879.6309445611873
 20
1610.239070386205
 30
410.4821166992187
 10
874.3391171494941
 20
1623.460136688924
 30
410.4821166992187
  0
SPLINE
  5
8EA79
330
1F
100
AcDbEntity
  8
Default
100
AcDbSpline
210
0.0
220
0.0
230
1.0
 70
    24
 71
     2
 72
     6
 73
     3
 74
     0
 42
0.000000001
 43
0.0000000001
 40
1.144412679649788
 40
1.144412679649788
 40
1.144412679649788
 40
3.293043573786101
 40
3.293043573786101
 40
3.293043573786101
 10
299.6900780779929
 20
1313.960484357089
 30
410.4821166992187
 10
283.8568777459514
 20
1291.50387330411
 30
410.4821166992187
 10
268.0236774139094
 20
1269.047262251131
 30
410.4821166992187
  0
SPLINE
  5
8EA7A
330
1F
100
AcDbEntity
  8
Default
100
AcDbSpline
210
0.0
220
0.0
230
1.0
 70
    12
 71
     2
 72
     8
 73
     5
 74
     0
 42
0.000000001
 43
0.0000000001
 40
0.0
 40
0.0
 40
0.0
 40
0.197163615910639
 40
0.197163615910639
 40
0.3943272318212779
 40
0.3943272318212779
 40
0.3943272318212779
 10
268.0236774139094
 20
1269.047262251131
 30
410.4821166992187
 41
1.0
 10
266.2594652501834
 20
1267.027907679222
 30
410.4821166992187
 41
0.903610101610362
 10
266.7059293019292
 20
1264.383875286034
 30
410.4821166992187
 41
1.0
 10
267.1523933536755
 20
1261.739842892845
 30
410.4821166992187
 41
0.903610101610362
 10
269.4835763319652
 20
1260.410782430758
 30
410.4821166992187
 41
1.0
  0
SPLINE
  5
8EA7B
330
1F
100
AcDbEntity
  8
Default
100
AcDbSpline
210
0.0
220
0.0
230
1.0
 70
    12
 71
     2
 72
     6
 73
     3
 74
     0
 42
0.000000001
 43
0.0000000001
 40
0.0
 40
0.0
 40
0.0
 40
0.3210187875113308
 40
0.3210187875113308
 40
0.3210187875113308
 10
269.4835763319652
 20
1260.410782430758
 30
410.4821166992187
 41
1.0
 10
273.8745135623531
 20
1257.994814796014
 30
410.4821166992187
 41
0.742740032477747
 10
276.7301210099022
 20
1262.110999115042
 30
410.4821166992187
 41
1.0
  0
SPLINE
  5
8EA7C
330
1F
100
AcDbEntity
  8
Default
100
AcDbSpline
210
0.0
220
0.0
230
1.0
 70
    24
 71
     2
 72
     6
 73
     3
 74
     0
 42
0.000000001
 43
0.0000000001
 40
0.0
 40
0.0
 40
0.0
 40
2.103763487843004
 40
2.103763487843004
 40
2.103763487843004
 10
276.7301210099022
 20
1262.110999115042
 30
410.4821166992187
 10
292.354914759318
 20
1284.272051802958
 30
410.4821166992187
 10
307.9797085087339
 20
1306.433104490874
 30
410.4821166992187
  0
LINE
  5
8EA7D
330
1F
100
AcDbEntity
  8
Default
100
AcDbLine
 10
299.314744610675
 20
1294.143360090827
 30
410.4821166992187
 11
300.0242308493139
 21
1293.621662740611
 31
410.4821166992187
  0
ARC
  5
8EA7E
330
1F
100
AcDbEntity
  8
Default
100
AcDbCircle
 10
300.8588434077287
 20
1294.75670037219
 30
410.4821166992187
 40
1.408860726886862
100
AcDbArc
 50
233.6723200580538
 51
323.4367134050243
  0
SPLINE
  5
8EA7F
330
1F
100
AcDbEntity
  8
Default
100
AcDbSpline
210
0.0
220
0.0
230
1.0
 70
    24
 71
     2
 72
     6
 73
     3
 74
     0
 42
0.000000001
 43
0.0000000001
 40
0.0
 40
0.0
 40
0.0
 40
0.5262007377155152
 40
0.5262007377155152
 40
0.5262007377155152
 10
301.9904394323758
 20
1293.917427481666
 30
410.4821166992187
 10
305.8521329417545
 20
1299.394385268828
 30
410.4821166992187
 10
309.7138264511332
 20
1304.871343055989
 30
410.4821166992187
  0
LINE
  5
8EA80
330
1F
100
AcDbEntity
  8
Default
100
AcDbLine
 10
290.2323680654518
 20
1300.546385454185
 30
410.4821166992187
 11
289.5029463719734
 21
1301.039763023042
 31
410.4821166992187
  0
ARC
  5
8EA81
330
1F
100
AcDbEntity
  8
Default
100
AcDbCircle
 10
290.292902847742
 20
1302.207654363671
 30
410.4821166992187
 40
1.4099650411
100
AcDbArc
 50
144.353366678632
 51
235.9257554298963
  0
SPLINE
  5
8EA82
330
1F
100
AcDbEntity
  8
Default
100
AcDbSpline
210
0.0
220
0.0
230
1.0
 70
    24
 71
     2
 72
     6
 73
     3
 74
     0
 42
0.000000001
 43
0.0000000001
 40
0.0
 40
0.0
 40
0.0
 40
0.6042843821236103
 40
0.6042843821236103
 40
0.6042843821236103
 10
289.1471276107045
 20
1303.02936022547
 30
410.4821166992187
 10
293.574757388637
 20
1309.30918264082
 30
410.4821166992187
 10
298.0023871665694
 20
1315.589005056169
 30
410.4821166992187
  0
SPLINE
  5
8EA83
330
1F
100
AcDbEntity
  8
Default
100
AcDbSpline
210
0.0
220
0.0
230
1.0
 70
    24
 71
     2
 72
     6
 73
     3
 74
     0
 42
0.000000001
 43
0.0000000001
 40
1.144473090120382
 40
1.144473090120382
 40
1.144473090120382
 40
3.293043573786101
 40
3.293043573786101
 40
3.293043573786101
 10
726.4575555393876
 20
1313.959221586042
 30
410.4821166992187
 10
742.2903107083789
 20
1291.503241918587
 30
410.4821166992187
 10
758.1230658773701
 20
1269.047262251131
 30
410.4821166992187
  0
SPLINE
  5
8EA84
330
1F
100
AcDbEntity
  8
Default
100
AcDbSpline
210
0.0
220
0.0
230
1.0
 70
    12
 71
     2
 72
     8
 73
     5
 74
     0
 42
0.000000001
 43
0.0000000001
 40
0.0
 40
0.0
 40
0.0
 40
0.197163615910639
 40
0.197163615910639
 40
0.3943272318212779
 40
0.3943272318212779
 40
0.3943272318212779
 10
758.1230658773701
 20
1269.047262251131
 30
410.4821166992187
 41
1.0
 10
759.8872780410961
 20
1267.027907679222
 30
410.4821166992187
 41
0.903610101610362
 10
759.4408139893503
 20
1264.383875286034
 30
410.4821166992187
 41
1.0
 10
758.994349937604
 20
1261.739842892845
 30
410.4821166992187
 41
0.903610101610362
 10
756.6631669593143
 20
1260.410782430758
 30
410.4821166992187
 41
1.0
  0
SPLINE
  5
8EA85
330
1F
100
AcDbEntity
  8
Default
100
AcDbSpline
210
0.0
220
0.0
230
1.0
 70
    12
 71
     2
 72
     6
 73
     3
 74
     0
 42
0.000000001
 43
0.0000000001
 40
0.0
 40
0.0
 40
0.0
 40
0.3210187875113308
 40
0.3210187875113308
 40
0.3210187875113308
 10
756.6631669593143
 20
1260.410782430758
 30
410.4821166992187
 41
1.0
 10
752.2722297289269
 20
1257.994814796014
 30
410.4821166992187
 41
0.742740032477747
 10
749.4166222813774
 20
1262.110999115042
 30
410.4821166992187
 41
1.0
  0
SPLINE
  5
8EA86
330
1F
100
AcDbEntity
  8
Default
100
AcDbSpline
210
0.0
220
0.0
230
1.0
 70
    24
 71
     2
 72
     6
 73
     3
 74
     0
 42
0.000000001
 43
0.0000000001
 40
0.0
 40
0.0
 40
0.0
 40
2.103704346881143
 40
2.103704346881143
 40
2.103704346881143
 10
749.4166222813774
 20
1262.110999115042
 30
410.4821166992187
 10
733.7922677758861
 20
1284.271428811838
 30
410.4821166992187
 10
718.1679132703952
 20
1306.431858508634
 30
410.4821166992187
  0
LINE
  5
8EA87
330
1F
100
AcDbEntity
  8
Default
100
AcDbLine
 10
726.8319986806045
 20
1294.143360090827
 30
410.4821166992187
 11
726.1225124419657
 21
1293.621662740611
 31
410.4821166992187
  0
ARC
  5
8EA88
330
1F
100
AcDbEntity
  8
Default
100
AcDbCircle
 10
725.2878998835508
 20
1294.75670037219
 30
410.4821166992187
 40
1.408860726886862
100
AcDbArc
 50
216.5632865949757
 51
306.3276799419451
  0
SPLINE
  5
8EA89
330
1F
100
AcDbEntity
  8
Default
100
AcDbSpline
210
0.0
220
0.0
230
1.0
 70
    24
 71
     2
 72
     6
 73
     3
 74
     0
 42
0.000000001
 43
0.0000000001
 40
0.0
 40
0.0
 40
0.0
 40
0.5261413565638918
 40
0.5261413565638918
 40
0.5261413565638918
 10
724.1563038589037
 20
1293.917427481666
 30
410.4821166992187
 10
720.2950461372225
 20
1299.393767200404
 30
410.4821166992187
 10
716.4337884155411
 20
1304.870106919141
 30
410.4821166992187
  0
LINE
  5
8EA8A
330
1F
100
AcDbEntity
  8
Default
100
AcDbLine
 10
735.9143752258278
 20
1300.546385454185
 30
410.4821166992187
 11
736.6437969193062
 21
1301.039763023042
 31
410.4821166992187
  0
ARC
  5
8EA8B
330
1F
100
AcDbEntity
  8
Default
100
AcDbCircle
 10
735.8538404435376
 20
1302.207654363671
 30
410.4821166992187
 40
1.4099650411
100
AcDbArc
 50
304.0742445701259
 51
35.64663332136792
  0
SPLINE
  5
8EA8C
330
1F
100
AcDbEntity
  8
Default
100
AcDbSpline
210
0.0
220
0.0
230
1.0
 70
    24
 71
     2
 72
     6
 73
     3
 74
     0
 42
0.000000001
 43
0.0000000001
 40
0.0
 40
0.0
 40
0.0
 40
0.6042235994859217
 40
0.6042235994859217
 40
0.6042235994859217
 10
736.9996156805751
 20
1303.02936022547
 30
410.4821166992187
 10
732.5724312608622
 20
1309.308550977679
 30
410.4821166992187
 10
728.1452468411498
 20
1315.587741729888
 30
410.4821166992187
  0
SPLINE
  5
8EAD6
330
1F
100
AcDbEntity
  8
Default
100
AcDbSpline
210
0.0
220
0.0
230
1.0
 70
     8
 71
     3
 72
    12
 73
     8
 74
     0
 42
0.000000001
 43
0.0000000001
 40
-15.35241690788854
 40
-15.35241690788854
 40
-15.35241690788854
 40
-15.35241690788854
 40
-11.42846741267097
 40
-7.624448814229928
 40
-3.868777023834103
 40
-1.918304340297428
 40
0.0
 40
0.0
 40
0.0
 40
0.0
 10
1476.450484174086
 20
-268.2000042786375
 30
410.4821166992187
 10
1509.658012984877
 20
-268.1994685025992
 30
410.4821166992187
 10
1575.235886250208
 20
-280.0223196898272
 30
410.4821166992187
 10
1658.794142222937
 20
-333.476105167996
 30
410.4821166992187
 10
1704.88768380672
 20
-401.5457640454086
 30
410.4821166992187
 10
1723.533440910532
 20
-463.672341762341
 30
410.4821166992187
 10
1726.703622500165
 20
-496.4345812778819
 30
410.4821166992187
 10
1726.690144729425
 20
-512.6746489164992
 30
410.4821166992187
  0
SPLINE
  5
8EAD7
330
1F
100
AcDbEntity
  8
Default
100
AcDbSpline
210
0.0
220
0.0
230
1.0
 70
     8
 71
     3
 72
    12
 73
     8
 74
     0
 42
0.000000001
 43
0.0000000001
 40
0.0
 40
0.0
 40
0.0
 40
0.0
 40
1.918304340297428
 40
3.868777023834103
 40
7.624448814229928
 40
11.42846741267097
 40
15.35241690788854
 40
15.35241690788854
 40
15.35241690788854
 40
15.35241690788854
 10
1726.690144729425
 20
-512.6746489164992
 30
410.4821166992187
 10
1726.703622500165
 20
-528.9147165551169
 30
410.4821166992187
 10
1723.533440910532
 20
-561.6769560706574
 30
410.4821166992187
 10
1704.88768380672
 20
-623.8035337875897
 30
410.4821166992187
 10
1658.794142222937
 20
-691.8731926650028
 30
410.4821166992187
 10
1575.235886250208
 20
-745.3269781431717
 30
410.4821166992187
 10
1509.658012984877
 20
-757.1498293303997
 30
410.4821166992187
 10
1476.450484174086
 20
-757.1492935543614
 30
410.4821166992187
  0
SPLINE
  5
8EAD8
330
1F
100
AcDbEntity
  8
Default
100
AcDbSpline
210
0.0
220
0.0
230
1.0
 70
     8
 71
     3
 72
    12
 73
     8
 74
     0
 42
0.000000001
 43
0.0000000001
 40
-14.89017237659325
 40
-14.89017237659325
 40
-14.89017237659325
 40
-14.89017237659325
 40
-11.21816892444778
 40
-7.516681648226318
 40
-3.774518777477096
 40
-1.889354184169619
 40
0.0
 40
0.0
 40
0.0
 40
0.0
 10
1476.450484174086
 20
-757.1492935543614
 30
410.4821166992187
 10
1445.356660309555
 20
-757.1576263035466
 30
410.4821166992187
 10
1382.943896048186
 20
-744.2759402274104
 30
410.4821166992187
 10
1304.030601251179
 20
-689.6149912275999
 30
410.4821166992187
 10
1260.422002475485
 20
-621.9720369151417
 30
410.4821166992187
 10
1242.446416411738
 20
-560.6293471296852
 30
410.4821166992187
 10
1239.372674622849
 20
-528.6698515787528
 30
410.4821166992187
 10
1239.370951610112
 20
-512.6746489164992
 30
410.4821166992187
  0
SPLINE
  5
8EAD9
330
1F
100
AcDbEntity
  8
Default
100
AcDbSpline
210
0.0
220
0.0
230
1.0
 70
     8
 71
     3
 72
    12
 73
     8
 74
     0
 42
0.000000001
 43
0.0000000001
 40
0.0
 40
0.0
 40
0.0
 40
0.0
 40
1.889354184169619
 40
3.774518777477096
 40
7.516681648226318
 40
11.21816892444778
 40
14.89017237659325
 40
14.89017237659325
 40
14.89017237659325
 40
14.89017237659325
 10
1239.370951610112
 20
-512.6746489164992
 30
410.4821166992187
 10
1239.372674622849
 20
-496.679446254246
 30
410.4821166992187
 10
1242.446416411738
 20
-464.7199507033136
 30
410.4821166992187
 10
1260.422002475485
 20
-403.3772609178571
 30
410.4821166992187
 10
1304.030601251179
 20
-335.734306605399
 30
410.4821166992187
 10
1382.943896048186
 20
-281.0733576055885
 30
410.4821166992187
 10
1445.356660309555
 20
-268.1916715294518
 30
410.4821166992187
 10
1476.450484174086
 20
-268.2000042786375
 30
410.4821166992187
  0
SPLINE
  5
8EADA
330
1F
100
AcDbEntity
  8
Default
100
AcDbSpline
210
0.0
220
0.0
230
1.0
 70
     8
 71
     3
 72
    24
 73
    20
 74
     0
 42
0.000000001
 43
0.0000000001
 40
0.0
 40
0.0
 40
0.0
 40
0.0
 40
1.0
 40
2.0
 40
3.0
 40
4.0
 40
5.0
 40
6.0
 40
7.0
 40
8.0
 40
9.0
 40
10.0
 40
11.0
 40
12.0
 40
13.0
 40
14.0
 40
15.0
 40
16.0
 40
17.0
 40
17.0
 40
17.0
 40
17.0
 10
1515.406207648807
 20
-891.4248716863657
 30
410.4821166992187
 10
1506.582501629017
 20
-887.1722008948008
 30
410.4821166992187
 10
1489.717948048232
 20
-877.177746155249
 30
410.4821166992187
 10
1465.587897748296
 20
-860.409363101944
 30
410.4821166992187
 10
1442.620724584214
 20
-842.0950336719164
 30
410.4821166992187
 10
1419.802553227554
 20
-823.6089467290847
 30
410.4821166992187
 10
1397.114383485752
 20
-804.9576531143529
 30
410.4821166992187
 10
1374.985952881113
 20
-785.642956775769
 30
410.4821166992187
 10
1353.530600073991
 20
-765.5805990610268
 30
410.4821166992187
 10
1332.716627103579
 20
-744.8631870296911
 30
410.4821166992187
 10
1311.647078965523
 20
-724.3882869583534
 30
410.4821166992187
 10
1292.256625803327
 20
-702.2944390050142
 30
410.4821166992187
 10
1274.799373673913
 20
-678.6463721333542
 30
410.4821166992187
 10
1259.496763361675
 20
-653.5433785932358
 30
410.4821166992187
 10
1246.569232202451
 20
-627.1371548427481
 30
410.4821166992187
 10
1236.289566807452
 20
-599.5853905099105
 30
410.4821166992187
 10
1228.911637717969
 20
-571.1184925152259
 30
410.4821166992187
 10
1224.499475446446
 20
-542.0442910914801
 30
410.4821166992187
 10
1223.532320334503
 20
-522.4642657756898
 30
410.4821166992187
 10
1223.548617006923
 20
-512.674675717691
 30
410.4821166992187
  0
SPLINE
  5
8EADB
330
1F
100
AcDbEntity
  8
Default
100
AcDbSpline
210
0.0
220
0.0
230
1.0
 70
     8
 71
     3
 72
    24
 73
    20
 74
     0
 42
0.000000001
 43
0.0000000001
 40
-17.0
 40
-17.0
 40
-17.0
 40
-17.0
 40
-16.0
 40
-15.0
 40
-14.0
 40
-13.0
 40
-12.0
 40
-11.0
 40
-10.0
 40
-9.0
 40
-8.0
 40
-7.0
 40
-6.0
 40
-5.0
 40
-4.0
 40
-3.0
 40
-2.0
 40
-1.0
 40
0.0
 40
0.0
 40
0.0
 40
0.0
 10
1223.548617006923
 20
-512.674675717691
 30
410.4821166992187
 10
1223.532320334503
 20
-502.8850856596926
 30
410.4821166992187
 10
1224.499475446446
 20
-483.3050603439022
 30
410.4821166992187
 10
1228.911637717969
 20
-454.2308589201565
 30
410.4821166992187
 10
1236.289566807452
 20
-425.7639609254718
 30
410.4821166992187
 10
1246.569232202451
 20
-398.2121965926343
 30
410.4821166992187
 10
1259.496763361675
 20
-371.8059728421466
 30
410.4821166992187
 10
1274.799373673913
 20
-346.7029793020282
 30
410.4821166992187
 10
1292.256625803327
 20
-323.0549124303683
 30
410.4821166992187
 10
1311.647078965523
 20
-300.961064477029
 30
410.4821166992187
 10
1332.716627103579
 20
-280.4861644056913
 30
410.4821166992187
 10
1353.530600073991
 20
-259.7687523743556
 30
410.4821166992187
 10
1374.985952881113
 20
-239.7063946596134
 30
410.4821166992187
 10
1397.114383485752
 20
-220.3916983210296
 30
410.4821166992187
 10
1419.802553227554
 20
-201.7404047062977
 30
410.4821166992187
 10
1442.620724584214
 20
-183.254317763466
 30
410.4821166992187
 10
1465.587897748296
 20
-164.9399883334384
 30
410.4821166992187
 10
1489.717948048232
 20
-148.1716052801333
 30
410.4821166992187
 10
1506.582501629017
 20
-138.1771505405821
 30
410.4821166992187
 10
1515.406207648807
 20
-133.9244797490168
 30
410.4821166992187
  0
SPLINE
  5
8EADC
330
1F
100
AcDbEntity
  8
Default
100
AcDbSpline
210
0.0
220
0.0
230
1.0
 70
     8
 71
     3
 72
    10
 73
     6
 74
     0
 42
0.000000001
 43
0.0000000001
 40
0.0
 40
0.0
 40
0.0
 40
0.0
 40
1.0
 40
2.0
 40
3.0
 40
3.0
 40
3.0
 40
3.0
 10
1515.406207648807
 20
-133.9244797490168
 30
410.4821166992187
 10
1527.038268284651
 20
-128.2066942292157
 30
410.4821166992187
 10
1552.817336131955
 20
-122.8138173615006
 30
410.4821166992187
 10
1591.571369492113
 20
-127.9319109002816
 30
410.4821166992187
 10
1616.189000682434
 20
-135.9538994710282
 30
410.4821166992187
 10
1628.137061418652
 20
-140.8782435140427
 30
410.4821166992187
  0
SPLINE
  5
8EADD
330
1F
100
AcDbEntity
  8
Default
100
AcDbSpline
210
0.0
220
0.0
230
1.0
 70
     8
 71
     3
 72
    10
 73
     6
 74
     0
 42
0.000000001
 43
0.0000000001
 40
-3.0
 40
-3.0
 40
-3.0
 40
-3.0
 40
-2.0
 40
-1.0
 40
0.0
 40
0.0
 40
0.0
 40
0.0
 10
1628.137061418652
 20
-140.8782435140427
 30
410.4821166992187
 10
1675.897752901088
 20
-160.649378293151
 30
410.4821166992187
 10
1760.77992424916
 20
-223.2030017001319
 30
410.4821166992187
 10
1842.474397215585
 20
-357.82743764545
 30
410.4821166992187
 10
1861.179854103169
 20
-461.0678897099232
 30
410.4821166992187
 10
1860.760403676915
 20
-512.6746489164992
 30
410.4821166992187
  0
SPLINE
  5
8EADE
330
1F
100
AcDbEntity
  8
Default
100
AcDbSpline
210
0.0
220
0.0
230
1.0
 70
     8
 71
     3
 72
    10
 73
     6
 74
     0
 42
0.000000001
 43
0.0000000001
 40
0.0
 40
0.0
 40
0.0
 40
0.0
 40
1.0
 40
2.0
 40
3.0
 40
3.0
 40
3.0
 40
3.0
 10
1860.760403676915
 20
-512.6746489164992
 30
410.4821166992187
 10
1861.179854103169
 20
-564.2814081230757
 30
410.4821166992187
 10
1842.474397215585
 20
-667.5218601875489
 30
410.4821166992187
 10
1760.77992424916
 20
-802.1462961328669
 30
410.4821166992187
 10
1675.897752901088
 20
-864.6999195398478
 30
410.4821166992187
 10
1628.137061418652
 20
-884.4710543189561
 30
410.4821166992187
  0
SPLINE
  5
8EADF
330
1F
100
AcDbEntity
  8
Default
100
AcDbSpline
210
0.0
220
0.0
230
1.0
 70
     8
 71
     3
 72
    10
 73
     6
 74
     0
 42
0.000000001
 43
0.0000000001
 40
-3.0
 40
-3.0
 40
-3.0
 40
-3.0
 40
-2.0
 40
-1.0
 40
0.0
 40
0.0
 40
0.0
 40
0.0
 10
1628.137061418652
 20
-884.4710543189561
 30
410.4821166992187
 10
1616.189000682434
 20
-889.3953983619708
 30
410.4821166992187
 10
1591.571369492113
 20
-897.4173869327172
 30
410.4821166992187
 10
1552.817336131955
 20
-902.5354804714982
 30
410.4821166992187
 10
1527.038268284651
 20
-897.1426036037836
 30
410.4821166992187
 10
1515.406207648807
 20
-891.4248180839821
 30
410.4821166992187
  0
SPLINE
  5
8EAE0
330
1F
100
AcDbEntity
  8
Default
100
AcDbSpline
210
0.0
220
0.0
230
1.0
 70
     8
 71
     3
 72
    19
 73
    15
 74
     0
 42
0.000000001
 43
0.0000000001
 40
-12.0
 40
-12.0
 40
-12.0
 40
-12.0
 40
-11.0
 40
-10.0
 40
-9.0
 40
-8.0
 40
-7.0
 40
-6.0
 40
-5.0
 40
-4.0
 40
-3.0
 40
-2.0
 40
-1.0
 40
0.0
 40
0.0
 40
0.0
 40
0.0
 10
1310.199055910658
 20
-302.7780150634598
 30
410.4821166992187
 10
1326.956222125273
 20
-285.3782073038977
 30
410.4821166992187
 10
1360.58905493118
 20
-250.8739224563486
 30
410.4821166992187
 10
1411.613224079003
 20
-198.9762579982465
 30
410.4821166992187
 10
1468.830868977642
 20
-155.7008304717409
 30
410.4821166992187
 10
1529.992485517039
 20
-111.8907475112622
 30
410.4821166992187
 10
1605.326041672507
 20
-117.2917122758566
 30
410.4821166992187
 10
1671.482798866244
 20
-147.6292996504261
 30
410.4821166992187
 10
1730.638668319852
 20
-189.9660762990505
 30
410.4821166992187
 10
1780.569784671742
 20
-242.8665960600773
 30
410.4821166992187
 10
1820.645107178138
 20
-303.4948664725251
 30
410.4821166992187
 10
1850.100720997534
 20
-369.9304710803234
 30
410.4821166992187
 10
1868.390886145002
 20
-440.2596607249569
 30
410.4821166992187
 10
1872.652726465602
 20
-488.5291096659178
 30
410.4821166992187
 10
1872.664069511303
 20
-512.6746489164992
 30
410.4821166992187
  0
SPLINE
  5
8EAE1
330
1F
100
AcDbEntity
  8
Default
100
AcDbSpline
210
0.0
220
0.0
230
1.0
 70
     8
 71
     3
 72
    19
 73
    15
 74
     0
 42
0.000000001
 43
0.0000000001
 40
0.0
 40
0.0
 40
0.0
 40
0.0
 40
1.0
 40
2.0
 40
3.0
 40
4.0
 40
5.0
 40
6.0
 40
7.0
 40
8.0
 40
9.0
 40
10.0
 40
11.0
 40
12.0
 40
12.0
 40
12.0
 40
12.0
 10
1872.664069511303
 20
-512.6746489164992
 30
410.4821166992187
 10
1872.652726465602
 20
-536.820188167081
 30
410.4821166992187
 10
1868.390886145002
 20
-585.089637108042
 30
410.4821166992187
 10
1850.100720997534
 20
-655.4188267526755
 30
410.4821166992187
 10
1820.645107178138
 20
-721.8544313604732
 30
410.4821166992187
 10
1780.569784671742
 20
-782.482701772922
 30
410.4821166992187
 10
1730.638668319852
 20
-835.3832215339478
 30
410.4821166992187
 10
1671.482798866244
 20
-877.7199981825727
 30
410.4821166992187
 10
1605.326041672507
 20
-908.0575855571423
 30
410.4821166992187
 10
1529.992485517039
 20
-913.4585503217365
 30
410.4821166992187
 10
1468.830868977642
 20
-869.6484673612575
 30
410.4821166992187
 10
1411.613224079003
 20
-826.3730398347524
 30
410.4821166992187
 10
1360.58905493118
 20
-774.4753753766502
 30
410.4821166992187
 10
1326.956222125273
 20
-739.9710905291011
 30
410.4821166992187
 10
1310.199055910658
 20
-722.5712827695391
 30
410.4821166992187
  0
ARC
  5
8EAE2
330
1F
100
AcDbEntity
  8
Default
100
AcDbCircle
 10
1702.785079792946
 20
-581.0270334345753
 30
410.4821166992187
 40
455.7859007505599
100
AcDbArc
 50
136.6258777617962
 51
145.4652013669015
  0
SPLINE
  5
8EAE3
330
1F
100
AcDbEntity
  8
Default
100
AcDbSpline
210
0.0
220
0.0
230
1.0
 70
     8
 71
     3
 72
    14
 73
    10
 74
     0
 42
0.000000001
 43
0.0000000001
 40
0.0000000000000002
 40
0.0000000000000002
 40
0.0000000000000002
 40
0.0000000000000002
 40
1.0
 40
2.0
 40
3.0
 40
4.0
 40
5.0
 40
6.0
 40
7.0
 40
7.0
 40
7.0
 40
7.0
 10
1371.481181149435
 20
-268.0118356140705
 30
410.4821166992187
 10
1381.242841411491
 20
-257.6798257801351
 30
410.4821166992187
 10
1401.070437831857
 20
-237.2663713707337
 30
410.4821166992187
 10
1432.967798583434
 20
-208.9448904362192
 30
410.4821166992187
 10
1465.575319703342
 20
-181.3998155565663
 30
410.4821166992187
 10
1499.923106438084
 20
-156.1882886619509
 30
410.4821166992187
 10
1538.824182178025
 20
-137.0183333984504
 30
410.4821166992187
 10
1582.518945038359
 20
-138.1959594199646
 30
410.4821166992187
 10
1609.839247925441
 20
-146.1181757325865
 30
410.4821166992187
 10
1623.06031422816
 20
-151.4100031442798
 30
410.4821166992187
  0
ARC
  5
8EAE4
330
1F
100
AcDbEntity
  8
Default
100
AcDbCircle
 10
1702.785079792946
 20
-444.3222643984235
 30
410.4821166992187
 40
455.7859007505599
100
AcDbArc
 50
214.5347986330985
 51
223.3741222382037
  0
SPLINE
  5
8EAE5
330
1F
100
AcDbEntity
  8
Default
100
AcDbSpline
210
0.0
220
0.0
230
1.0
 70
     8
 71
     3
 72
    14
 73
    10
 74
     0
 42
0.000000001
 43
0.0000000001
 40
0.0000000000000002
 40
0.0000000000000002
 40
0.0000000000000002
 40
0.0000000000000002
 40
1.0
 40
2.0
 40
3.0
 40
4.0
 40
5.0
 40
6.0
 40
7.0
 40
7.0
 40
7.0
 40
7.0
 10
1371.481181149435
 20
-757.3374622189284
 30
410.4821166992187
 10
1381.242841411491
 20
-767.6694720528638
 30
410.4821166992187
 10
1401.070437831857
 20
-788.0829264622647
 30
410.4821166992187
 10
1432.967798583434
 20
-816.4044073967797
 30
410.4821166992187
 10
1465.575319703342
 20
-843.9494822764325
 30
410.4821166992187
 10
1499.923106438084
 20
-869.1610091710479
 30
410.4821166992187
 10
1538.824182178025
 20
-888.3309644345485
 30
410.4821166992187
 10
1582.518945038359
 20
-887.1533384130342
 30
410.4821166992187
 10
1609.839247925441
 20
-879.2311221004123
 30
410.4821166992187
 10
1623.06031422816
 20
-873.9392946887191
 30
410.4821166992187
  0
SPLINE
  5
8EAE6
330
1F
100
AcDbEntity
  8
Default
100
AcDbSpline
210
0.0
220
0.0
230
1.0
 70
    24
 71
     2
 72
     6
 73
     3
 74
     0
 42
0.000000001
 43
0.0000000001
 40
1.144412679649788
 40
1.144412679649788
 40
1.144412679649788
 40
3.293043573786101
 40
3.293043573786101
 40
3.293043573786101
 10
1313.560661896325
 20
-299.2902556172179
 30
410.4821166992187
 10
1291.104050843346
 20
-283.4570552851764
 30
410.4821166992187
 10
1268.647439790367
 20
-267.6238549531344
 30
410.4821166992187
  0
SPLINE
  5
8EAE7
330
1F
100
AcDbEntity
  8
Default
100
AcDbSpline
210
0.0
220
0.0
230
1.0
 70
    12
 71
     2
 72
     8
 73
     5
 74
     0
 42
0.000000001
 43
0.0000000001
 40
0.0
 40
0.0
 40
0.0
 40
0.197163615910639
 40
0.197163615910639
 40
0.3943272318212779
 40
0.3943272318212779
 40
0.3943272318212779
 10
1268.647439790367
 20
-267.6238549531344
 30
410.4821166992187
 41
1.0
 10
1266.628085218458
 20
-265.8596427894084
 30
410.4821166992187
 41
0.903610101610362
 10
1263.984052825269
 20
-266.3061068411542
 30
410.4821166992187
 41
1.0
 10
1261.340020432081
 20
-266.7525708929005
 30
410.4821166992187
 41
0.903610101610362
 10
1260.010959969994
 20
-269.0837538711902
 30
410.4821166992187
 41
1.0
  0
SPLINE
  5
8EAE8
330
1F
100
AcDbEntity
  8
Default
100
AcDbSpline
210
0.0
220
0.0
230
1.0
 70
    12
 71
     2
 72
     6
 73
     3
 74
     0
 42
0.000000001
 43
0.0000000001
 40
0.0
 40
0.0
 40
0.0
 40
0.3210187875113308
 40
0.3210187875113308
 40
0.3210187875113308
 10
1260.010959969994
 20
-269.0837538711902
 30
410.4821166992187
 41
1.0
 10
1257.594992335249
 20
-273.474691101578
 30
410.4821166992187
 41
0.742740032477747
 10
1261.711176654278
 20
-276.3302985491272
 30
410.4821166992187
 41
1.0
  0
SPLINE
  5
8EAE9
330
1F
100
AcDbEntity
  8
Default
100
AcDbSpline
210
0.0
220
0.0
230
1.0
 70
    24
 71
     2
 72
     6
 73
     3
 74
     0
 42
0.000000001
 43
0.0000000001
 40
0.0
 40
0.0
 40
0.0
 40
2.103763487843004
 40
2.103763487843004
 40
2.103763487843004
 10
1261.711176654278
 20
-276.3302985491272
 30
410.4821166992187
 10
1283.872229342194
 20
-291.955092298543
 30
410.4821166992187
 10
1306.03328203011
 20
-307.5798860479589
 30
410.4821166992187
  0
LINE
  5
8EAEA
330
1F
100
AcDbEntity
  8
Default
100
AcDbLine
 10
1293.743537630063
 20
-298.9149221499
 30
410.4821166992187
 11
1293.221840279846
 21
-299.6244083885389
 31
410.4821166992187
  0
ARC
  5
8EAEB
330
1F
100
AcDbEntity
  8
Default
100
AcDbCircle
 10
1294.356877911426
 20
-300.4590209469537
 30
410.4821166992187
 40
1.408860726886862
100
AcDbArc
 50
143.6723200580539
 51
233.4367134050243
  0
SPLINE
  5
8EAEC
330
1F
100
AcDbEntity
  8
Default
100
AcDbSpline
210
0.0
220
0.0
230
1.0
 70
    24
 71
     2
 72
     6
 73
     3
 74
     0
 42
0.000000001
 43
0.0000000001
 40
0.0
 40
0.0
 40
0.0
 40
0.5262007377155152
 40
0.5262007377155152
 40
0.5262007377155152
 10
1293.517605020902
 20
-301.5906169716008
 30
410.4821166992187
 10
1298.994562808064
 20
-305.4523104809795
 30
410.4821166992187
 10
1304.471520595225
 20
-309.3140039903582
 30
410.4821166992187
  0
LINE
  5
8EAED
330
1F
100
AcDbEntity
  8
Default
100
AcDbLine
 10
1300.146562993421
 20
-289.8325456046767
 30
410.4821166992187
 11
1300.639940562278
 21
-289.1031239111984
 31
410.4821166992187
  0
ARC
  5
8EAEE
330
1F
100
AcDbEntity
  8
Default
100
AcDbCircle
 10
1301.807831902907
 20
-289.893080386967
 30
410.4821166992187
 40
1.4099650411
100
AcDbArc
 50
54.35336667863208
 51
145.9257554298963
  0
SPLINE
  5
8EAEF
330
1F
100
AcDbEntity
  8
Default
100
AcDbSpline
210
0.0
220
0.0
230
1.0
 70
    24
 71
     2
 72
     6
 73
     3
 74
     0
 42
0.000000001
 43
0.0000000001
 40
0.0
 40
0.0
 40
0.0
 40
0.6042843821236103
 40
0.6042843821236103
 40
0.6042843821236103
 10
1302.629537764706
 20
-288.7473051499295
 30
410.4821166992187
 10
1308.909360180055
 20
-293.174934927862
 30
410.4821166992187
 10
1315.189182595405
 20
-297.6025647057944
 30
410.4821166992187
  0
SPLINE
  5
8EAF0
330
1F
100
AcDbEntity
  8
Default
100
AcDbSpline
210
0.0
220
0.0
230
1.0
 70
    24
 71
     2
 72
     6
 73
     3
 74
     0
 42
0.000000001
 43
0.0000000001
 40
1.144473090120382
 40
1.144473090120382
 40
1.144473090120382
 40
3.293043573786101
 40
3.293043573786101
 40
3.293043573786101
 10
1313.559399125278
 20
-726.0577330786126
 30
410.4821166992187
 10
1291.103419457823
 20
-741.8904882476039
 30
410.4821166992187
 10
1268.647439790367
 20
-757.7232434165952
 30
410.4821166992187
  0
SPLINE
  5
8EAF1
330
1F
100
AcDbEntity
  8
Default
100
AcDbSpline
210
0.0
220
0.0
230
1.0
 70
    12
 71
     2
 72
     8
 73
     5
 74
     0
 42
0.000000001
 43
0.0000000001
 40
0.0
 40
0.0
 40
0.0
 40
0.197163615910639
 40
0.197163615910639
 40
0.3943272318212779
 40
0.3943272318212779
 40
0.3943272318212779
 10
1268.647439790367
 20
-757.7232434165952
 30
410.4821166992187
 41
1.0
 10
1266.628085218458
 20
-759.4874555803211
 30
410.4821166992187
 41
0.903610101610362
 10
1263.984052825269
 20
-759.0409915285753
 30
410.4821166992187
 41
1.0
 10
1261.340020432081
 20
-758.594527476829
 30
410.4821166992187
 41
0.903610101610362
 10
1260.010959969994
 20
-756.2633444985394
 30
410.4821166992187
 41
1.0
  0
SPLINE
  5
8EAF2
330
1F
100
AcDbEntity
  8
Default
100
AcDbSpline
210
0.0
220
0.0
230
1.0
 70
    12
 71
     2
 72
     6
 73
     3
 74
     0
 42
0.000000001
 43
0.0000000001
 40
0.0
 40
0.0
 40
0.0
 40
0.3210187875113308
 40
0.3210187875113308
 40
0.3210187875113308
 10
1260.010959969994
 20
-756.2633444985394
 30
410.4821166992187
 41
1.0
 10
1257.594992335249
 20
-751.872407268152
 30
410.4821166992187
 41
0.742740032477747
 10
1261.711176654278
 20
-749.0167998206024
 30
410.4821166992187
 41
1.0
  0
SPLINE
  5
8EAF3
330
1F
100
AcDbEntity
  8
Default
100
AcDbSpline
210
0.0
220
0.0
230
1.0
 70
    24
 71
     2
 72
     6
 73
     3
 74
     0
 42
0.000000001
 43
0.0000000001
 40
0.0
 40
0.0
 40
0.0
 40
2.103704346881143
 40
2.103704346881143
 40
2.103704346881143
 10
1261.711176654278
 20
-749.0167998206024
 30
410.4821166992187
 10
1283.871606351074
 20
-733.392445315111
 30
410.4821166992187
 10
1306.03203604787
 20
-717.7680908096203
 30
410.4821166992187
  0
LINE
  5
8EAF4
330
1F
100
AcDbEntity
  8
Default
100
AcDbLine
 10
1293.743537630063
 20
-726.4321762198295
 30
410.4821166992187
 11
1293.221840279846
 21
-725.7226899811906
 31
410.4821166992187
  0
ARC
  5
8EAF5
330
1F
100
AcDbEntity
  8
Default
100
AcDbCircle
 10
1294.356877911426
 20
-724.8880774227758
 30
410.4821166992187
 40
1.408860726886862
100
AcDbArc
 50
126.5632865949757
 51
216.3276799419461
  0
SPLINE
  5
8EAF6
330
1F
100
AcDbEntity
  8
Default
100
AcDbSpline
210
0.0
220
0.0
230
1.0
 70
    24
 71
     2
 72
     6
 73
     3
 74
     0
 42
0.000000001
 43
0.0000000001
 40
0.0
 40
0.0
 40
0.0
 40
0.5261413565638918
 40
0.5261413565638918
 40
0.5261413565638918
 10
1293.517605020902
 20
-723.7564813981288
 30
410.4821166992187
 10
1298.993944739639
 20
-719.8952236764474
 30
410.4821166992187
 10
1304.470284458377
 20
-716.0339659547661
 30
410.4821166992187
  0
LINE
  5
8EAF7
330
1F
100
AcDbEntity
  8
Default
100
AcDbLine
 10
1300.146562993421
 20
-735.5145527650527
 30
410.4821166992187
 11
1300.639940562278
 21
-736.2439744585311
 31
410.4821166992187
  0
ARC
  5
8EAF8
330
1F
100
AcDbEntity
  8
Default
100
AcDbCircle
 10
1301.807831902907
 20
-735.4540179827625
 30
410.4821166992187
 40
1.4099650411
100
AcDbArc
 50
214.0742445701258
 51
305.6466333213679
  0
SPLINE
  5
8EAF9
330
1F
100
AcDbEntity
  8
Default
100
AcDbSpline
210
0.0
220
0.0
230
1.0
 70
    24
 71
     2
 72
     6
 73
     3
 74
     0
 42
0.000000001
 43
0.0000000001
 40
0.0
 40
0.0
 40
0.0
 40
0.6042235994859217
 40
0.6042235994859217
 40
0.6042235994859217
 10
1302.629537764706
 20
-736.5997932198
 30
410.4821166992187
 10
1308.908728516915
 20
-732.1726088000872
 30
410.4821166992187
 10
1315.187919269124
 20
-727.7454243803748
 30
410.4821166992187
  0
SPLINE
  5
8EAFA
330
1F
100
AcDbEntity
  8
Default
100
AcDbSpline
210
0.0
220
0.0
230
1.0
 70
     8
 71
     3
 72
    12
 73
     8
 74
     0
 42
0.000000001
 43
0.0000000001
 40
-15.35241690788854
 40
-15.35241690788854
 40
-15.35241690788854
 40
-15.35241690788854
 40
-11.42846741267097
 40
-7.624448814229928
 40
-3.868777023834103
 40
-1.918304340297428
 40
0.0
 40
0.0
 40
0.0
 40
0.0
 10
1476.450484174086
 20
268.9996492001766
 30
410.4821166992187
 10
1509.658012984877
 20
268.9991134241383
 30
410.4821166992187
 10
1575.235886250208
 20
280.8219646113663
 30
410.4821166992187
 10
1658.794142222937
 20
334.2757500895351
 30
410.4821166992187
 10
1704.88768380672
 20
402.3454089669477
 30
410.4821166992187
 10
1723.533440910532
 20
464.4719866838801
 30
410.4821166992187
 10
1726.703622500165
 20
497.2342261994209
 30
410.4821166992187
 10
1726.690144729425
 20
513.4742938380383
 30
410.4821166992187
  0
SPLINE
  5
8EAFB
330
1F
100
AcDbEntity
  8
Default
100
AcDbSpline
210
0.0
220
0.0
230
1.0
 70
     8
 71
     3
 72
    12
 73
     8
 74
     0
 42
0.000000001
 43
0.0000000001
 40
0.0
 40
0.0
 40
0.0
 40
0.0
 40
1.918304340297428
 40
3.868777023834103
 40
7.624448814229928
 40
11.42846741267097
 40
15.35241690788854
 40
15.35241690788854
 40
15.35241690788854
 40
15.35241690788854
 10
1726.690144729425
 20
513.4742938380383
 30
410.4821166992187
 10
1726.703622500165
 20
529.7143614766561
 30
410.4821166992187
 10
1723.533440910532
 20
562.4766009921964
 30
410.4821166992187
 10
1704.88768380672
 20
624.6031787091289
 30
410.4821166992187
 10
1658.794142222937
 20
692.6728375865419
 30
410.4821166992187
 10
1575.235886250208
 20
746.1266230647107
 30
410.4821166992187
 10
1509.658012984877
 20
757.9494742519387
 30
410.4821166992187
 10
1476.450484174086
 20
757.9489384759004
 30
410.4821166992187
  0
SPLINE
  5
8EAFC
330
1F
100
AcDbEntity
  8
Default
100
AcDbSpline
210
0.0
220
0.0
230
1.0
 70
     8
 71
     3
 72
    12
 73
     8
 74
     0
 42
0.000000001
 43
0.0000000001
 40
-14.89017237659325
 40
-14.89017237659325
 40
-14.89017237659325
 40
-14.89017237659325
 40
-11.21816892444778
 40
-7.516681648226318
 40
-3.774518777477096
 40
-1.889354184169619
 40
0.0
 40
0.0
 40
0.0
 40
0.0
 10
1476.450484174086
 20
757.9489384759004
 30
410.4821166992187
 10
1445.356660309555
 20
757.9572712250857
 30
410.4821166992187
 10
1382.943896048186
 20
745.0755851489494
 30
410.4821166992187
 10
1304.030601251179
 20
690.414636149139
 30
410.4821166992187
 10
1260.422002475485
 20
622.7716818366808
 30
410.4821166992187
 10
1242.446416411738
 20
561.4289920512243
 30
410.4821166992187
 10
1239.372674622849
 20
529.4694965002919
 30
410.4821166992187
 10
1239.370951610112
 20
513.4742938380383
 30
410.4821166992187
  0
SPLINE
  5
8EAFD
330
1F
100
AcDbEntity
  8
Default
100
AcDbSpline
210
0.0
220
0.0
230
1.0
 70
     8
 71
     3
 72
    12
 73
     8
 74
     0
 42
0.000000001
 43
0.0000000001
 40
0.0
 40
0.0
 40
0.0
 40
0.0
 40
1.889354184169619
 40
3.774518777477096
 40
7.516681648226318
 40
11.21816892444778
 40
14.89017237659325
 40
14.89017237659325
 40
14.89017237659325
 40
14.89017237659325
 10
1239.370951610112
 20
513.4742938380383
 30
410.4821166992187
 10
1239.372674622849
 20
497.4790911757851
 30
410.4821166992187
 10
1242.446416411738
 20
465.5195956248527
 30
410.4821166992187
 10
1260.422002475485
 20
404.1769058393962
 30
410.4821166992187
 10
1304.030601251179
 20
336.5339515269381
 30
410.4821166992187
 10
1382.943896048186
 20
281.8730025271276
 30
410.4821166992187
 10
1445.356660309555
 20
268.9913164509909
 30
410.4821166992187
 10
1476.450484174086
 20
268.9996492001766
 30
410.4821166992187
  0
SPLINE
  5
8EAFE
330
1F
100
AcDbEntity
  8
Default
100
AcDbSpline
210
0.0
220
0.0
230
1.0
 70
     8
 71
     3
 72
    24
 73
    20
 74
     0
 42
0.000000001
 43
0.0000000001
 40
0.0
 40
0.0
 40
0.0
 40
0.0
 40
1.0
 40
2.0
 40
3.0
 40
4.0
 40
5.0
 40
6.0
 40
7.0
 40
8.0
 40
9.0
 40
10.0
 40
11.0
 40
12.0
 40
13.0
 40
14.0
 40
15.0
 40
16.0
 40
17.0
 40
17.0
 40
17.0
 40
17.0
 10
1515.406207648807
 20
892.2245166079047
 30
410.4821166992187
 10
1506.582501629017
 20
887.9718458163399
 30
410.4821166992187
 10
1489.717948048232
 20
877.9773910767882
 30
410.4821166992187
 10
1465.587897748296
 20
861.209008023483
 30
410.4821166992187
 10
1442.620724584214
 20
842.8946785934554
 30
410.4821166992187
 10
1419.802553227554
 20
824.4085916506238
 30
410.4821166992187
 10
1397.114383485752
 20
805.7572980358919
 30
410.4821166992187
 10
1374.985952881113
 20
786.442601697308
 30
410.4821166992187
 10
1353.530600073991
 20
766.3802439825659
 30
410.4821166992187
 10
1332.716627103579
 20
745.6628319512303
 30
410.4821166992187
 10
1311.647078965523
 20
725.1879318798925
 30
410.4821166992187
 10
1292.256625803327
 20
703.0940839265532
 30
410.4821166992187
 10
1274.799373673913
 20
679.4460170548933
 30
410.4821166992187
 10
1259.496763361675
 20
654.3430235147749
 30
410.4821166992187
 10
1246.569232202451
 20
627.9367997642872
 30
410.4821166992187
 10
1236.289566807452
 20
600.3850354314496
 30
410.4821166992187
 10
1228.911637717969
 20
571.918137436765
 30
410.4821166992187
 10
1224.499475446446
 20
542.8439360130193
 30
410.4821166992187
 10
1223.532320334503
 20
523.2639106972288
 30
410.4821166992187
 10
1223.548617006923
 20
513.47432063923
 30
410.4821166992187
  0
SPLINE
  5
8EAFF
330
1F
100
AcDbEntity
  8
Default
100
AcDbSpline
210
0.0
220
0.0
230
1.0
 70
     8
 71
     3
 72
    24
 73
    20
 74
     0
 42
0.000000001
 43
0.0000000001
 40
-17.0
 40
-17.0
 40
-17.0
 40
-17.0
 40
-16.0
 40
-15.0
 40
-14.0
 40
-13.0
 40
-12.0
 40
-11.0
 40
-10.0
 40
-9.0
 40
-8.0
 40
-7.0
 40
-6.0
 40
-5.0
 40
-4.0
 40
-3.0
 40
-2.0
 40
-1.0
 40
0.0
 40
0.0
 40
0.0
 40
0.0
 10
1223.548617006923
 20
513.47432063923
 30
410.4821166992187
 10
1223.532320334503
 20
503.6847305812317
 30
410.4821166992187
 10
1224.499475446446
 20
484.1047052654413
 30
410.4821166992187
 10
1228.911637717969
 20
455.0305038416955
 30
410.4821166992187
 10
1236.289566807452
 20
426.563605847011
 30
410.4821166992187
 10
1246.569232202451
 20
399.0118415141734
 30
410.4821166992187
 10
1259.496763361675
 20
372.6056177636857
 30
410.4821166992187
 10
1274.799373673913
 20
347.5026242235673
 30
410.4821166992187
 10
1292.256625803327
 20
323.8545573519074
 30
410.4821166992187
 10
1311.647078965523
 20
301.7607093985681
 30
410.4821166992187
 10
1332.716627103579
 20
281.2858093272303
 30
410.4821166992187
 10
1353.530600073991
 20
260.5683972958947
 30
410.4821166992187
 10
1374.985952881113
 20
240.5060395811525
 30
410.4821166992187
 10
1397.114383485752
 20
221.1913432425687
 30
410.4821166992187
 10
1419.802553227554
 20
202.5400496278368
 30
410.4821166992187
 10
1442.620724584214
 20
184.0539626850051
 30
410.4821166992187
 10
1465.587897748296
 20
165.7396332549775
 30
410.4821166992187
 10
1489.717948048232
 20
148.9712502016724
 30
410.4821166992187
 10
1506.582501629017
 20
138.9767954621212
 30
410.4821166992187
 10
1515.406207648807
 20
134.7241246705558
 30
410.4821166992187
  0
SPLINE
  5
8EB00
330
1F
100
AcDbEntity
  8
Default
100
AcDbSpline
210
0.0
220
0.0
230
1.0
 70
     8
 71
     3
 72
    10
 73
     6
 74
     0
 42
0.000000001
 43
0.0000000001
 40
0.0
 40
0.0
 40
0.0
 40
0.0
 40
1.0
 40
2.0
 40
3.0
 40
3.0
 40
3.0
 40
3.0
 10
1515.406207648807
 20
134.7241246705558
 30
410.4821166992187
 10
1527.038268284651
 20
129.0063391507548
 30
410.4821166992187
 10
1552.817336131955
 20
123.6134622830396
 30
410.4821166992187
 10
1591.571369492113
 20
128.7315558218207
 30
410.4821166992187
 10
1616.189000682434
 20
136.7535443925673
 30
410.4821166992187
 10
1628.137061418652
 20
141.6778884355818
 30
410.4821166992187
  0
SPLINE
  5
8EB01
330
1F
100
AcDbEntity
  8
Default
100
AcDbSpline
210
0.0
220
0.0
230
1.0
 70
     8
 71
     3
 72
    10
 73
     6
 74
     0
 42
0.000000001
 43
0.0000000001
 40
-3.0
 40
-3.0
 40
-3.0
 40
-3.0
 40
-2.0
 40
-1.0
 40
0.0
 40
0.0
 40
0.0
 40
0.0
 10
1628.137061418652
 20
141.6778884355818
 30
410.4821166992187
 10
1675.897752901088
 20
161.4490232146901
 30
410.4821166992187
 10
1760.77992424916
 20
224.002646621671
 30
410.4821166992187
 10
1842.474397215585
 20
358.6270825669891
 30
410.4821166992187
 10
1861.179854103169
 20
461.8675346314622
 30
410.4821166992187
 10
1860.760403676915
 20
513.4742938380383
 30
410.4821166992187
  0
SPLINE
  5
8EB02
330
1F
100
AcDbEntity
  8
Default
100
AcDbSpline
210
0.0
220
0.0
230
1.0
 70
     8
 71
     3
 72
    10
 73
     6
 74
     0
 42
0.000000001
 43
0.0000000001
 40
0.0
 40
0.0
 40
0.0
 40
0.0
 40
1.0
 40
2.0
 40
3.0
 40
3.0
 40
3.0
 40
3.0
 10
1860.760403676915
 20
513.4742938380383
 30
410.4821166992187
 10
1861.179854103169
 20
565.0810530446148
 30
410.4821166992187
 10
1842.474397215585
 20
668.3215051090879
 30
410.4821166992187
 10
1760.77992424916
 20
802.945941054406
 30
410.4821166992187
 10
1675.897752901088
 20
865.4995644613869
 30
410.4821166992187
 10
1628.137061418652
 20
885.2706992404952
 30
410.4821166992187
  0
SPLINE
  5
8EB03
330
1F
100
AcDbEntity
  8
Default
100
AcDbSpline
210
0.0
220
0.0
230
1.0
 70
     8
 71
     3
 72
    10
 73
     6
 74
     0
 42
0.000000001
 43
0.0000000001
 40
-3.0
 40
-3.0
 40
-3.0
 40
-3.0
 40
-2.0
 40
-1.0
 40
0.0
 40
0.0
 40
0.0
 40
0.0
 10
1628.137061418652
 20
885.2706992404952
 30
410.4821166992187
 10
1616.189000682434
 20
890.1950432835098
 30
410.4821166992187
 10
1591.571369492113
 20
898.2170318542562
 30
410.4821166992187
 10
1552.817336131955
 20
903.3351253930375
 30
410.4821166992187
 10
1527.038268284651
 20
897.9422485253227
 30
410.4821166992187
 10
1515.406207648807
 20
892.2244630055212
 30
410.4821166992187
  0
SPLINE
  5
8EB04
330
1F
100
AcDbEntity
  8
Default
100
AcDbSpline
210
0.0
220
0.0
230
1.0
 70
     8
 71
     3
 72
    19
 73
    15
 74
     0
 42
0.000000001
 43
0.0000000001
 40
-12.0
 40
-12.0
 40
-12.0
 40
-12.0
 40
-11.0
 40
-10.0
 40
-9.0
 40
-8.0
 40
-7.0
 40
-6.0
 40
-5.0
 40
-4.0
 40
-3.0
 40
-2.0
 40
-1.0
 40
0.0
 40
0.0
 40
0.0
 40
0.0
 10
1310.199055910658
 20
303.5776599849989
 30
410.4821166992187
 10
1326.956222125273
 20
286.1778522254368
 30
410.4821166992187
 10
1360.58905493118
 20
251.6735673778877
 30
410.4821166992187
 10
1411.613224079003
 20
199.7759029197856
 30
410.4821166992187
 10
1468.830868977642
 20
156.50047539328
 30
410.4821166992187
 10
1529.992485517039
 20
112.6903924328013
 30
410.4821166992187
 10
1605.326041672507
 20
118.0913571973957
 30
410.4821166992187
 10
1671.482798866244
 20
148.4289445719652
 30
410.4821166992187
 10
1730.638668319852
 20
190.7657212205896
 30
410.4821166992187
 10
1780.569784671742
 20
243.6662409816164
 30
410.4821166992187
 10
1820.645107178138
 20
304.2945113940642
 30
410.4821166992187
 10
1850.100720997534
 20
370.7301160018625
 30
410.4821166992187
 10
1868.390886145002
 20
441.059305646496
 30
410.4821166992187
 10
1872.652726465602
 20
489.3287545874569
 30
410.4821166992187
 10
1872.664069511303
 20
513.4742938380383
 30
410.4821166992187
  0
SPLINE
  5
8EB05
330
1F
100
AcDbEntity
  8
Default
100
AcDbSpline
210
0.0
220
0.0
230
1.0
 70
     8
 71
     3
 72
    19
 73
    15
 74
     0
 42
0.000000001
 43
0.0000000001
 40
0.0
 40
0.0
 40
0.0
 40
0.0
 40
1.0
 40
2.0
 40
3.0
 40
4.0
 40
5.0
 40
6.0
 40
7.0
 40
8.0
 40
9.0
 40
10.0
 40
11.0
 40
12.0
 40
12.0
 40
12.0
 40
12.0
 10
1872.664069511303
 20
513.4742938380383
 30
410.4821166992187
 10
1872.652726465602
 20
537.6198330886201
 30
410.4821166992187
 10
1868.390886145002
 20
585.889282029581
 30
410.4821166992187
 10
1850.100720997534
 20
656.2184716742145
 30
410.4821166992187
 10
1820.645107178138
 20
722.6540762820124
 30
410.4821166992187
 10
1780.569784671742
 20
783.2823466944611
 30
410.4821166992187
 10
1730.638668319852
 20
836.182866455487
 30
410.4821166992187
 10
1671.482798866244
 20
878.5196431041118
 30
410.4821166992187
 10
1605.326041672507
 20
908.8572304786813
 30
410.4821166992187
 10
1529.992485517039
 20
914.2581952432758
 30
410.4821166992187
 10
1468.830868977642
 20
870.4481122827965
 30
410.4821166992187
 10
1411.613224079003
 20
827.1726847562915
 30
410.4821166992187
 10
1360.58905493118
 20
775.2750202981894
 30
410.4821166992187
 10
1326.956222125273
 20
740.7707354506402
 30
410.4821166992187
 10
1310.199055910658
 20
723.3709276910782
 30
410.4821166992187
  0
ARC
  5
8EB06
330
1F
100
AcDbEntity
  8
Default
100
AcDbCircle
 10
1702.785079792946
 20
581.8266783561145
 30
410.4821166992187
 40
455.7859007505599
100
AcDbArc
 50
214.5347986330985
 51
223.3741222382037
  0
SPLINE
  5
8EB07
330
1F
100
AcDbEntity
  8
Default
100
AcDbSpline
210
0.0
220
0.0
230
1.0
 70
     8
 71
     3
 72
    14
 73
    10
 74
     0
 42
0.000000001
 43
0.0000000001
 40
0.0000000000000002
 40
0.0000000000000002
 40
0.0000000000000002
 40
0.0000000000000002
 40
1.0
 40
2.0
 40
3.0
 40
4.0
 40
5.0
 40
6.0
 40
7.0
 40
7.0
 40
7.0
 40
7.0
 10
1371.481181149435
 20
268.8114805356096
 30
410.4821166992187
 10
1381.242841411491
 20
258.4794707016741
 30
410.4821166992187
 10
1401.070437831857
 20
238.0660162922728
 30
410.4821166992187
 10
1432.967798583434
 20
209.7445353577583
 30
410.4821166992187
 10
1465.575319703342
 20
182.1994604781053
 30
410.4821166992187
 10
1499.923106438084
 20
156.9879335834899
 30
410.4821166992187
 10
1538.824182178025
 20
137.8179783199895
 30
410.4821166992187
 10
1582.518945038359
 20
138.9956043415037
 30
410.4821166992187
 10
1609.839247925441
 20
146.9178206541256
 30
410.4821166992187
 10
1623.06031422816
 20
152.2096480658189
 30
410.4821166992187
  0
ARC
  5
8EB08
330
1F
100
AcDbEntity
  8
Default
100
AcDbCircle
 10
1702.785079792946
 20
445.1219093199625
 30
410.4821166992187
 40
455.7859007505599
100
AcDbArc
 50
136.6258777617962
 51
145.4652013669015
  0
SPLINE
  5
8EB09
330
1F
100
AcDbEntity
  8
Default
100
AcDbSpline
210
0.0
220
0.0
230
1.0
 70
     8
 71
     3
 72
    14
 73
    10
 74
     0
 42
0.000000001
 43
0.0000000001
 40
0.0000000000000002
 40
0.0000000000000002
 40
0.0000000000000002
 40
0.0000000000000002
 40
1.0
 40
2.0
 40
3.0
 40
4.0
 40
5.0
 40
6.0
 40
7.0
 40
7.0
 40
7.0
 40
7.0
 10
1371.481181149435
 20
758.1371071404674
 30
410.4821166992187
 10
1381.242841411491
 20
768.4691169744029
 30
410.4821166992187
 10
1401.070437831857
 20
788.8825713838038
 30
410.4821166992187
 10
1432.967798583434
 20
817.2040523183188
 30
410.4821166992187
 10
1465.575319703342
 20
844.7491271979716
 30
410.4821166992187
 10
1499.923106438084
 20
869.960654092587
 30
410.4821166992187
 10
1538.824182178025
 20
889.1306093560876
 30
410.4821166992187
 10
1582.518945038359
 20
887.9529833345733
 30
410.4821166992187
 10
1609.839247925441
 20
880.0307670219513
 30
410.4821166992187
 10
1623.06031422816
 20
874.7389396102581
 30
410.4821166992187
  0
SPLINE
  5
8EB0A
330
1F
100
AcDbEntity
  8
Default
100
AcDbSpline
210
0.0
220
0.0
230
1.0
 70
    24
 71
     2
 72
     6
 73
     3
 74
     0
 42
0.000000001
 43
0.0000000001
 40
1.144412679649788
 40
1.144412679649788
 40
1.144412679649788
 40
3.293043573786101
 40
3.293043573786101
 40
3.293043573786101
 10
1313.560661896325
 20
300.089900538757
 30
410.4821166992187
 10
1291.104050843346
 20
284.2567002067154
 30
410.4821166992187
 10
1268.647439790367
 20
268.4234998746735
 30
410.4821166992187
  0
SPLINE
  5
8EB0B
330
1F
100
AcDbEntity
  8
Default
100
AcDbSpline
210
0.0
220
0.0
230
1.0
 70
    12
 71
     2
 72
     8
 73
     5
 74
     0
 42
0.000000001
 43
0.0000000001
 40
0.0
 40
0.0
 40
0.0
 40
0.197163615910639
 40
0.197163615910639
 40
0.3943272318212779
 40
0.3943272318212779
 40
0.3943272318212779
 10
1268.647439790367
 20
268.4234998746735
 30
410.4821166992187
 41
1.0
 10
1266.628085218458
 20
266.6592877109475
 30
410.4821166992187
 41
0.903610101610362
 10
1263.984052825269
 20
267.1057517626933
 30
410.4821166992187
 41
1.0
 10
1261.340020432081
 20
267.5522158144396
 30
410.4821166992187
 41
0.903610101610362
 10
1260.010959969994
 20
269.8833987927293
 30
410.4821166992187
 41
1.0
  0
SPLINE
  5
8EB0C
330
1F
100
AcDbEntity
  8
Default
100
AcDbSpline
210
0.0
220
0.0
230
1.0
 70
    12
 71
     2
 72
     6
 73
     3
 74
     0
 42
0.000000001
 43
0.0000000001
 40
0.0
 40
0.0
 40
0.0
 40
0.3210187875113308
 40
0.3210187875113308
 40
0.3210187875113308
 10
1260.010959969994
 20
269.8833987927293
 30
410.4821166992187
 41
1.0
 10
1257.594992335249
 20
274.2743360231171
 30
410.4821166992187
 41
0.742740032477747
 10
1261.711176654278
 20
277.1299434706663
 30
410.4821166992187
 41
1.0
  0
SPLINE
  5
8EB0D
330
1F
100
AcDbEntity
  8
Default
100
AcDbSpline
210
0.0
220
0.0
230
1.0
 70
    24
 71
     2
 72
     6
 73
     3
 74
     0
 42
0.000000001
 43
0.0000000001
 40
0.0
 40
0.0
 40
0.0
 40
2.103763487843004
 40
2.103763487843004
 40
2.103763487843004
 10
1261.711176654278
 20
277.1299434706663
 30
410.4821166992187
 10
1283.872229342194
 20
292.7547372200821
 30
410.4821166992187
 10
1306.03328203011
 20
308.379530969498
 30
410.4821166992187
  0
LINE
  5
8EB0E
330
1F
100
AcDbEntity
  8
Default
100
AcDbLine
 10
1293.743537630063
 20
299.7145670714391
 30
410.4821166992187
 11
1293.221840279846
 21
300.424053310078
 31
410.4821166992187
  0
ARC
  5
8EB0F
330
1F
100
AcDbEntity
  8
Default
100
AcDbCircle
 10
1294.356877911426
 20
301.2586658684928
 30
410.4821166992187
 40
1.408860726886862
100
AcDbArc
 50
126.5632865949757
 51
216.3276799419461
  0
SPLINE
  5
8EB10
330
1F
100
AcDbEntity
  8
Default
100
AcDbSpline
210
0.0
220
0.0
230
1.0
 70
    24
 71
     2
 72
     6
 73
     3
 74
     0
 42
0.000000001
 43
0.0000000001
 40
0.0
 40
0.0
 40
0.0
 40
0.5262007377155152
 40
0.5262007377155152
 40
0.5262007377155152
 10
1293.517605020902
 20
302.3902618931398
 30
410.4821166992187
 10
1298.994562808064
 20
306.2519554025186
 30
410.4821166992187
 10
1304.471520595225
 20
310.1136489118973
 30
410.4821166992187
  0
LINE
  5
8EB11
330
1F
100
AcDbEntity
  8
Default
100
AcDbLine
 10
1300.146562993421
 20
290.6321905262158
 30
410.4821166992187
 11
1300.639940562278
 21
289.9027688327375
 31
410.4821166992187
  0
ARC
  5
8EB12
330
1F
100
AcDbEntity
  8
Default
100
AcDbCircle
 10
1301.807831902907
 20
290.692725308506
 30
410.4821166992187
 40
1.4099650411
100
AcDbArc
 50
214.0742445701037
 51
305.6466333213679
  0
SPLINE
  5
8EB13
330
1F
100
AcDbEntity
  8
Default
100
AcDbSpline
210
0.0
220
0.0
230
1.0
 70
    24
 71
     2
 72
     6
 73
     3
 74
     0
 42
0.000000001
 43
0.0000000001
 40
0.0
 40
0.0
 40
0.0
 40
0.6042843821236103
 40
0.6042843821236103
 40
0.6042843821236103
 10
1302.629537764706
 20
289.5469500714686
 30
410.4821166992187
 10
1308.909360180055
 20
293.974579849401
 30
410.4821166992187
 10
1315.189182595405
 20
298.4022096273335
 30
410.4821166992187
  0
SPLINE
  5
8EB14
330
1F
100
AcDbEntity
  8
Default
100
AcDbSpline
210
0.0
220
0.0
230
1.0
 70
    24
 71
     2
 72
     6
 73
     3
 74
     0
 42
0.000000001
 43
0.0000000001
 40
1.144473090120382
 40
1.144473090120382
 40
1.144473090120382
 40
3.293043573786101
 40
3.293043573786101
 40
3.293043573786101
 10
1313.559399125278
 20
726.8573780001517
 30
410.4821166992187
 10
1291.103419457823
 20
742.6901331691429
 30
410.4821166992187
 10
1268.647439790367
 20
758.5228883381343
 30
410.4821166992187
  0
SPLINE
  5
8EB15
330
1F
100
AcDbEntity
  8
Default
100
AcDbSpline
210
0.0
220
0.0
230
1.0
 70
    12
 71
     2
 72
     8
 73
     5
 74
     0
 42
0.000000001
 43
0.0000000001
 40
0.0
 40
0.0
 40
0.0
 40
0.197163615910639
 40
0.197163615910639
 40
0.3943272318212779
 40
0.3943272318212779
 40
0.3943272318212779
 10
1268.647439790367
 20
758.5228883381343
 30
410.4821166992187
 41
1.0
 10
1266.628085218458
 20
760.2871005018601
 30
410.4821166992187
 41
0.903610101610362
 10
1263.984052825269
 20
759.8406364501144
 30
410.4821166992187
 41
1.0
 10
1261.340020432081
 20
759.394172398368
 30
410.4821166992187
 41
0.903610101610362
 10
1260.010959969994
 20
757.0629894200784
 30
410.4821166992187
 41
1.0
  0
SPLINE
  5
8EB16
330
1F
100
AcDbEntity
  8
Default
100
AcDbSpline
210
0.0
220
0.0
230
1.0
 70
    12
 71
     2
 72
     6
 73
     3
 74
     0
 42
0.000000001
 43
0.0000000001
 40
0.0
 40
0.0
 40
0.0
 40
0.3210187875113308
 40
0.3210187875113308
 40
0.3210187875113308
 10
1260.010959969994
 20
757.0629894200784
 30
410.4821166992187
 41
1.0
 10
1257.594992335249
 20
752.6720521896911
 30
410.4821166992187
 41
0.742740032477747
 10
1261.711176654278
 20
749.8164447421414
 30
410.4821166992187
 41
1.0
  0
SPLINE
  5
8EB17
330
1F
100
AcDbEntity
  8
Default
100
AcDbSpline
210
0.0
220
0.0
230
1.0
 70
    24
 71
     2
 72
     6
 73
     3
 74
     0
 42
0.000000001
 43
0.0000000001
 40
0.0
 40
0.0
 40
0.0
 40
2.103704346881143
 40
2.103704346881143
 40
2.103704346881143
 10
1261.711176654278
 20
749.8164447421414
 30
410.4821166992187
 10
1283.871606351074
 20
734.1920902366502
 30
410.4821166992187
 10
1306.03203604787
 20
718.5677357311593
 30
410.4821166992187
  0
LINE
  5
8EB18
330
1F
100
AcDbEntity
  8
Default
100
AcDbLine
 10
1293.743537630063
 20
727.2318211413686
 30
410.4821166992187
 11
1293.221840279846
 21
726.5223349027297
 31
410.4821166992187
  0
ARC
  5
8EB19
330
1F
100
AcDbEntity
  8
Default
100
AcDbCircle
 10
1294.356877911426
 20
725.6877223443149
 30
410.4821166992187
 40
1.408860726886862
100
AcDbArc
 50
143.6723200580539
 51
233.4367134050243
  0
SPLINE
  5
8EB1A
330
1F
100
AcDbEntity
  8
Default
100
AcDbSpline
210
0.0
220
0.0
230
1.0
 70
    24
 71
     2
 72
     6
 73
     3
 74
     0
 42
0.000000001
 43
0.0000000001
 40
0.0
 40
0.0
 40
0.0
 40
0.5261413565638918
 40
0.5261413565638918
 40
0.5261413565638918
 10
1293.517605020902
 20
724.5561263196679
 30
410.4821166992187
 10
1298.993944739639
 20
720.6948685979865
 30
410.4821166992187
 10
1304.470284458377
 20
716.8336108763051
 30
410.4821166992187
  0
LINE
  5
8EB1B
330
1F
100
AcDbEntity
  8
Default
100
AcDbLine
 10
1300.146562993421
 20
736.3141976865919
 30
410.4821166992187
 11
1300.639940562278
 21
737.0436193800702
 31
410.4821166992187
  0
ARC
  5
8EB1C
330
1F
100
AcDbEntity
  8
Default
100
AcDbCircle
 10
1301.807831902907
 20
736.2536629043017
 30
410.4821166992187
 40
1.4099650411
100
AcDbArc
 50
54.35336667863208
 51
145.9257554298741
  0
SPLINE
  5
8EB1D
330
1F
100
AcDbEntity
  8
Default
100
AcDbSpline
210
0.0
220
0.0
230
1.0
 70
    24
 71
     2
 72
     6
 73
     3
 74
     0
 42
0.000000001
 43
0.0000000001
 40
0.0
 40
0.0
 40
0.0
 40
0.6042235994859217
 40
0.6042235994859217
 40
0.6042235994859217
 10
1302.629537764706
 20
737.3994381413391
 30
410.4821166992187
 10
1308.908728516915
 20
732.9722537216262
 30
410.4821166992187
 10
1315.187919269124
 20
728.5450693019139
 30
410.4821166992187
  0
SPLINE
  5
8EB66
330
1F
100
AcDbEntity
  8
Default
100
AcDbSpline
210
0.0
220
0.0
230
1.0
 70
     8
 71
     3
 72
    12
 73
     8
 74
     0
 42
0.000000001
 43
0.0000000001
 40
-15.35241690788854
 40
-15.35241690788854
 40
-15.35241690788854
 40
-15.35241690788854
 40
-11.42846741267097
 40
-7.624448814229928
 40
-3.868777023834103
 40
-1.918304340297428
 40
0.0
 40
0.0
 40
0.0
 40
0.0
 10
-1476.450484174075
 20
-268.2000042786375
 30
410.4821166992187
 10
-1509.658012984866
 20
-268.1994685025992
 30
410.4821166992187
 10
-1575.235886250197
 20
-280.0223196898272
 30
410.4821166992187
 10
-1658.794142222927
 20
-333.476105167996
 30
410.4821166992187
 10
-1704.887683806709
 20
-401.5457640454086
 30
410.4821166992187
 10
-1723.533440910522
 20
-463.672341762341
 30
410.4821166992187
 10
-1726.703622500155
 20
-496.4345812778819
 30
410.4821166992187
 10
-1726.690144729414
 20
-512.6746489164992
 30
410.4821166992187
  0
SPLINE
  5
8EB67
330
1F
100
AcDbEntity
  8
Default
100
AcDbSpline
210
0.0
220
0.0
230
1.0
 70
     8
 71
     3
 72
    12
 73
     8
 74
     0
 42
0.000000001
 43
0.0000000001
 40
0.0
 40
0.0
 40
0.0
 40
0.0
 40
1.918304340297428
 40
3.868777023834103
 40
7.624448814229928
 40
11.42846741267097
 40
15.35241690788854
 40
15.35241690788854
 40
15.35241690788854
 40
15.35241690788854
 10
-1726.690144729414
 20
-512.6746489164992
 30
410.4821166992187
 10
-1726.703622500155
 20
-528.9147165551169
 30
410.4821166992187
 10
-1723.533440910522
 20
-561.6769560706574
 30
410.4821166992187
 10
-1704.887683806709
 20
-623.8035337875897
 30
410.4821166992187
 10
-1658.794142222927
 20
-691.8731926650028
 30
410.4821166992187
 10
-1575.235886250197
 20
-745.3269781431717
 30
410.4821166992187
 10
-1509.658012984866
 20
-757.1498293303997
 30
410.4821166992187
 10
-1476.450484174075
 20
-757.1492935543614
 30
410.4821166992187
  0
SPLINE
  5
8EB68
330
1F
100
AcDbEntity
  8
Default
100
AcDbSpline
210
0.0
220
0.0
230
1.0
 70
     8
 71
     3
 72
    12
 73
     8
 74
     0
 42
0.000000001
 43
0.0000000001
 40
-14.89017237659325
 40
-14.89017237659325
 40
-14.89017237659325
 40
-14.89017237659325
 40
-11.21816892444778
 40
-7.516681648226318
 40
-3.774518777477096
 40
-1.889354184169619
 40
0.0
 40
0.0
 40
0.0
 40
0.0
 10
-1476.450484174075
 20
-757.1492935543614
 30
410.4821166992187
 10
-1445.356660309544
 20
-757.1576263035466
 30
410.4821166992187
 10
-1382.943896048175
 20
-744.2759402274104
 30
410.4821166992187
 10
-1304.030601251168
 20
-689.6149912275999
 30
410.4821166992187
 10
-1260.422002475474
 20
-621.9720369151417
 30
410.4821166992187
 10
-1242.446416411727
 20
-560.6293471296852
 30
410.4821166992187
 10
-1239.372674622838
 20
-528.6698515787528
 30
410.4821166992187
 10
-1239.370951610101
 20
-512.6746489164992
 30
410.4821166992187
  0
SPLINE
  5
8EB69
330
1F
100
AcDbEntity
  8
Default
100
AcDbSpline
210
0.0
220
0.0
230
1.0
 70
     8
 71
     3
 72
    12
 73
     8
 74
     0
 42
0.000000001
 43
0.0000000001
 40
0.0
 40
0.0
 40
0.0
 40
0.0
 40
1.889354184169619
 40
3.774518777477096
 40
7.516681648226318
 40
11.21816892444778
 40
14.89017237659325
 40
14.89017237659325
 40
14.89017237659325
 40
14.89017237659325
 10
-1239.370951610101
 20
-512.6746489164992
 30
410.4821166992187
 10
-1239.372674622838
 20
-496.679446254246
 30
410.4821166992187
 10
-1242.446416411727
 20
-464.7199507033136
 30
410.4821166992187
 10
-1260.422002475474
 20
-403.3772609178571
 30
410.4821166992187
 10
-1304.030601251168
 20
-335.734306605399
 30
410.4821166992187
 10
-1382.943896048175
 20
-281.0733576055885
 30
410.4821166992187
 10
-1445.356660309544
 20
-268.1916715294518
 30
410.4821166992187
 10
-1476.450484174075
 20
-268.2000042786375
 30
410.4821166992187
  0
SPLINE
  5
8EB6A
330
1F
100
AcDbEntity
  8
Default
100
AcDbSpline
210
0.0
220
0.0
230
1.0
 70
     8
 71
     3
 72
    24
 73
    20
 74
     0
 42
0.000000001
 43
0.0000000001
 40
0.0
 40
0.0
 40
0.0
 40
0.0
 40
1.0
 40
2.0
 40
3.0
 40
4.0
 40
5.0
 40
6.0
 40
7.0
 40
8.0
 40
9.0
 40
10.0
 40
11.0
 40
12.0
 40
13.0
 40
14.0
 40
15.0
 40
16.0
 40
17.0
 40
17.0
 40
17.0
 40
17.0
 10
-1515.406207648796
 20
-891.4248716863657
 30
410.4821166992187
 10
-1506.582501629006
 20
-887.1722008948008
 30
410.4821166992187
 10
-1489.717948048221
 20
-877.177746155249
 30
410.4821166992187
 10
-1465.587897748285
 20
-860.409363101944
 30
410.4821166992187
 10
-1442.620724584203
 20
-842.0950336719164
 30
410.4821166992187
 10
-1419.802553227543
 20
-823.6089467290847
 30
410.4821166992187
 10
-1397.114383485741
 20
-804.9576531143529
 30
410.4821166992187
 10
-1374.985952881102
 20
-785.642956775769
 30
410.4821166992187
 10
-1353.530600073981
 20
-765.5805990610268
 30
410.4821166992187
 10
-1332.716627103568
 20
-744.8631870296911
 30
410.4821166992187
 10
-1311.647078965513
 20
-724.3882869583534
 30
410.4821166992187
 10
-1292.256625803317
 20
-702.2944390050142
 30
410.4821166992187
 10
-1274.799373673902
 20
-678.6463721333542
 30
410.4821166992187
 10
-1259.496763361664
 20
-653.5433785932358
 30
410.4821166992187
 10
-1246.56923220244
 20
-627.1371548427481
 30
410.4821166992187
 10
-1236.289566807441
 20
-599.5853905099105
 30
410.4821166992187
 10
-1228.911637717958
 20
-571.1184925152259
 30
410.4821166992187
 10
-1224.499475446435
 20
-542.0442910914801
 30
410.4821166992187
 10
-1223.532320334492
 20
-522.4642657756898
 30
410.4821166992187
 10
-1223.548617006912
 20
-512.674675717691
 30
410.4821166992187
  0
SPLINE
  5
8EB6B
330
1F
100
AcDbEntity
  8
Default
100
AcDbSpline
210
0.0
220
0.0
230
1.0
 70
     8
 71
     3
 72
    24
 73
    20
 74
     0
 42
0.000000001
 43
0.0000000001
 40
-17.0
 40
-17.0
 40
-17.0
 40
-17.0
 40
-16.0
 40
-15.0
 40
-14.0
 40
-13.0
 40
-12.0
 40
-11.0
 40
-10.0
 40
-9.0
 40
-8.0
 40
-7.0
 40
-6.0
 40
-5.0
 40
-4.0
 40
-3.0
 40
-2.0
 40
-1.0
 40
0.0
 40
0.0
 40
0.0
 40
0.0
 10
-1223.548617006912
 20
-512.674675717691
 30
410.4821166992187
 10
-1223.532320334492
 20
-502.8850856596926
 30
410.4821166992187
 10
-1224.499475446435
 20
-483.3050603439022
 30
410.4821166992187
 10
-1228.911637717958
 20
-454.2308589201565
 30
410.4821166992187
 10
-1236.289566807441
 20
-425.7639609254718
 30
410.4821166992187
 10
-1246.56923220244
 20
-398.2121965926343
 30
410.4821166992187
 10
-1259.496763361664
 20
-371.8059728421466
 30
410.4821166992187
 10
-1274.799373673902
 20
-346.7029793020282
 30
410.4821166992187
 10
-1292.256625803317
 20
-323.0549124303683
 30
410.4821166992187
 10
-1311.647078965513
 20
-300.961064477029
 30
410.4821166992187
 10
-1332.716627103568
 20
-280.4861644056913
 30
410.4821166992187
 10
-1353.530600073981
 20
-259.7687523743556
 30
410.4821166992187
 10
-1374.985952881102
 20
-239.7063946596134
 30
410.4821166992187
 10
-1397.114383485741
 20
-220.3916983210296
 30
410.4821166992187
 10
-1419.802553227543
 20
-201.7404047062977
 30
410.4821166992187
 10
-1442.620724584203
 20
-183.254317763466
 30
410.4821166992187
 10
-1465.587897748285
 20
-164.9399883334384
 30
410.4821166992187
 10
-1489.717948048221
 20
-148.1716052801333
 30
410.4821166992187
 10
-1506.582501629006
 20
-138.1771505405821
 30
410.4821166992187
 10
-1515.406207648796
 20
-133.9244797490168
 30
410.4821166992187
  0
SPLINE
  5
8EB6C
330
1F
100
AcDbEntity
  8
Default
100
AcDbSpline
210
0.0
220
0.0
230
1.0
 70
     8
 71
     3
 72
    10
 73
     6
 74
     0
 42
0.000000001
 43
0.0000000001
 40
0.0
 40
0.0
 40
0.0
 40
0.0
 40
1.0
 40
2.0
 40
3.0
 40
3.0
 40
3.0
 40
3.0
 10
-1515.406207648796
 20
-133.9244797490168
 30
410.4821166992187
 10
-1527.03826828464
 20
-128.2066942292157
 30
410.4821166992187
 10
-1552.817336131944
 20
-122.8138173615006
 30
410.4821166992187
 10
-1591.571369492102
 20
-127.9319109002816
 30
410.4821166992187
 10
-1616.189000682423
 20
-135.9538994710282
 30
410.4821166992187
 10
-1628.137061418641
 20
-140.8782435140427
 30
410.4821166992187
  0
SPLINE
  5
8EB6D
330
1F
100
AcDbEntity
  8
Default
100
AcDbSpline
210
0.0
220
0.0
230
1.0
 70
     8
 71
     3
 72
    10
 73
     6
 74
     0
 42
0.000000001
 43
0.0000000001
 40
-3.0
 40
-3.0
 40
-3.0
 40
-3.0
 40
-2.0
 40
-1.0
 40
0.0
 40
0.0
 40
0.0
 40
0.0
 10
-1628.137061418641
 20
-140.8782435140427
 30
410.4821166992187
 10
-1675.897752901077
 20
-160.649378293151
 30
410.4821166992187
 10
-1760.779924249149
 20
-223.2030017001319
 30
410.4821166992187
 10
-1842.474397215574
 20
-357.82743764545
 30
410.4821166992187
 10
-1861.179854103158
 20
-461.0678897099232
 30
410.4821166992187
 10
-1860.760403676904
 20
-512.6746489164992
 30
410.4821166992187
  0
SPLINE
  5
8EB6E
330
1F
100
AcDbEntity
  8
Default
100
AcDbSpline
210
0.0
220
0.0
230
1.0
 70
     8
 71
     3
 72
    10
 73
     6
 74
     0
 42
0.000000001
 43
0.0000000001
 40
0.0
 40
0.0
 40
0.0
 40
0.0
 40
1.0
 40
2.0
 40
3.0
 40
3.0
 40
3.0
 40
3.0
 10
-1860.760403676904
 20
-512.6746489164992
 30
410.4821166992187
 10
-1861.179854103158
 20
-564.2814081230757
 30
410.4821166992187
 10
-1842.474397215574
 20
-667.5218601875489
 30
410.4821166992187
 10
-1760.779924249149
 20
-802.1462961328669
 30
410.4821166992187
 10
-1675.897752901077
 20
-864.6999195398478
 30
410.4821166992187
 10
-1628.137061418641
 20
-884.4710543189561
 30
410.4821166992187
  0
SPLINE
  5
8EB6F
330
1F
100
AcDbEntity
  8
Default
100
AcDbSpline
210
0.0
220
0.0
230
1.0
 70
     8
 71
     3
 72
    10
 73
     6
 74
     0
 42
0.000000001
 43
0.0000000001
 40
-3.0
 40
-3.0
 40
-3.0
 40
-3.0
 40
-2.0
 40
-1.0
 40
0.0
 40
0.0
 40
0.0
 40
0.0
 10
-1628.137061418641
 20
-884.4710543189561
 30
410.4821166992187
 10
-1616.189000682423
 20
-889.3953983619708
 30
410.4821166992187
 10
-1591.571369492102
 20
-897.4173869327172
 30
410.4821166992187
 10
-1552.817336131944
 20
-902.5354804714982
 30
410.4821166992187
 10
-1527.03826828464
 20
-897.1426036037836
 30
410.4821166992187
 10
-1515.406207648796
 20
-891.4248180839821
 30
410.4821166992187
  0
SPLINE
  5
8EB70
330
1F
100
AcDbEntity
  8
Default
100
AcDbSpline
210
0.0
220
0.0
230
1.0
 70
     8
 71
     3
 72
    19
 73
    15
 74
     0
 42
0.000000001
 43
0.0000000001
 40
-12.0
 40
-12.0
 40
-12.0
 40
-12.0
 40
-11.0
 40
-10.0
 40
-9.0
 40
-8.0
 40
-7.0
 40
-6.0
 40
-5.0
 40
-4.0
 40
-3.0
 40
-2.0
 40
-1.0
 40
0.0
 40
0.0
 40
0.0
 40
0.0
 10
-1310.199055910647
 20
-302.7780150634598
 30
410.4821166992187
 10
-1326.956222125262
 20
-285.3782073038977
 30
410.4821166992187
 10
-1360.58905493117
 20
-250.8739224563486
 30
410.4821166992187
 10
-1411.613224078992
 20
-198.9762579982465
 30
410.4821166992187
 10
-1468.83086897763
 20
-155.7008304717409
 30
410.4821166992187
 10
-1529.992485517028
 20
-111.8907475112622
 30
410.4821166992187
 10
-1605.326041672495
 20
-117.2917122758566
 30
410.4821166992187
 10
-1671.482798866233
 20
-147.6292996504261
 30
410.4821166992187
 10
-1730.638668319841
 20
-189.9660762990505
 30
410.4821166992187
 10
-1780.569784671732
 20
-242.8665960600773
 30
410.4821166992187
 10
-1820.645107178126
 20
-303.4948664725251
 30
410.4821166992187
 10
-1850.100720997523
 20
-369.9304710803234
 30
410.4821166992187
 10
-1868.390886144991
 20
-440.2596607249569
 30
410.4821166992187
 10
-1872.652726465591
 20
-488.5291096659178
 30
410.4821166992187
 10
-1872.664069511292
 20
-512.6746489164992
 30
410.4821166992187
  0
SPLINE
  5
8EB71
330
1F
100
AcDbEntity
  8
Default
100
AcDbSpline
210
0.0
220
0.0
230
1.0
 70
     8
 71
     3
 72
    19
 73
    15
 74
     0
 42
0.000000001
 43
0.0000000001
 40
0.0
 40
0.0
 40
0.0
 40
0.0
 40
1.0
 40
2.0
 40
3.0
 40
4.0
 40
5.0
 40
6.0
 40
7.0
 40
8.0
 40
9.0
 40
10.0
 40
11.0
 40
12.0
 40
12.0
 40
12.0
 40
12.0
 10
-1872.664069511292
 20
-512.6746489164992
 30
410.4821166992187
 10
-1872.652726465591
 20
-536.820188167081
 30
410.4821166992187
 10
-1868.390886144991
 20
-585.089637108042
 30
410.4821166992187
 10
-1850.100720997523
 20
-655.4188267526755
 30
410.4821166992187
 10
-1820.645107178126
 20
-721.8544313604732
 30
410.4821166992187
 10
-1780.569784671732
 20
-782.482701772922
 30
410.4821166992187
 10
-1730.638668319841
 20
-835.3832215339478
 30
410.4821166992187
 10
-1671.482798866233
 20
-877.7199981825727
 30
410.4821166992187
 10
-1605.326041672495
 20
-908.0575855571423
 30
410.4821166992187
 10
-1529.992485517028
 20
-913.4585503217365
 30
410.4821166992187
 10
-1468.83086897763
 20
-869.6484673612575
 30
410.4821166992187
 10
-1411.613224078992
 20
-826.3730398347524
 30
410.4821166992187
 10
-1360.58905493117
 20
-774.4753753766502
 30
410.4821166992187
 10
-1326.956222125262
 20
-739.9710905291011
 30
410.4821166992187
 10
-1310.199055910647
 20
-722.5712827695391
 30
410.4821166992187
  0
ARC
  5
8EB72
330
1F
100
AcDbEntity
  8
Default
100
AcDbCircle
 10
-1702.785079792935
 20
-581.0270334345753
 30
410.4821166992187
 40
455.7859007505599
100
AcDbArc
 50
34.53479863309854
 51
43.37412223820375
  0
SPLINE
  5
8EB73
330
1F
100
AcDbEntity
  8
Default
100
AcDbSpline
210
0.0
220
0.0
230
1.0
 70
     8
 71
     3
 72
    14
 73
    10
 74
     0
 42
0.000000001
 43
0.0000000001
 40
0.0000000000000002
 40
0.0000000000000002
 40
0.0000000000000002
 40
0.0000000000000002
 40
1.0
 40
2.0
 40
3.0
 40
4.0
 40
5.0
 40
6.0
 40
7.0
 40
7.0
 40
7.0
 40
7.0
 10
-1371.481181149424
 20
-268.0118356140705
 30
410.4821166992187
 10
-1381.242841411481
 20
-257.6798257801351
 30
410.4821166992187
 10
-1401.070437831846
 20
-237.2663713707337
 30
410.4821166992187
 10
-1432.967798583424
 20
-208.9448904362192
 30
410.4821166992187
 10
-1465.575319703331
 20
-181.3998155565663
 30
410.4821166992187
 10
-1499.923106438073
 20
-156.1882886619509
 30
410.4821166992187
 10
-1538.824182178014
 20
-137.0183333984504
 30
410.4821166992187
 10
-1582.518945038348
 20
-138.1959594199646
 30
410.4821166992187
 10
-1609.839247925429
 20
-146.1181757325865
 30
410.4821166992187
 10
-1623.060314228149
 20
-151.4100031442798
 30
410.4821166992187
  0
ARC
  5
8EB74
330
1F
100
AcDbEntity
  8
Default
100
AcDbCircle
 10
-1702.785079792935
 20
-444.3222643984235
 30
410.4821166992187
 40
455.7859007505599
100
AcDbArc
 50
316.6258777617963
 51
325.4652013669015
  0
SPLINE
  5
8EB75
330
1F
100
AcDbEntity
  8
Default
100
AcDbSpline
210
0.0
220
0.0
230
1.0
 70
     8
 71
     3
 72
    14
 73
    10
 74
     0
 42
0.000000001
 43
0.0000000001
 40
0.0000000000000002
 40
0.0000000000000002
 40
0.0000000000000002
 40
0.0000000000000002
 40
1.0
 40
2.0
 40
3.0
 40
4.0
 40
5.0
 40
6.0
 40
7.0
 40
7.0
 40
7.0
 40
7.0
 10
-1371.481181149424
 20
-757.3374622189284
 30
410.4821166992187
 10
-1381.242841411481
 20
-767.6694720528638
 30
410.4821166992187
 10
-1401.070437831846
 20
-788.0829264622647
 30
410.4821166992187
 10
-1432.967798583424
 20
-816.4044073967797
 30
410.4821166992187
 10
-1465.575319703331
 20
-843.9494822764325
 30
410.4821166992187
 10
-1499.923106438073
 20
-869.1610091710479
 30
410.4821166992187
 10
-1538.824182178014
 20
-888.3309644345485
 30
410.4821166992187
 10
-1582.518945038348
 20
-887.1533384130342
 30
410.4821166992187
 10
-1609.839247925429
 20
-879.2311221004123
 30
410.4821166992187
 10
-1623.060314228149
 20
-873.9392946887191
 30
410.4821166992187
  0
SPLINE
  5
8EB76
330
1F
100
AcDbEntity
  8
Default
100
AcDbSpline
210
0.0
220
0.0
230
1.0
 70
    24
 71
     2
 72
     6
 73
     3
 74
     0
 42
0.000000001
 43
0.0000000001
 40
1.144412679649788
 40
1.144412679649788
 40
1.144412679649788
 40
3.293043573786101
 40
3.293043573786101
 40
3.293043573786101
 10
-1313.560661896314
 20
-299.2902556172179
 30
410.4821166992187
 10
-1291.104050843335
 20
-283.4570552851764
 30
410.4821166992187
 10
-1268.647439790356
 20
-267.6238549531344
 30
410.4821166992187
  0
SPLINE
  5
8EB77
330
1F
100
AcDbEntity
  8
Default
100
AcDbSpline
210
0.0
220
0.0
230
1.0
 70
    12
 71
     2
 72
     8
 73
     5
 74
     0
 42
0.000000001
 43
0.0000000001
 40
0.0
 40
0.0
 40
0.0
 40
0.197163615910639
 40
0.197163615910639
 40
0.3943272318212779
 40
0.3943272318212779
 40
0.3943272318212779
 10
-1268.647439790356
 20
-267.6238549531344
 30
410.4821166992187
 41
1.0
 10
-1266.628085218447
 20
-265.8596427894084
 30
410.4821166992187
 41
0.903610101610362
 10
-1263.984052825259
 20
-266.3061068411542
 30
410.4821166992187
 41
1.0
 10
-1261.340020432071
 20
-266.7525708929005
 30
410.4821166992187
 41
0.903610101610362
 10
-1260.010959969983
 20
-269.0837538711902
 30
410.4821166992187
 41
1.0
  0
SPLINE
  5
8EB78
330
1F
100
AcDbEntity
  8
Default
100
AcDbSpline
210
0.0
220
0.0
230
1.0
 70
    12
 71
     2
 72
     6
 73
     3
 74
     0
 42
0.000000001
 43
0.0000000001
 40
0.0
 40
0.0
 40
0.0
 40
0.3210187875113308
 40
0.3210187875113308
 40
0.3210187875113308
 10
-1260.010959969983
 20
-269.0837538711902
 30
410.4821166992187
 41
1.0
 10
-1257.594992335238
 20
-273.474691101578
 30
410.4821166992187
 41
0.742740032477747
 10
-1261.711176654267
 20
-276.3302985491272
 30
410.4821166992187
 41
1.0
  0
SPLINE
  5
8EB79
330
1F
100
AcDbEntity
  8
Default
100
AcDbSpline
210
0.0
220
0.0
230
1.0
 70
    24
 71
     2
 72
     6
 73
     3
 74
     0
 42
0.000000001
 43
0.0000000001
 40
0.0
 40
0.0
 40
0.0
 40
2.103763487843004
 40
2.103763487843004
 40
2.103763487843004
 10
-1261.711176654267
 20
-276.3302985491272
 30
410.4821166992187
 10
-1283.872229342183
 20
-291.955092298543
 30
410.4821166992187
 10
-1306.033282030099
 20
-307.5798860479589
 30
410.4821166992187
  0
LINE
  5
8EB7A
330
1F
100
AcDbEntity
  8
Default
100
AcDbLine
 10
-1293.743537630052
 20
-298.9149221499
 30
410.4821166992187
 11
-1293.221840279836
 21
-299.6244083885389
 31
410.4821166992187
  0
ARC
  5
8EB7B
330
1F
100
AcDbEntity
  8
Default
100
AcDbCircle
 10
-1294.356877911415
 20
-300.4590209469537
 30
410.4821166992187
 40
1.408860726886862
100
AcDbArc
 50
306.5632865949757
 51
36.32767994194612
  0
SPLINE
  5
8EB7C
330
1F
100
AcDbEntity
  8
Default
100
AcDbSpline
210
0.0
220
0.0
230
1.0
 70
    24
 71
     2
 72
     6
 73
     3
 74
     0
 42
0.000000001
 43
0.0000000001
 40
0.0
 40
0.0
 40
0.0
 40
0.5262007377155152
 40
0.5262007377155152
 40
0.5262007377155152
 10
-1293.517605020891
 20
-301.5906169716008
 30
410.4821166992187
 10
-1298.994562808053
 20
-305.4523104809795
 30
410.4821166992187
 10
-1304.471520595214
 20
-309.3140039903582
 30
410.4821166992187
  0
LINE
  5
8EB7D
330
1F
100
AcDbEntity
  8
Default
100
AcDbLine
 10
-1300.14656299341
 20
-289.8325456046767
 30
410.4821166992187
 11
-1300.639940562267
 21
-289.1031239111984
 31
410.4821166992187
  0
ARC
  5
8EB7E
330
1F
100
AcDbEntity
  8
Default
100
AcDbCircle
 10
-1301.807831902896
 20
-289.893080386967
 30
410.4821166992187
 40
1.4099650411
100
AcDbArc
 50
34.0742445701037
 51
125.6466333213679
  0
SPLINE
  5
8EB7F
330
1F
100
AcDbEntity
  8
Default
100
AcDbSpline
210
0.0
220
0.0
230
1.0
 70
    24
 71
     2
 72
     6
 73
     3
 74
     0
 42
0.000000001
 43
0.0000000001
 40
0.0
 40
0.0
 40
0.0
 40
0.6042843821236103
 40
0.6042843821236103
 40
0.6042843821236103
 10
-1302.629537764695
 20
-288.7473051499295
 30
410.4821166992187
 10
-1308.909360180045
 20
-293.174934927862
 30
410.4821166992187
 10
-1315.189182595394
 20
-297.6025647057944
 30
410.4821166992187
  0
SPLINE
  5
8EB80
330
1F
100
AcDbEntity
  8
Default
100
AcDbSpline
210
0.0
220
0.0
230
1.0
 70
    24
 71
     2
 72
     6
 73
     3
 74
     0
 42
0.000000001
 43
0.0000000001
 40
1.144473090120382
 40
1.144473090120382
 40
1.144473090120382
 40
3.293043573786101
 40
3.293043573786101
 40
3.293043573786101
 10
-1313.559399125267
 20
-726.0577330786126
 30
410.4821166992187
 10
-1291.103419457812
 20
-741.8904882476039
 30
410.4821166992187
 10
-1268.647439790356
 20
-757.7232434165952
 30
410.4821166992187
  0
SPLINE
  5
8EB81
330
1F
100
AcDbEntity
  8
Default
100
AcDbSpline
210
0.0
220
0.0
230
1.0
 70
    12
 71
     2
 72
     8
 73
     5
 74
     0
 42
0.000000001
 43
0.0000000001
 40
0.0
 40
0.0
 40
0.0
 40
0.197163615910639
 40
0.197163615910639
 40
0.3943272318212779
 40
0.3943272318212779
 40
0.3943272318212779
 10
-1268.647439790356
 20
-757.7232434165952
 30
410.4821166992187
 41
1.0
 10
-1266.628085218447
 20
-759.4874555803211
 30
410.4821166992187
 41
0.903610101610362
 10
-1263.984052825259
 20
-759.0409915285753
 30
410.4821166992187
 41
1.0
 10
-1261.340020432071
 20
-758.594527476829
 30
410.4821166992187
 41
0.903610101610362
 10
-1260.010959969983
 20
-756.2633444985394
 30
410.4821166992187
 41
1.0
  0
SPLINE
  5
8EB82
330
1F
100
AcDbEntity
  8
Default
100
AcDbSpline
210
0.0
220
0.0
230
1.0
 70
    12
 71
     2
 72
     6
 73
     3
 74
     0
 42
0.000000001
 43
0.0000000001
 40
0.0
 40
0.0
 40
0.0
 40
0.3210187875113308
 40
0.3210187875113308
 40
0.3210187875113308
 10
-1260.010959969983
 20
-756.2633444985394
 30
410.4821166992187
 41
1.0
 10
-1257.594992335238
 20
-751.872407268152
 30
410.4821166992187
 41
0.742740032477747
 10
-1261.711176654267
 20
-749.0167998206024
 30
410.4821166992187
 41
1.0
  0
SPLINE
  5
8EB83
330
1F
100
AcDbEntity
  8
Default
100
AcDbSpline
210
0.0
220
0.0
230
1.0
 70
    24
 71
     2
 72
     6
 73
     3
 74
     0
 42
0.000000001
 43
0.0000000001
 40
0.0
 40
0.0
 40
0.0
 40
2.103704346881143
 40
2.103704346881143
 40
2.103704346881143
 10
-1261.711176654267
 20
-749.0167998206024
 30
410.4821166992187
 10
-1283.871606351063
 20
-733.392445315111
 30
410.4821166992187
 10
-1306.032036047859
 20
-717.7680908096203
 30
410.4821166992187
  0
LINE
  5
8EB84
330
1F
100
AcDbEntity
  8
Default
100
AcDbLine
 10
-1293.743537630052
 20
-726.4321762198295
 30
410.4821166992187
 11
-1293.221840279836
 21
-725.7226899811906
 31
410.4821166992187
  0
ARC
  5
8EB85
330
1F
100
AcDbEntity
  8
Default
100
AcDbCircle
 10
-1294.356877911415
 20
-724.8880774227758
 30
410.4821166992187
 40
1.408860726886862
100
AcDbArc
 50
323.6723200580539
 51
53.4367134050243
  0
SPLINE
  5
8EB86
330
1F
100
AcDbEntity
  8
Default
100
AcDbSpline
210
0.0
220
0.0
230
1.0
 70
    24
 71
     2
 72
     6
 73
     3
 74
     0
 42
0.000000001
 43
0.0000000001
 40
0.0
 40
0.0
 40
0.0
 40
0.5261413565638918
 40
0.5261413565638918
 40
0.5261413565638918
 10
-1293.517605020891
 20
-723.7564813981288
 30
410.4821166992187
 10
-1298.993944739629
 20
-719.8952236764474
 30
410.4821166992187
 10
-1304.470284458366
 20
-716.0339659547661
 30
410.4821166992187
  0
LINE
  5
8EB87
330
1F
100
AcDbEntity
  8
Default
100
AcDbLine
 10
-1300.14656299341
 20
-735.5145527650527
 30
410.4821166992187
 11
-1300.639940562267
 21
-736.2439744585311
 31
410.4821166992187
  0
ARC
  5
8EB88
330
1F
100
AcDbEntity
  8
Default
100
AcDbCircle
 10
-1301.807831902896
 20
-735.4540179827625
 30
410.4821166992187
 40
1.4099650411
100
AcDbArc
 50
234.3533666786321
 51
325.9257554298742
  0
SPLINE
  5
8EB89
330
1F
100
AcDbEntity
  8
Default
100
AcDbSpline
210
0.0
220
0.0
230
1.0
 70
    24
 71
     2
 72
     6
 73
     3
 74
     0
 42
0.000000001
 43
0.0000000001
 40
0.0
 40
0.0
 40
0.0
 40
0.6042235994859217
 40
0.6042235994859217
 40
0.6042235994859217
 10
-1302.629537764695
 20
-736.5997932198
 30
410.4821166992187
 10
-1308.908728516904
 20
-732.1726088000872
 30
410.4821166992187
 10
-1315.187919269113
 20
-727.7454243803748
 30
410.4821166992187
  0
SPLINE
  5
8EB8A
330
1F
100
AcDbEntity
  8
Default
100
AcDbSpline
210
0.0
220
0.0
230
1.0
 70
     8
 71
     3
 72
    12
 73
     8
 74
     0
 42
0.000000001
 43
0.0000000001
 40
-15.35241690788854
 40
-15.35241690788854
 40
-15.35241690788854
 40
-15.35241690788854
 40
-11.42846741267097
 40
-7.624448814229928
 40
-3.868777023834103
 40
-1.918304340297428
 40
0.0
 40
0.0
 40
0.0
 40
0.0
 10
-1476.450484174075
 20
268.9996492001766
 30
410.4821166992187
 10
-1509.658012984866
 20
268.9991134241383
 30
410.4821166992187
 10
-1575.235886250197
 20
280.8219646113663
 30
410.4821166992187
 10
-1658.794142222927
 20
334.2757500895351
 30
410.4821166992187
 10
-1704.887683806709
 20
402.3454089669477
 30
410.4821166992187
 10
-1723.533440910522
 20
464.4719866838801
 30
410.4821166992187
 10
-1726.703622500155
 20
497.2342261994209
 30
410.4821166992187
 10
-1726.690144729414
 20
513.4742938380383
 30
410.4821166992187
  0
SPLINE
  5
8EB8B
330
1F
100
AcDbEntity
  8
Default
100
AcDbSpline
210
0.0
220
0.0
230
1.0
 70
     8
 71
     3
 72
    12
 73
     8
 74
     0
 42
0.000000001
 43
0.0000000001
 40
0.0
 40
0.0
 40
0.0
 40
0.0
 40
1.918304340297428
 40
3.868777023834103
 40
7.624448814229928
 40
11.42846741267097
 40
15.35241690788854
 40
15.35241690788854
 40
15.35241690788854
 40
15.35241690788854
 10
-1726.690144729414
 20
513.4742938380383
 30
410.4821166992187
 10
-1726.703622500155
 20
529.7143614766561
 30
410.4821166992187
 10
-1723.533440910522
 20
562.4766009921964
 30
410.4821166992187
 10
-1704.887683806709
 20
624.6031787091289
 30
410.4821166992187
 10
-1658.794142222927
 20
692.6728375865419
 30
410.4821166992187
 10
-1575.235886250197
 20
746.1266230647107
 30
410.4821166992187
 10
-1509.658012984866
 20
757.9494742519387
 30
410.4821166992187
 10
-1476.450484174075
 20
757.9489384759004
 30
410.4821166992187
  0
SPLINE
  5
8EB8C
330
1F
100
AcDbEntity
  8
Default
100
AcDbSpline
210
0.0
220
0.0
230
1.0
 70
     8
 71
     3
 72
    12
 73
     8
 74
     0
 42
0.000000001
 43
0.0000000001
 40
-14.89017237659325
 40
-14.89017237659325
 40
-14.89017237659325
 40
-14.89017237659325
 40
-11.21816892444778
 40
-7.516681648226318
 40
-3.774518777477096
 40
-1.889354184169619
 40
0.0
 40
0.0
 40
0.0
 40
0.0
 10
-1476.450484174075
 20
757.9489384759004
 30
410.4821166992187
 10
-1445.356660309544
 20
757.9572712250857
 30
410.4821166992187
 10
-1382.943896048175
 20
745.0755851489494
 30
410.4821166992187
 10
-1304.030601251168
 20
690.414636149139
 30
410.4821166992187
 10
-1260.422002475474
 20
622.7716818366808
 30
410.4821166992187
 10
-1242.446416411727
 20
561.4289920512243
 30
410.4821166992187
 10
-1239.372674622838
 20
529.4694965002919
 30
410.4821166992187
 10
-1239.370951610101
 20
513.4742938380383
 30
410.4821166992187
  0
SPLINE
  5
8EB8D
330
1F
100
AcDbEntity
  8
Default
100
AcDbSpline
210
0.0
220
0.0
230
1.0
 70
     8
 71
     3
 72
    12
 73
     8
 74
     0
 42
0.000000001
 43
0.0000000001
 40
0.0
 40
0.0
 40
0.0
 40
0.0
 40
1.889354184169619
 40
3.774518777477096
 40
7.516681648226318
 40
11.21816892444778
 40
14.89017237659325
 40
14.89017237659325
 40
14.89017237659325
 40
14.89017237659325
 10
-1239.370951610101
 20
513.4742938380383
 30
410.4821166992187
 10
-1239.372674622838
 20
497.4790911757851
 30
410.4821166992187
 10
-1242.446416411727
 20
465.5195956248527
 30
410.4821166992187
 10
-1260.422002475474
 20
404.1769058393962
 30
410.4821166992187
 10
-1304.030601251168
 20
336.5339515269381
 30
410.4821166992187
 10
-1382.943896048175
 20
281.8730025271276
 30
410.4821166992187
 10
-1445.356660309544
 20
268.9913164509909
 30
410.4821166992187
 10
-1476.450484174075
 20
268.9996492001766
 30
410.4821166992187
  0
SPLINE
  5
8EB8E
330
1F
100
AcDbEntity
  8
Default
100
AcDbSpline
210
0.0
220
0.0
230
1.0
 70
     8
 71
     3
 72
    24
 73
    20
 74
     0
 42
0.000000001
 43
0.0000000001
 40
0.0
 40
0.0
 40
0.0
 40
0.0
 40
1.0
 40
2.0
 40
3.0
 40
4.0
 40
5.0
 40
6.0
 40
7.0
 40
8.0
 40
9.0
 40
10.0
 40
11.0
 40
12.0
 40
13.0
 40
14.0
 40
15.0
 40
16.0
 40
17.0
 40
17.0
 40
17.0
 40
17.0
 10
-1515.406207648796
 20
892.2245166079047
 30
410.4821166992187
 10
-1506.582501629006
 20
887.9718458163399
 30
410.4821166992187
 10
-1489.717948048221
 20
877.9773910767882
 30
410.4821166992187
 10
-1465.587897748285
 20
861.209008023483
 30
410.4821166992187
 10
-1442.620724584203
 20
842.8946785934554
 30
410.4821166992187
 10
-1419.802553227543
 20
824.4085916506238
 30
410.4821166992187
 10
-1397.114383485741
 20
805.7572980358919
 30
410.4821166992187
 10
-1374.985952881102
 20
786.442601697308
 30
410.4821166992187
 10
-1353.530600073981
 20
766.3802439825659
 30
410.4821166992187
 10
-1332.716627103568
 20
745.6628319512303
 30
410.4821166992187
 10
-1311.647078965513
 20
725.1879318798925
 30
410.4821166992187
 10
-1292.256625803317
 20
703.0940839265532
 30
410.4821166992187
 10
-1274.799373673902
 20
679.4460170548933
 30
410.4821166992187
 10
-1259.496763361664
 20
654.3430235147749
 30
410.4821166992187
 10
-1246.56923220244
 20
627.9367997642872
 30
410.4821166992187
 10
-1236.289566807441
 20
600.3850354314496
 30
410.4821166992187
 10
-1228.911637717958
 20
571.918137436765
 30
410.4821166992187
 10
-1224.499475446435
 20
542.8439360130193
 30
410.4821166992187
 10
-1223.532320334492
 20
523.2639106972288
 30
410.4821166992187
 10
-1223.548617006912
 20
513.47432063923
 30
410.4821166992187
  0
SPLINE
  5
8EB8F
330
1F
100
AcDbEntity
  8
Default
100
AcDbSpline
210
0.0
220
0.0
230
1.0
 70
     8
 71
     3
 72
    24
 73
    20
 74
     0
 42
0.000000001
 43
0.0000000001
 40
-17.0
 40
-17.0
 40
-17.0
 40
-17.0
 40
-16.0
 40
-15.0
 40
-14.0
 40
-13.0
 40
-12.0
 40
-11.0
 40
-10.0
 40
-9.0
 40
-8.0
 40
-7.0
 40
-6.0
 40
-5.0
 40
-4.0
 40
-3.0
 40
-2.0
 40
-1.0
 40
0.0
 40
0.0
 40
0.0
 40
0.0
 10
-1223.548617006912
 20
513.47432063923
 30
410.4821166992187
 10
-1223.532320334492
 20
503.6847305812317
 30
410.4821166992187
 10
-1224.499475446435
 20
484.1047052654413
 30
410.4821166992187
 10
-1228.911637717958
 20
455.0305038416955
 30
410.4821166992187
 10
-1236.289566807441
 20
426.563605847011
 30
410.4821166992187
 10
-1246.56923220244
 20
399.0118415141734
 30
410.4821166992187
 10
-1259.496763361664
 20
372.6056177636857
 30
410.4821166992187
 10
-1274.799373673902
 20
347.5026242235673
 30
410.4821166992187
 10
-1292.256625803317
 20
323.8545573519074
 30
410.4821166992187
 10
-1311.647078965513
 20
301.7607093985681
 30
410.4821166992187
 10
-1332.716627103568
 20
281.2858093272303
 30
410.4821166992187
 10
-1353.530600073981
 20
260.5683972958947
 30
410.4821166992187
 10
-1374.985952881102
 20
240.5060395811525
 30
410.4821166992187
 10
-1397.114383485741
 20
221.1913432425687
 30
410.4821166992187
 10
-1419.802553227543
 20
202.5400496278368
 30
410.4821166992187
 10
-1442.620724584203
 20
184.0539626850051
 30
410.4821166992187
 10
-1465.587897748285
 20
165.7396332549775
 30
410.4821166992187
 10
-1489.717948048221
 20
148.9712502016724
 30
410.4821166992187
 10
-1506.582501629006
 20
138.9767954621212
 30
410.4821166992187
 10
-1515.406207648796
 20
134.7241246705558
 30
410.4821166992187
  0
SPLINE
  5
8EB90
330
1F
100
AcDbEntity
  8
Default
100
AcDbSpline
210
0.0
220
0.0
230
1.0
 70
     8
 71
     3
 72
    10
 73
     6
 74
     0
 42
0.000000001
 43
0.0000000001
 40
0.0
 40
0.0
 40
0.0
 40
0.0
 40
1.0
 40
2.0
 40
3.0
 40
3.0
 40
3.0
 40
3.0
 10
-1515.406207648796
 20
134.7241246705558
 30
410.4821166992187
 10
-1527.03826828464
 20
129.0063391507548
 30
410.4821166992187
 10
-1552.817336131944
 20
123.6134622830396
 30
410.4821166992187
 10
-1591.571369492102
 20
128.7315558218207
 30
410.4821166992187
 10
-1616.189000682423
 20
136.7535443925673
 30
410.4821166992187
 10
-1628.137061418641
 20
141.6778884355818
 30
410.4821166992187
  0
SPLINE
  5
8EB91
330
1F
100
AcDbEntity
  8
Default
100
AcDbSpline
210
0.0
220
0.0
230
1.0
 70
     8
 71
     3
 72
    10
 73
     6
 74
     0
 42
0.000000001
 43
0.0000000001
 40
-3.0
 40
-3.0
 40
-3.0
 40
-3.0
 40
-2.0
 40
-1.0
 40
0.0
 40
0.0
 40
0.0
 40
0.0
 10
-1628.137061418641
 20
141.6778884355818
 30
410.4821166992187
 10
-1675.897752901077
 20
161.4490232146901
 30
410.4821166992187
 10
-1760.779924249149
 20
224.002646621671
 30
410.4821166992187
 10
-1842.474397215574
 20
358.6270825669891
 30
410.4821166992187
 10
-1861.179854103158
 20
461.8675346314622
 30
410.4821166992187
 10
-1860.760403676904
 20
513.4742938380383
 30
410.4821166992187
  0
SPLINE
  5
8EB92
330
1F
100
AcDbEntity
  8
Default
100
AcDbSpline
210
0.0
220
0.0
230
1.0
 70
     8
 71
     3
 72
    10
 73
     6
 74
     0
 42
0.000000001
 43
0.0000000001
 40
0.0
 40
0.0
 40
0.0
 40
0.0
 40
1.0
 40
2.0
 40
3.0
 40
3.0
 40
3.0
 40
3.0
 10
-1860.760403676904
 20
513.4742938380383
 30
410.4821166992187
 10
-1861.179854103158
 20
565.0810530446148
 30
410.4821166992187
 10
-1842.474397215574
 20
668.3215051090879
 30
410.4821166992187
 10
-1760.779924249149
 20
802.945941054406
 30
410.4821166992187
 10
-1675.897752901077
 20
865.4995644613869
 30
410.4821166992187
 10
-1628.137061418641
 20
885.2706992404952
 30
410.4821166992187
  0
SPLINE
  5
8EB93
330
1F
100
AcDbEntity
  8
Default
100
AcDbSpline
210
0.0
220
0.0
230
1.0
 70
     8
 71
     3
 72
    10
 73
     6
 74
     0
 42
0.000000001
 43
0.0000000001
 40
-3.0
 40
-3.0
 40
-3.0
 40
-3.0
 40
-2.0
 40
-1.0
 40
0.0
 40
0.0
 40
0.0
 40
0.0
 10
-1628.137061418641
 20
885.2706992404952
 30
410.4821166992187
 10
-1616.189000682423
 20
890.1950432835098
 30
410.4821166992187
 10
-1591.571369492102
 20
898.2170318542562
 30
410.4821166992187
 10
-1552.817336131944
 20
903.3351253930375
 30
410.4821166992187
 10
-1527.03826828464
 20
897.9422485253227
 30
410.4821166992187
 10
-1515.406207648796
 20
892.2244630055212
 30
410.4821166992187
  0
SPLINE
  5
8EB94
330
1F
100
AcDbEntity
  8
Default
100
AcDbSpline
210
0.0
220
0.0
230
1.0
 70
     8
 71
     3
 72
    19
 73
    15
 74
     0
 42
0.000000001
 43
0.0000000001
 40
-12.0
 40
-12.0
 40
-12.0
 40
-12.0
 40
-11.0
 40
-10.0
 40
-9.0
 40
-8.0
 40
-7.0
 40
-6.0
 40
-5.0
 40
-4.0
 40
-3.0
 40
-2.0
 40
-1.0
 40
0.0
 40
0.0
 40
0.0
 40
0.0
 10
-1310.199055910647
 20
303.5776599849989
 30
410.4821166992187
 10
-1326.956222125262
 20
286.1778522254368
 30
410.4821166992187
 10
-1360.58905493117
 20
251.6735673778877
 30
410.4821166992187
 10
-1411.613224078992
 20
199.7759029197856
 30
410.4821166992187
 10
-1468.83086897763
 20
156.50047539328
 30
410.4821166992187
 10
-1529.992485517028
 20
112.6903924328013
 30
410.4821166992187
 10
-1605.326041672495
 20
118.0913571973957
 30
410.4821166992187
 10
-1671.482798866233
 20
148.4289445719652
 30
410.4821166992187
 10
-1730.638668319841
 20
190.7657212205896
 30
410.4821166992187
 10
-1780.569784671732
 20
243.6662409816164
 30
410.4821166992187
 10
-1820.645107178126
 20
304.2945113940642
 30
410.4821166992187
 10
-1850.100720997523
 20
370.7301160018625
 30
410.4821166992187
 10
-1868.390886144991
 20
441.059305646496
 30
410.4821166992187
 10
-1872.652726465591
 20
489.3287545874569
 30
410.4821166992187
 10
-1872.664069511292
 20
513.4742938380383
 30
410.4821166992187
  0
SPLINE
  5
8EB95
330
1F
100
AcDbEntity
  8
Default
100
AcDbSpline
210
0.0
220
0.0
230
1.0
 70
     8
 71
     3
 72
    19
 73
    15
 74
     0
 42
0.000000001
 43
0.0000000001
 40
0.0
 40
0.0
 40
0.0
 40
0.0
 40
1.0
 40
2.0
 40
3.0
 40
4.0
 40
5.0
 40
6.0
 40
7.0
 40
8.0
 40
9.0
 40
10.0
 40
11.0
 40
12.0
 40
12.0
 40
12.0
 40
12.0
 10
-1872.664069511292
 20
513.4742938380383
 30
410.4821166992187
 10
-1872.652726465591
 20
537.6198330886201
 30
410.4821166992187
 10
-1868.390886144991
 20
585.889282029581
 30
410.4821166992187
 10
-1850.100720997523
 20
656.2184716742145
 30
410.4821166992187
 10
-1820.645107178126
 20
722.6540762820124
 30
410.4821166992187
 10
-1780.569784671732
 20
783.2823466944611
 30
410.4821166992187
 10
-1730.638668319841
 20
836.182866455487
 30
410.4821166992187
 10
-1671.482798866233
 20
878.5196431041118
 30
410.4821166992187
 10
-1605.326041672495
 20
908.8572304786813
 30
410.4821166992187
 10
-1529.992485517028
 20
914.2581952432758
 30
410.4821166992187
 10
-1468.83086897763
 20
870.4481122827965
 30
410.4821166992187
 10
-1411.613224078992
 20
827.1726847562915
 30
410.4821166992187
 10
-1360.58905493117
 20
775.2750202981894
 30
410.4821166992187
 10
-1326.956222125262
 20
740.7707354506402
 30
410.4821166992187
 10
-1310.199055910647
 20
723.3709276910782
 30
410.4821166992187
  0
ARC
  5
8EB96
330
1F
100
AcDbEntity
  8
Default
100
AcDbCircle
 10
-1702.785079792935
 20
581.8266783561145
 30
410.4821166992187
 40
455.7859007505599
100
AcDbArc
 50
316.6258777617963
 51
325.4652013669015
  0
SPLINE
  5
8EB97
330
1F
100
AcDbEntity
  8
Default
100
AcDbSpline
210
0.0
220
0.0
230
1.0
 70
     8
 71
     3
 72
    14
 73
    10
 74
     0
 42
0.000000001
 43
0.0000000001
 40
0.0000000000000002
 40
0.0000000000000002
 40
0.0000000000000002
 40
0.0000000000000002
 40
1.0
 40
2.0
 40
3.0
 40
4.0
 40
5.0
 40
6.0
 40
7.0
 40
7.0
 40
7.0
 40
7.0
 10
-1371.481181149424
 20
268.8114805356096
 30
410.4821166992187
 10
-1381.242841411481
 20
258.4794707016741
 30
410.4821166992187
 10
-1401.070437831846
 20
238.0660162922728
 30
410.4821166992187
 10
-1432.967798583424
 20
209.7445353577583
 30
410.4821166992187
 10
-1465.575319703331
 20
182.1994604781053
 30
410.4821166992187
 10
-1499.923106438073
 20
156.9879335834899
 30
410.4821166992187
 10
-1538.824182178014
 20
137.8179783199895
 30
410.4821166992187
 10
-1582.518945038348
 20
138.9956043415037
 30
410.4821166992187
 10
-1609.839247925429
 20
146.9178206541256
 30
410.4821166992187
 10
-1623.060314228149
 20
152.2096480658189
 30
410.4821166992187
  0
ARC
  5
8EB98
330
1F
100
AcDbEntity
  8
Default
100
AcDbCircle
 10
-1702.785079792935
 20
445.1219093199625
 30
410.4821166992187
 40
455.7859007505599
100
AcDbArc
 50
34.53479863309854
 51
43.37412223820375
  0
SPLINE
  5
8EB99
330
1F
100
AcDbEntity
  8
Default
100
AcDbSpline
210
0.0
220
0.0
230
1.0
 70
     8
 71
     3
 72
    14
 73
    10
 74
     0
 42
0.000000001
 43
0.0000000001
 40
0.0000000000000002
 40
0.0000000000000002
 40
0.0000000000000002
 40
0.0000000000000002
 40
1.0
 40
2.0
 40
3.0
 40
4.0
 40
5.0
 40
6.0
 40
7.0
 40
7.0
 40
7.0
 40
7.0
 10
-1371.481181149424
 20
758.1371071404674
 30
410.4821166992187
 10
-1381.242841411481
 20
768.4691169744029
 30
410.4821166992187
 10
-1401.070437831846
 20
788.8825713838038
 30
410.4821166992187
 10
-1432.967798583424
 20
817.2040523183188
 30
410.4821166992187
 10
-1465.575319703331
 20
844.7491271979716
 30
410.4821166992187
 10
-1499.923106438073
 20
869.960654092587
 30
410.4821166992187
 10
-1538.824182178014
 20
889.1306093560876
 30
410.4821166992187
 10
-1582.518945038348
 20
887.9529833345733
 30
410.4821166992187
 10
-1609.839247925429
 20
880.0307670219513
 30
410.4821166992187
 10
-1623.060314228149
 20
874.7389396102581
 30
410.4821166992187
  0
SPLINE
  5
8EB9A
330
1F
100
AcDbEntity
  8
Default
100
AcDbSpline
210
0.0
220
0.0
230
1.0
 70
    24
 71
     2
 72
     6
 73
     3
 74
     0
 42
0.000000001
 43
0.0000000001
 40
1.144412679649788
 40
1.144412679649788
 40
1.144412679649788
 40
3.293043573786101
 40
3.293043573786101
 40
3.293043573786101
 10
-1313.560661896314
 20
300.089900538757
 30
410.4821166992187
 10
-1291.104050843335
 20
284.2567002067154
 30
410.4821166992187
 10
-1268.647439790356
 20
268.4234998746735
 30
410.4821166992187
  0
SPLINE
  5
8EB9B
330
1F
100
AcDbEntity
  8
Default
100
AcDbSpline
210
0.0
220
0.0
230
1.0
 70
    12
 71
     2
 72
     8
 73
     5
 74
     0
 42
0.000000001
 43
0.0000000001
 40
0.0
 40
0.0
 40
0.0
 40
0.197163615910639
 40
0.197163615910639
 40
0.3943272318212779
 40
0.3943272318212779
 40
0.3943272318212779
 10
-1268.647439790356
 20
268.4234998746735
 30
410.4821166992187
 41
1.0
 10
-1266.628085218447
 20
266.6592877109475
 30
410.4821166992187
 41
0.903610101610362
 10
-1263.984052825259
 20
267.1057517626933
 30
410.4821166992187
 41
1.0
 10
-1261.340020432071
 20
267.5522158144396
 30
410.4821166992187
 41
0.903610101610362
 10
-1260.010959969983
 20
269.8833987927293
 30
410.4821166992187
 41
1.0
  0
SPLINE
  5
8EB9C
330
1F
100
AcDbEntity
  8
Default
100
AcDbSpline
210
0.0
220
0.0
230
1.0
 70
    12
 71
     2
 72
     6
 73
     3
 74
     0
 42
0.000000001
 43
0.0000000001
 40
0.0
 40
0.0
 40
0.0
 40
0.3210187875113308
 40
0.3210187875113308
 40
0.3210187875113308
 10
-1260.010959969983
 20
269.8833987927293
 30
410.4821166992187
 41
1.0
 10
-1257.594992335238
 20
274.2743360231171
 30
410.4821166992187
 41
0.742740032477747
 10
-1261.711176654267
 20
277.1299434706663
 30
410.4821166992187
 41
1.0
  0
SPLINE
  5
8EB9D
330
1F
100
AcDbEntity
  8
Default
100
AcDbSpline
210
0.0
220
0.0
230
1.0
 70
    24
 71
     2
 72
     6
 73
     3
 74
     0
 42
0.000000001
 43
0.0000000001
 40
0.0
 40
0.0
 40
0.0
 40
2.103763487843004
 40
2.103763487843004
 40
2.103763487843004
 10
-1261.711176654267
 20
277.1299434706663
 30
410.4821166992187
 10
-1283.872229342183
 20
292.7547372200821
 30
410.4821166992187
 10
-1306.033282030099
 20
308.379530969498
 30
410.4821166992187
  0
LINE
  5
8EB9E
330
1F
100
AcDbEntity
  8
Default
100
AcDbLine
 10
-1293.743537630052
 20
299.7145670714391
 30
410.4821166992187
 11
-1293.221840279836
 21
300.424053310078
 31
410.4821166992187
  0
ARC
  5
8EB9F
330
1F
100
AcDbEntity
  8
Default
100
AcDbCircle
 10
-1294.356877911415
 20
301.2586658684928
 30
410.4821166992187
 40
1.408860726886862
100
AcDbArc
 50
323.6723200580539
 51
53.43671340502432
  0
SPLINE
  5
8EBA0
330
1F
100
AcDbEntity
  8
Default
100
AcDbSpline
210
0.0
220
0.0
230
1.0
 70
    24
 71
     2
 72
     6
 73
     3
 74
     0
 42
0.000000001
 43
0.0000000001
 40
0.0
 40
0.0
 40
0.0
 40
0.5262007377155152
 40
0.5262007377155152
 40
0.5262007377155152
 10
-1293.517605020891
 20
302.3902618931398
 30
410.4821166992187
 10
-1298.994562808053
 20
306.2519554025186
 30
410.4821166992187
 10
-1304.471520595214
 20
310.1136489118973
 30
410.4821166992187
  0
LINE
  5
8EBA1
330
1F
100
AcDbEntity
  8
Default
100
AcDbLine
 10
-1300.14656299341
 20
290.6321905262158
 30
410.4821166992187
 11
-1300.639940562267
 21
289.9027688327375
 31
410.4821166992187
  0
ARC
  5
8EBA2
330
1F
100
AcDbEntity
  8
Default
100
AcDbCircle
 10
-1301.807831902896
 20
290.692725308506
 30
410.4821166992187
 40
1.4099650411
100
AcDbArc
 50
234.3533666786321
 51
325.9257554298963
  0
SPLINE
  5
8EBA3
330
1F
100
AcDbEntity
  8
Default
100
AcDbSpline
210
0.0
220
0.0
230
1.0
 70
    24
 71
     2
 72
     6
 73
     3
 74
     0
 42
0.000000001
 43
0.0000000001
 40
0.0
 40
0.0
 40
0.0
 40
0.6042843821236103
 40
0.6042843821236103
 40
0.6042843821236103
 10
-1302.629537764695
 20
289.5469500714686
 30
410.4821166992187
 10
-1308.909360180045
 20
293.974579849401
 30
410.4821166992187
 10
-1315.189182595394
 20
298.4022096273335
 30
410.4821166992187
  0
SPLINE
  5
8EBA4
330
1F
100
AcDbEntity
  8
Default
100
AcDbSpline
210
0.0
220
0.0
230
1.0
 70
    24
 71
     2
 72
     6
 73
     3
 74
     0
 42
0.000000001
 43
0.0000000001
 40
1.144473090120382
 40
1.144473090120382
 40
1.144473090120382
 40
3.293043573786101
 40
3.293043573786101
 40
3.293043573786101
 10
-1313.559399125267
 20
726.8573780001517
 30
410.4821166992187
 10
-1291.103419457812
 20
742.6901331691429
 30
410.4821166992187
 10
-1268.647439790356
 20
758.5228883381343
 30
410.4821166992187
  0
SPLINE
  5
8EBA5
330
1F
100
AcDbEntity
  8
Default
100
AcDbSpline
210
0.0
220
0.0
230
1.0
 70
    12
 71
     2
 72
     8
 73
     5
 74
     0
 42
0.000000001
 43
0.0000000001
 40
0.0
 40
0.0
 40
0.0
 40
0.197163615910639
 40
0.197163615910639
 40
0.3943272318212779
 40
0.3943272318212779
 40
0.3943272318212779
 10
-1268.647439790356
 20
758.5228883381343
 30
410.4821166992187
 41
1.0
 10
-1266.628085218447
 20
760.2871005018601
 30
410.4821166992187
 41
0.903610101610362
 10
-1263.984052825259
 20
759.8406364501144
 30
410.4821166992187
 41
1.0
 10
-1261.340020432071
 20
759.394172398368
 30
410.4821166992187
 41
0.903610101610362
 10
-1260.010959969983
 20
757.0629894200784
 30
410.4821166992187
 41
1.0
  0
SPLINE
  5
8EBA6
330
1F
100
AcDbEntity
  8
Default
100
AcDbSpline
210
0.0
220
0.0
230
1.0
 70
    12
 71
     2
 72
     6
 73
     3
 74
     0
 42
0.000000001
 43
0.0000000001
 40
0.0
 40
0.0
 40
0.0
 40
0.3210187875113308
 40
0.3210187875113308
 40
0.3210187875113308
 10
-1260.010959969983
 20
757.0629894200784
 30
410.4821166992187
 41
1.0
 10
-1257.594992335238
 20
752.6720521896911
 30
410.4821166992187
 41
0.742740032477747
 10
-1261.711176654267
 20
749.8164447421414
 30
410.4821166992187
 41
1.0
  0
SPLINE
  5
8EBA7
330
1F
100
AcDbEntity
  8
Default
100
AcDbSpline
210
0.0
220
0.0
230
1.0
 70
    24
 71
     2
 72
     6
 73
     3
 74
     0
 42
0.000000001
 43
0.0000000001
 40
0.0
 40
0.0
 40
0.0
 40
2.103704346881143
 40
2.103704346881143
 40
2.103704346881143
 10
-1261.711176654267
 20
749.8164447421414
 30
410.4821166992187
 10
-1283.871606351063
 20
734.1920902366502
 30
410.4821166992187
 10
-1306.032036047859
 20
718.5677357311593
 30
410.4821166992187
  0
LINE
  5
8EBA8
330
1F
100
AcDbEntity
  8
Default
100
AcDbLine
 10
-1293.743537630052
 20
727.2318211413686
 30
410.4821166992187
 11
-1293.221840279836
 21
726.5223349027297
 31
410.4821166992187
  0
ARC
  5
8EBA9
330
1F
100
AcDbEntity
  8
Default
100
AcDbCircle
 10
-1294.356877911415
 20
725.6877223443149
 30
410.4821166992187
 40
1.408860726886862
100
AcDbArc
 50
306.5632865949757
 51
36.32767994194612
  0
SPLINE
  5
8EBAA
330
1F
100
AcDbEntity
  8
Default
100
AcDbSpline
210
0.0
220
0.0
230
1.0
 70
    24
 71
     2
 72
     6
 73
     3
 74
     0
 42
0.000000001
 43
0.0000000001
 40
0.0
 40
0.0
 40
0.0
 40
0.5261413565638918
 40
0.5261413565638918
 40
0.5261413565638918
 10
-1293.517605020891
 20
724.5561263196679
 30
410.4821166992187
 10
-1298.993944739629
 20
720.6948685979865
 30
410.4821166992187
 10
-1304.470284458366
 20
716.8336108763051
 30
410.4821166992187
  0
LINE
  5
8EBAB
330
1F
100
AcDbEntity
  8
Default
100
AcDbLine
 10
-1300.14656299341
 20
736.3141976865919
 30
410.4821166992187
 11
-1300.639940562267
 21
737.0436193800702
 31
410.4821166992187
  0
ARC
  5
8EBAC
330
1F
100
AcDbEntity
  8
Default
100
AcDbCircle
 10
-1301.807831902896
 20
736.2536629043017
 30
410.4821166992187
 40
1.4099650411
100
AcDbArc
 50
34.07424457012589
 51
125.6466333213679
  0
SPLINE
  5
8EBAD
330
1F
100
AcDbEntity
  8
Default
100
AcDbSpline
210
0.0
220
0.0
230
1.0
 70
    24
 71
     2
 72
     6
 73
     3
 74
     0
 42
0.000000001
 43
0.0000000001
 40
0.0
 40
0.0
 40
0.0
 40
0.6042235994859217
 40
0.6042235994859217
 40
0.6042235994859217
 10
-1302.629537764695
 20
737.3994381413391
 30
410.4821166992187
 10
-1308.908728516904
 20
732.9722537216262
 30
410.4821166992187
 10
-1315.187919269113
 20
728.5450693019139
 30
410.4821166992187
  0
SPLINE
  5
8EBAE
330
1F
100
AcDbEntity
  8
Default
100
AcDbSpline
210
0.0
220
0.0
230
1.0
 70
     8
 71
     3
 72
    12
 73
     8
 74
     0
 42
0.000000001
 43
0.0000000001
 40
-15.35241690788854
 40
-15.35241690788854
 40
-15.35241690788854
 40
-15.35241690788854
 40
-11.42846741267097
 40
-7.624448814229928
 40
-3.868777023834103
 40
-1.918304340297428
 40
0.0
 40
0.0
 40
0.0
 40
0.0
 10
-268.5998267394016
 20
-1476.05043786844
 30
410.4821166992187
 10
-268.5992909633633
 20
-1509.25796667923
 30
410.4821166992187
 10
-280.4221421505913
 20
-1574.835839944561
 30
410.4821166992187
 10
-333.8759276287601
 20
-1658.394095917291
 30
410.4821166992187
 10
-401.9455865061727
 20
-1704.487637501073
 30
410.4821166992187
 10
-464.0721642231051
 20
-1723.133394604886
 30
410.4821166992187
 10
-496.8344037386459
 20
-1726.303576194519
 30
410.4821166992187
 10
-513.0744713772632
 20
-1726.290098423778
 30
410.4821166992187
  0
SPLINE
  5
8EBAF
330
1F
100
AcDbEntity
  8
Default
100
AcDbSpline
210
0.0
220
0.0
230
1.0
 70
     8
 71
     3
 72
    12
 73
     8
 74
     0
 42
0.000000001
 43
0.0000000001
 40
0.0
 40
0.0
 40
0.0
 40
0.0
 40
1.918304340297428
 40
3.868777023834103
 40
7.624448814229928
 40
11.42846741267097
 40
15.35241690788854
 40
15.35241690788854
 40
15.35241690788854
 40
15.35241690788854
 10
-513.0744713772632
 20
-1726.290098423778
 30
410.4821166992187
 10
-529.3145390158811
 20
-1726.303576194519
 30
410.4821166992187
 10
-562.0767785314215
 20
-1723.133394604886
 30
410.4821166992187
 10
-624.2033562483539
 20
-1704.487637501073
 30
410.4821166992187
 10
-692.2730151257669
 20
-1658.394095917291
 30
410.4821166992187
 10
-745.7268006039357
 20
-1574.835839944561
 30
410.4821166992187
 10
-757.5496517911638
 20
-1509.25796667923
 30
410.4821166992187
 10
-757.5491160151255
 20
-1476.05043786844
 30
410.4821166992187
  0
SPLINE
  5
8EBB0
330
1F
100
AcDbEntity
  8
Default
100
AcDbSpline
210
0.0
220
0.0
230
1.0
 70
     8
 71
     3
 72
    12
 73
     8
 74
     0
 42
0.000000001
 43
0.0000000001
 40
-14.89017237659325
 40
-14.89017237659325
 40
-14.89017237659325
 40
-14.89017237659325
 40
-11.21816892444778
 40
-7.516681648226318
 40
-3.774518777477096
 40
-1.889354184169619
 40
0.0
 40
0.0
 40
0.0
 40
0.0
 10
-757.5491160151255
 20
-1476.05043786844
 30
410.4821166992187
 10
-757.5574487643107
 20
-1444.956614003908
 30
410.4821166992187
 10
-744.6757626881744
 20
-1382.543849742539
 30
410.4821166992187
 10
-690.014813688364
 20
-1303.630554945532
 30
410.4821166992187
 10
-622.3718593759058
 20
-1260.021956169838
 30
410.4821166992187
 10
-561.0291695904493
 20
-1242.046370106092
 30
410.4821166992187
 10
-529.0696740395169
 20
-1238.972628317203
 30
410.4821166992187
 10
-513.0744713772632
 20
-1238.970905304465
 30
410.4821166992187
  0
SPLINE
  5
8EBB1
330
1F
100
AcDbEntity
  8
Default
100
AcDbSpline
210
0.0
220
0.0
230
1.0
 70
     8
 71
     3
 72
    12
 73
     8
 74
     0
 42
0.000000001
 43
0.0000000001
 40
0.0
 40
0.0
 40
0.0
 40
0.0
 40
1.889354184169619
 40
3.774518777477096
 40
7.516681648226318
 40
11.21816892444778
 40
14.89017237659325
 40
14.89017237659325
 40
14.89017237659325
 40
14.89017237659325
 10
-513.0744713772632
 20
-1238.970905304465
 30
410.4821166992187
 10
-497.0792687150101
 20
-1238.972628317203
 30
410.4821166992187
 10
-465.1197731640777
 20
-1242.046370106092
 30
410.4821166992187
 10
-403.7770833786212
 20
-1260.021956169838
 30
410.4821166992187
 10
-336.1341290661631
 20
-1303.630554945532
 30
410.4821166992187
 10
-281.4731800663526
 20
-1382.543849742539
 30
410.4821166992187
 10
-268.5914939902159
 20
-1444.956614003908
 30
410.4821166992187
 10
-268.5998267394016
 20
-1476.05043786844
 30
410.4821166992187
  0
SPLINE
  5
8EBB2
330
1F
100
AcDbEntity
  8
Default
100
AcDbSpline
210
0.0
220
0.0
230
1.0
 70
     8
 71
     3
 72
    24
 73
    20
 74
     0
 42
0.000000001
 43
0.0000000001
 40
0.0
 40
0.0
 40
0.0
 40
0.0
 40
1.0
 40
2.0
 40
3.0
 40
4.0
 40
5.0
 40
6.0
 40
7.0
 40
8.0
 40
9.0
 40
10.0
 40
11.0
 40
12.0
 40
13.0
 40
14.0
 40
15.0
 40
16.0
 40
17.0
 40
17.0
 40
17.0
 40
17.0
 10
-891.8246941471297
 20
-1515.00616134316
 30
410.4821166992187
 10
-887.5720233555648
 20
-1506.18245532337
 30
410.4821166992187
 10
-877.5775686160132
 20
-1489.317901742585
 30
410.4821166992187
 10
-860.809185562708
 20
-1465.187851442649
 30
410.4821166992187
 10
-842.4948561326806
 20
-1442.220678278568
 30
410.4821166992187
 10
-824.0087691898489
 20
-1419.402506921907
 30
410.4821166992187
 10
-805.3574755751169
 20
-1396.714337180105
 30
410.4821166992187
 10
-786.0427792365331
 20
-1374.585906575467
 30
410.4821166992187
 10
-765.9804215217909
 20
-1353.130553768345
 30
410.4821166992187
 10
-745.2630094904552
 20
-1332.316580797932
 30
410.4821166992187
 10
-724.7881094191175
 20
-1311.247032659877
 30
410.4821166992187
 10
-702.6942614657782
 20
-1291.856579497681
 30
410.4821166992187
 10
-679.0461945941183
 20
-1274.399327368266
 30
410.4821166992187
 10
-653.9432010539999
 20
-1259.096717056028
 30
410.4821166992187
 10
-627.5369773035122
 20
-1246.169185896804
 30
410.4821166992187
 10
-599.9852129706746
 20
-1235.889520501806
 30
410.4821166992187
 10
-571.5183149759901
 20
-1228.511591412323
 30
410.4821166992187
 10
-542.4441135522442
 20
-1224.099429140799
 30
410.4821166992187
 10
-522.8640882364539
 20
-1223.132274028856
 30
410.4821166992187
 10
-513.0744981784551
 20
-1223.148570701276
 30
410.4821166992187
  0
SPLINE
  5
8EBB3
330
1F
100
AcDbEntity
  8
Default
100
AcDbSpline
210
0.0
220
0.0
230
1.0
 70
     8
 71
     3
 72
    24
 73
    20
 74
     0
 42
0.000000001
 43
0.0000000001
 40
-17.0
 40
-17.0
 40
-17.0
 40
-17.0
 40
-16.0
 40
-15.0
 40
-14.0
 40
-13.0
 40
-12.0
 40
-11.0
 40
-10.0
 40
-9.0
 40
-8.0
 40
-7.0
 40
-6.0
 40
-5.0
 40
-4.0
 40
-3.0
 40
-2.0
 40
-1.0
 40
0.0
 40
0.0
 40
0.0
 40
0.0
 10
-513.0744981784551
 20
-1223.148570701276
 30
410.4821166992187
 10
-503.2849081204567
 20
-1223.132274028856
 30
410.4821166992187
 10
-483.7048828046663
 20
-1224.099429140799
 30
410.4821166992187
 10
-454.6306813809206
 20
-1228.511591412323
 30
410.4821166992187
 10
-426.1637833862359
 20
-1235.889520501806
 30
410.4821166992187
 10
-398.6120190533984
 20
-1246.169185896804
 30
410.4821166992187
 10
-372.2057953029107
 20
-1259.096717056028
 30
410.4821166992187
 10
-347.1028017627923
 20
-1274.399327368266
 30
410.4821166992187
 10
-323.4547348911324
 20
-1291.856579497681
 30
410.4821166992187
 10
-301.3608869377931
 20
-1311.247032659877
 30
410.4821166992187
 10
-280.8859868664553
 20
-1332.316580797932
 30
410.4821166992187
 10
-260.1685748351197
 20
-1353.130553768345
 30
410.4821166992187
 10
-240.1062171203776
 20
-1374.585906575467
 30
410.4821166992187
 10
-220.7915207817937
 20
-1396.714337180105
 30
410.4821166992187
 10
-202.1402271670618
 20
-1419.402506921907
 30
410.4821166992187
 10
-183.6541402242301
 20
-1442.220678278568
 30
410.4821166992187
 10
-165.3398107942025
 20
-1465.187851442649
 30
410.4821166992187
 10
-148.5714277408974
 20
-1489.317901742585
 30
410.4821166992187
 10
-138.5769730013462
 20
-1506.18245532337
 30
410.4821166992187
 10
-134.3243022097808
 20
-1515.00616134316
 30
410.4821166992187
  0
SPLINE
  5
8EBB4
330
1F
100
AcDbEntity
  8
Default
100
AcDbSpline
210
0.0
220
0.0
230
1.0
 70
     8
 71
     3
 72
    10
 73
     6
 74
     0
 42
0.000000001
 43
0.0000000001
 40
0.0
 40
0.0
 40
0.0
 40
0.0
 40
1.0
 40
2.0
 40
3.0
 40
3.0
 40
3.0
 40
3.0
 10
-134.3243022097808
 20
-1515.00616134316
 30
410.4821166992187
 10
-128.6065166899798
 20
-1526.638221979004
 30
410.4821166992187
 10
-123.2136398222646
 20
-1552.417289826309
 30
410.4821166992187
 10
-128.3317333610457
 20
-1591.171323186466
 30
410.4821166992187
 10
-136.3537219317922
 20
-1615.788954376787
 30
410.4821166992187
 10
-141.2780659748068
 20
-1627.737015113005
 30
410.4821166992187
  0
SPLINE
  5
8EBB5
330
1F
100
AcDbEntity
  8
Default
100
AcDbSpline
210
0.0
220
0.0
230
1.0
 70
     8
 71
     3
 72
    10
 73
     6
 74
     0
 42
0.000000001
 43
0.0000000001
 40
-3.0
 40
-3.0
 40
-3.0
 40
-3.0
 40
-2.0
 40
-1.0
 40
0.0
 40
0.0
 40
0.0
 40
0.0
 10
-141.2780659748068
 20
-1627.737015113005
 30
410.4821166992187
 10
-161.0492007539151
 20
-1675.497706595441
 30
410.4821166992187
 10
-223.602824160896
 20
-1760.379877943513
 30
410.4821166992187
 10
-358.2272601062141
 20
-1842.074350909938
 30
410.4821166992187
 10
-461.4677121706872
 20
-1860.779807797522
 30
410.4821166992187
 10
-513.0744713772632
 20
-1860.360357371268
 30
410.4821166992187
  0
SPLINE
  5
8EBB6
330
1F
100
AcDbEntity
  8
Default
100
AcDbSpline
210
0.0
220
0.0
230
1.0
 70
     8
 71
     3
 72
    10
 73
     6
 74
     0
 42
0.000000001
 43
0.0000000001
 40
0.0
 40
0.0
 40
0.0
 40
0.0
 40
1.0
 40
2.0
 40
3.0
 40
3.0
 40
3.0
 40
3.0
 10
-513.0744713772632
 20
-1860.360357371268
 30
410.4821166992187
 10
-564.6812305838397
 20
-1860.779807797522
 30
410.4821166992187
 10
-667.921682648313
 20
-1842.074350909938
 30
410.4821166992187
 10
-802.5461185936309
 20
-1760.379877943513
 30
410.4821166992187
 10
-865.0997420006119
 20
-1675.497706595441
 30
410.4821166992187
 10
-884.8708767797202
 20
-1627.737015113005
 30
410.4821166992187
  0
SPLINE
  5
8EBB7
330
1F
100
AcDbEntity
  8
Default
100
AcDbSpline
210
0.0
220
0.0
230
1.0
 70
     8
 71
     3
 72
    10
 73
     6
 74
     0
 42
0.000000001
 43
0.0000000001
 40
-3.0
 40
-3.0
 40
-3.0
 40
-3.0
 40
-2.0
 40
-1.0
 40
0.0
 40
0.0
 40
0.0
 40
0.0
 10
-884.8708767797202
 20
-1627.737015113005
 30
410.4821166992187
 10
-889.7952208227348
 20
-1615.788954376787
 30
410.4821166992187
 10
-897.8172093934814
 20
-1591.171323186466
 30
410.4821166992187
 10
-902.9353029322624
 20
-1552.417289826309
 30
410.4821166992187
 10
-897.5424260645477
 20
-1526.638221979004
 30
410.4821166992187
 10
-891.8246405447462
 20
-1515.00616134316
 30
410.4821166992187
  0
SPLINE
  5
8EBB8
330
1F
100
AcDbEntity
  8
Default
100
AcDbSpline
210
0.0
220
0.0
230
1.0
 70
     8
 71
     3
 72
    19
 73
    15
 74
     0
 42
0.000000001
 43
0.0000000001
 40
-12.0
 40
-12.0
 40
-12.0
 40
-12.0
 40
-11.0
 40
-10.0
 40
-9.0
 40
-8.0
 40
-7.0
 40
-6.0
 40
-5.0
 40
-4.0
 40
-3.0
 40
-2.0
 40
-1.0
 40
0.0
 40
0.0
 40
0.0
 40
0.0
 10
-303.1778375242238
 20
-1309.799009605012
 30
410.4821166992187
 10
-285.7780297646618
 20
-1326.556175819626
 30
410.4821166992187
 10
-251.2737449171127
 20
-1360.189008625534
 30
410.4821166992187
 10
-199.3760804590106
 20
-1411.213177773357
 30
410.4821166992187
 10
-156.100652932505
 20
-1468.430822671995
 30
410.4821166992187
 10
-112.2905699720263
 20
-1529.592439211392
 30
410.4821166992187
 10
-117.6915347366207
 20
-1604.92599536686
 30
410.4821166992187
 10
-148.0291221111902
 20
-1671.082752560597
 30
410.4821166992187
 10
-190.3658987598146
 20
-1730.238622014206
 30
410.4821166992187
 10
-243.2664185208414
 20
-1780.169738366096
 30
410.4821166992187
 10
-303.8946889332892
 20
-1820.245060872491
 30
410.4821166992187
 10
-370.3302935410875
 20
-1849.700674691888
 30
410.4821166992187
 10
-440.6594831857209
 20
-1867.990839839355
 30
410.4821166992187
 10
-488.928932126682
 20
-1872.252680159956
 30
410.4821166992187
 10
-513.0744713772632
 20
-1872.264023205656
 30
410.4821166992187
  0
SPLINE
  5
8EBB9
330
1F
100
AcDbEntity
  8
Default
100
AcDbSpline
210
0.0
220
0.0
230
1.0
 70
     8
 71
     3
 72
    19
 73
    15
 74
     0
 42
0.000000001
 43
0.0000000001
 40
0.0
 40
0.0
 40
0.0
 40
0.0
 40
1.0
 40
2.0
 40
3.0
 40
4.0
 40
5.0
 40
6.0
 40
7.0
 40
8.0
 40
9.0
 40
10.0
 40
11.0
 40
12.0
 40
12.0
 40
12.0
 40
12.0
 10
-513.0744713772632
 20
-1872.264023205656
 30
410.4821166992187
 10
-537.2200106278451
 20
-1872.252680159956
 30
410.4821166992187
 10
-585.489459568806
 20
-1867.990839839355
 30
410.4821166992187
 10
-655.8186492134396
 20
-1849.700674691888
 30
410.4821166992187
 10
-722.2542538212374
 20
-1820.245060872491
 30
410.4821166992187
 10
-782.8825242336861
 20
-1780.169738366096
 30
410.4821166992187
 10
-835.783043994712
 20
-1730.238622014206
 30
410.4821166992187
 10
-878.1198206433369
 20
-1671.082752560597
 30
410.4821166992187
 10
-908.4574080179063
 20
-1604.92599536686
 30
410.4821166992187
 10
-913.8583727825007
 20
-1529.592439211392
 30
410.4821166992187
 10
-870.0482898220215
 20
-1468.430822671995
 30
410.4821166992187
 10
-826.7728622955164
 20
-1411.213177773357
 30
410.4821166992187
 10
-774.8751978374143
 20
-1360.189008625534
 30
410.4821166992187
 10
-740.3709129898652
 20
-1326.556175819626
 30
410.4821166992187
 10
-722.9711052303032
 20
-1309.799009605012
 30
410.4821166992187
  0
ARC
  5
8EBBA
330
1F
100
AcDbEntity
  8
Default
100
AcDbCircle
 10
-581.4268558953394
 20
-1702.385033487299
 30
410.4821166992187
 40
455.7859007505599
100
AcDbArc
 50
46.6258777617963
 51
55.46520136690146
  0
SPLINE
  5
8EBBB
330
1F
100
AcDbEntity
  8
Default
100
AcDbSpline
210
0.0
220
0.0
230
1.0
 70
     8
 71
     3
 72
    14
 73
    10
 74
     0
 42
0.000000001
 43
0.0000000001
 40
0.0000000000000002
 40
0.0000000000000002
 40
0.0000000000000002
 40
0.0000000000000002
 40
1.0
 40
2.0
 40
3.0
 40
4.0
 40
5.0
 40
6.0
 40
7.0
 40
7.0
 40
7.0
 40
7.0
 10
-268.4116580748346
 20
-1371.081134843789
 30
410.4821166992187
 10
-258.0796482408991
 20
-1380.842795105845
 30
410.4821166992187
 10
-237.6661938314978
 20
-1400.67039152621
 30
410.4821166992187
 10
-209.3447128969833
 20
-1432.567752277788
 30
410.4821166992187
 10
-181.7996380173304
 20
-1465.175273397695
 30
410.4821166992187
 10
-156.5881111227149
 20
-1499.523060132437
 30
410.4821166992187
 10
-137.4181558592145
 20
-1538.424135872378
 30
410.4821166992187
 10
-138.5957818807287
 20
-1582.118898732712
 30
410.4821166992187
 10
-146.5179981933506
 20
-1609.439201619794
 30
410.4821166992187
 10
-151.8098256050439
 20
-1622.660267922513
 30
410.4821166992187
  0
ARC
  5
8EBBC
330
1F
100
AcDbEntity
  8
Default
100
AcDbCircle
 10
-444.7220868591876
 20
-1702.385033487299
 30
410.4821166992187
 40
455.7859007505599
100
AcDbArc
 50
124.5347986330985
 51
133.3741222382038
  0
SPLINE
  5
8EBBD
330
1F
100
AcDbEntity
  8
Default
100
AcDbSpline
210
0.0
220
0.0
230
1.0
 70
     8
 71
     3
 72
    14
 73
    10
 74
     0
 42
0.000000001
 43
0.0000000001
 40
0.0000000000000002
 40
0.0000000000000002
 40
0.0000000000000002
 40
0.0000000000000002
 40
1.0
 40
2.0
 40
3.0
 40
4.0
 40
5.0
 40
6.0
 40
7.0
 40
7.0
 40
7.0
 40
7.0
 10
-757.7372846796925
 20
-1371.081134843789
 30
410.4821166992187
 10
-768.0692945136279
 20
-1380.842795105845
 30
410.4821166992187
 10
-788.4827489230287
 20
-1400.67039152621
 30
410.4821166992187
 10
-816.8042298575437
 20
-1432.567752277788
 30
410.4821166992187
 10
-844.3493047371967
 20
-1465.175273397695
 30
410.4821166992187
 10
-869.5608316318121
 20
-1499.523060132437
 30
410.4821166992187
 10
-888.7307868953126
 20
-1538.424135872378
 30
410.4821166992187
 10
-887.5531608737983
 20
-1582.118898732712
 30
410.4821166992187
 10
-879.6309445611765
 20
-1609.439201619794
 30
410.4821166992187
 10
-874.3391171494831
 20
-1622.660267922513
 30
410.4821166992187
  0
SPLINE
  5
8EBBE
330
1F
100
AcDbEntity
  8
Default
100
AcDbSpline
210
0.0
220
0.0
230
1.0
 70
    24
 71
     2
 72
     6
 73
     3
 74
     0
 42
0.000000001
 43
0.0000000001
 40
1.144412679649788
 40
1.144412679649788
 40
1.144412679649788
 40
3.293043573786101
 40
3.293043573786101
 40
3.293043573786101
 10
-299.690078077982
 20
-1313.160615590678
 30
410.4821166992187
 10
-283.8568777459404
 20
-1290.7040045377
 30
410.4821166992187
 10
-268.0236774138984
 20
-1268.24739348472
 30
410.4821166992187
  0
SPLINE
  5
8EBBF
330
1F
100
AcDbEntity
  8
Default
100
AcDbSpline
210
0.0
220
0.0
230
1.0
 70
    12
 71
     2
 72
     8
 73
     5
 74
     0
 42
0.000000001
 43
0.0000000001
 40
0.0
 40
0.0
 40
0.0
 40
0.197163615910639
 40
0.197163615910639
 40
0.3943272318212779
 40
0.3943272318212779
 40
0.3943272318212779
 10
-268.0236774138984
 20
-1268.24739348472
 30
410.4821166992187
 41
1.0
 10
-266.2594652501725
 20
-1266.228038912811
 30
410.4821166992187
 41
0.903610101610362
 10
-266.7059293019183
 20
-1263.584006519623
 30
410.4821166992187
 41
1.0
 10
-267.1523933536646
 20
-1260.939974126435
 30
410.4821166992187
 41
0.903610101610362
 10
-269.4835763319543
 20
-1259.610913664348
 30
410.4821166992187
 41
1.0
  0
SPLINE
  5
8EBC0
330
1F
100
AcDbEntity
  8
Default
100
AcDbSpline
210
0.0
220
0.0
230
1.0
 70
    12
 71
     2
 72
     6
 73
     3
 74
     0
 42
0.000000001
 43
0.0000000001
 40
0.0
 40
0.0
 40
0.0
 40
0.3210187875113308
 40
0.3210187875113308
 40
0.3210187875113308
 10
-269.4835763319543
 20
-1259.610913664348
 30
410.4821166992187
 41
1.0
 10
-273.8745135623422
 20
-1257.194946029603
 30
410.4821166992187
 41
0.742740032477747
 10
-276.7301210098913
 20
-1261.311130348631
 30
410.4821166992187
 41
1.0
  0
SPLINE
  5
8EBC1
330
1F
100
AcDbEntity
  8
Default
100
AcDbSpline
210
0.0
220
0.0
230
1.0
 70
    24
 71
     2
 72
     6
 73
     3
 74
     0
 42
0.000000001
 43
0.0000000001
 40
0.0
 40
0.0
 40
0.0
 40
2.103763487843004
 40
2.103763487843004
 40
2.103763487843004
 10
-276.7301210098913
 20
-1261.311130348631
 30
410.4821166992187
 10
-292.3549147593071
 20
-1283.472183036548
 30
410.4821166992187
 10
-307.979708508723
 20
-1305.633235724463
 30
410.4821166992187
  0
LINE
  5
8EBC2
330
1F
100
AcDbEntity
  8
Default
100
AcDbLine
 10
-299.3147446106641
 20
-1293.343491324416
 30
410.4821166992187
 11
-300.024230849303
 21
-1292.8217939742
 31
410.4821166992187
  0
ARC
  5
8EBC3
330
1F
100
AcDbEntity
  8
Default
100
AcDbCircle
 10
-300.8588434077178
 20
-1293.956831605779
 30
410.4821166992187
 40
1.408860726886862
100
AcDbArc
 50
53.67232005805488
 51
143.4367134050243
  0
SPLINE
  5
8EBC4
330
1F
100
AcDbEntity
  8
Default
100
AcDbSpline
210
0.0
220
0.0
230
1.0
 70
    24
 71
     2
 72
     6
 73
     3
 74
     0
 42
0.000000001
 43
0.0000000001
 40
0.0
 40
0.0
 40
0.0
 40
0.5262007377155152
 40
0.5262007377155152
 40
0.5262007377155152
 10
-301.9904394323648
 20
-1293.117558715256
 30
410.4821166992187
 10
-305.8521329417435
 20
-1298.594516502417
 30
410.4821166992187
 10
-309.7138264511223
 20
-1304.071474289578
 30
410.4821166992187
  0
LINE
  5
8EBC5
330
1F
100
AcDbEntity
  8
Default
100
AcDbLine
 10
-290.2323680654408
 20
-1299.746516687774
 30
410.4821166992187
 11
-289.5029463719625
 21
-1300.239894256632
 31
410.4821166992187
  0
ARC
  5
8EBC6
330
1F
100
AcDbEntity
  8
Default
100
AcDbCircle
 10
-290.2929028477311
 20
-1301.40778559726
 30
410.4821166992187
 40
1.4099650411
100
AcDbArc
 50
324.353366678632
 51
55.92575542989631
  0
SPLINE
  5
8EBC7
330
1F
100
AcDbEntity
  8
Default
100
AcDbSpline
210
0.0
220
0.0
230
1.0
 70
    24
 71
     2
 72
     6
 73
     3
 74
     0
 42
0.000000001
 43
0.0000000001
 40
0.0
 40
0.0
 40
0.0
 40
0.6042843821236103
 40
0.6042843821236103
 40
0.6042843821236103
 10
-289.1471276106936
 20
-1302.229491459059
 30
410.4821166992187
 10
-293.574757388626
 20
-1308.509313874409
 30
410.4821166992187
 10
-298.0023871665585
 20
-1314.789136289758
 30
410.4821166992187
  0
SPLINE
  5
8EBC8
330
1F
100
AcDbEntity
  8
Default
100
AcDbSpline
210
0.0
220
0.0
230
1.0
 70
    24
 71
     2
 72
     6
 73
     3
 74
     0
 42
0.000000001
 43
0.0000000001
 40
1.144473090120382
 40
1.144473090120382
 40
1.144473090120382
 40
3.293043573786101
 40
3.293043573786101
 40
3.293043573786101
 10
-726.4575555393767
 20
-1313.159352819631
 30
410.4821166992187
 10
-742.290310708368
 20
-1290.703373152176
 30
410.4821166992187
 10
-758.1230658773592
 20
-1268.24739348472
 30
410.4821166992187
  0
SPLINE
  5
8EBC9
330
1F
100
AcDbEntity
  8
Default
100
AcDbSpline
210
0.0
220
0.0
230
1.0
 70
    12
 71
     2
 72
     8
 73
     5
 74
     0
 42
0.000000001
 43
0.0000000001
 40
0.0
 40
0.0
 40
0.0
 40
0.197163615910639
 40
0.197163615910639
 40
0.3943272318212779
 40
0.3943272318212779
 40
0.3943272318212779
 10
-758.1230658773592
 20
-1268.24739348472
 30
410.4821166992187
 41
1.0
 10
-759.8872780410852
 20
-1266.228038912811
 30
410.4821166992187
 41
0.903610101610362
 10
-759.4408139893394
 20
-1263.584006519623
 30
410.4821166992187
 41
1.0
 10
-758.9943499375931
 20
-1260.939974126435
 30
410.4821166992187
 41
0.903610101610362
 10
-756.6631669593034
 20
-1259.610913664348
 30
410.4821166992187
 41
1.0
  0
SPLINE
  5
8EBCA
330
1F
100
AcDbEntity
  8
Default
100
AcDbSpline
210
0.0
220
0.0
230
1.0
 70
    12
 71
     2
 72
     6
 73
     3
 74
     0
 42
0.000000001
 43
0.0000000001
 40
0.0
 40
0.0
 40
0.0
 40
0.3210187875113308
 40
0.3210187875113308
 40
0.3210187875113308
 10
-756.6631669593034
 20
-1259.610913664348
 30
410.4821166992187
 41
1.0
 10
-752.272229728916
 20
-1257.194946029603
 30
410.4821166992187
 41
0.742740032477747
 10
-749.4166222813665
 20
-1261.311130348631
 30
410.4821166992187
 41
1.0
  0
SPLINE
  5
8EBCB
330
1F
100
AcDbEntity
  8
Default
100
AcDbSpline
210
0.0
220
0.0
230
1.0
 70
    24
 71
     2
 72
     6
 73
     3
 74
     0
 42
0.000000001
 43
0.0000000001
 40
0.0
 40
0.0
 40
0.0
 40
2.103704346881143
 40
2.103704346881143
 40
2.103704346881143
 10
-749.4166222813665
 20
-1261.311130348631
 30
410.4821166992187
 10
-733.7922677758752
 20
-1283.471560045427
 30
410.4821166992187
 10
-718.1679132703843
 20
-1305.631989742223
 30
410.4821166992187
  0
LINE
  5
8EBCC
330
1F
100
AcDbEntity
  8
Default
100
AcDbLine
 10
-726.8319986805936
 20
-1293.343491324416
 30
410.4821166992187
 11
-726.1225124419548
 21
-1292.8217939742
 31
410.4821166992187
  0
ARC
  5
8EBCD
330
1F
100
AcDbEntity
  8
Default
100
AcDbCircle
 10
-725.2878998835399
 20
-1293.956831605779
 30
410.4821166992187
 40
1.408860726886862
100
AcDbArc
 50
36.56328659497573
 51
126.3276799419462
  0
SPLINE
  5
8EBCE
330
1F
100
AcDbEntity
  8
Default
100
AcDbSpline
210
0.0
220
0.0
230
1.0
 70
    24
 71
     2
 72
     6
 73
     3
 74
     0
 42
0.000000001
 43
0.0000000001
 40
0.0
 40
0.0
 40
0.0
 40
0.5261413565638918
 40
0.5261413565638918
 40
0.5261413565638918
 10
-724.1563038588928
 20
-1293.117558715256
 30
410.4821166992187
 10
-720.2950461372116
 20
-1298.593898433993
 30
410.4821166992187
 10
-716.4337884155302
 20
-1304.07023815273
 30
410.4821166992187
  0
LINE
  5
8EBCF
330
1F
100
AcDbEntity
  8
Default
100
AcDbLine
 10
-735.9143752258169
 20
-1299.746516687774
 30
410.4821166992187
 11
-736.6437969192952
 21
-1300.239894256632
 31
410.4821166992187
  0
ARC
  5
8EBD0
330
1F
100
AcDbEntity
  8
Default
100
AcDbCircle
 10
-735.8538404435266
 20
-1301.40778559726
 30
410.4821166992187
 40
1.4099650411
100
AcDbArc
 50
124.0742445701259
 51
215.6466333213679
  0
SPLINE
  5
8EBD1
330
1F
100
AcDbEntity
  8
Default
100
AcDbSpline
210
0.0
220
0.0
230
1.0
 70
    24
 71
     2
 72
     6
 73
     3
 74
     0
 42
0.000000001
 43
0.0000000001
 40
0.0
 40
0.0
 40
0.0
 40
0.6042235994859217
 40
0.6042235994859217
 40
0.6042235994859217
 10
-736.9996156805641
 20
-1302.229491459059
 30
410.4821166992187
 10
-732.5724312608513
 20
-1308.508682211268
 30
410.4821166992187
 10
-728.1452468411389
 20
-1314.787872963477
 30
410.4821166992187
  0
SPLINE
  5
8EBD2
330
1F
100
AcDbEntity
  8
Default
100
AcDbSpline
210
0.0
220
0.0
230
1.0
 70
     8
 71
     3
 72
    12
 73
     8
 74
     0
 42
0.000000001
 43
0.0000000001
 40
-15.35241690788854
 40
-15.35241690788854
 40
-15.35241690788854
 40
-15.35241690788854
 40
-11.42846741267097
 40
-7.624448814229928
 40
-3.868777023834103
 40
-1.918304340297428
 40
0.0
 40
0.0
 40
0.0
 40
0.0
 10
268.5998267394125
 20
-1476.05043786844
 30
410.4821166992187
 10
268.5992909633742
 20
-1509.25796667923
 30
410.4821166992187
 10
280.4221421506022
 20
-1574.835839944561
 30
410.4821166992187
 10
333.875927628771
 20
-1658.394095917291
 30
410.4821166992187
 10
401.9455865061836
 20
-1704.487637501073
 30
410.4821166992187
 10
464.072164223116
 20
-1723.133394604886
 30
410.4821166992187
 10
496.8344037386568
 20
-1726.303576194519
 30
410.4821166992187
 10
513.0744713772742
 20
-1726.290098423778
 30
410.4821166992187
  0
SPLINE
  5
8EBD3
330
1F
100
AcDbEntity
  8
Default
100
AcDbSpline
210
0.0
220
0.0
230
1.0
 70
     8
 71
     3
 72
    12
 73
     8
 74
     0
 42
0.000000001
 43
0.0000000001
 40
0.0
 40
0.0
 40
0.0
 40
0.0
 40
1.918304340297428
 40
3.868777023834103
 40
7.624448814229928
 40
11.42846741267097
 40
15.35241690788854
 40
15.35241690788854
 40
15.35241690788854
 40
15.35241690788854
 10
513.0744713772742
 20
-1726.290098423778
 30
410.4821166992187
 10
529.314539015892
 20
-1726.303576194519
 30
410.4821166992187
 10
562.0767785314324
 20
-1723.133394604886
 30
410.4821166992187
 10
624.2033562483648
 20
-1704.487637501073
 30
410.4821166992187
 10
692.2730151257779
 20
-1658.394095917291
 30
410.4821166992187
 10
745.7268006039466
 20
-1574.835839944561
 30
410.4821166992187
 10
757.5496517911747
 20
-1509.25796667923
 30
410.4821166992187
 10
757.5491160151364
 20
-1476.05043786844
 30
410.4821166992187
  0
SPLINE
  5
8EBD4
330
1F
100
AcDbEntity
  8
Default
100
AcDbSpline
210
0.0
220
0.0
230
1.0
 70
     8
 71
     3
 72
    12
 73
     8
 74
     0
 42
0.000000001
 43
0.0000000001
 40
-14.89017237659325
 40
-14.89017237659325
 40
-14.89017237659325
 40
-14.89017237659325
 40
-11.21816892444778
 40
-7.516681648226318
 40
-3.774518777477096
 40
-1.889354184169619
 40
0.0
 40
0.0
 40
0.0
 40
0.0
 10
757.5491160151364
 20
-1476.05043786844
 30
410.4821166992187
 10
757.5574487643216
 20
-1444.956614003908
 30
410.4821166992187
 10
744.6757626881853
 20
-1382.543849742539
 30
410.4821166992187
 10
690.0148136883749
 20
-1303.630554945532
 30
410.4821166992187
 10
622.3718593759167
 20
-1260.021956169838
 30
410.4821166992187
 10
561.0291695904602
 20
-1242.046370106092
 30
410.4821166992187
 10
529.0696740395278
 20
-1238.972628317203
 30
410.4821166992187
 10
513.0744713772742
 20
-1238.970905304465
 30
410.4821166992187
  0
SPLINE
  5
8EBD5
330
1F
100
AcDbEntity
  8
Default
100
AcDbSpline
210
0.0
220
0.0
230
1.0
 70
     8
 71
     3
 72
    12
 73
     8
 74
     0
 42
0.000000001
 43
0.0000000001
 40
0.0
 40
0.0
 40
0.0
 40
0.0
 40
1.889354184169619
 40
3.774518777477096
 40
7.516681648226318
 40
11.21816892444778
 40
14.89017237659325
 40
14.89017237659325
 40
14.89017237659325
 40
14.89017237659325
 10
513.0744713772742
 20
-1238.970905304465
 30
410.4821166992187
 10
497.079268715021
 20
-1238.972628317203
 30
410.4821166992187
 10
465.1197731640886
 20
-1242.046370106092
 30
410.4821166992187
 10
403.7770833786321
 20
-1260.021956169838
 30
410.4821166992187
 10
336.1341290661739
 20
-1303.630554945532
 30
410.4821166992187
 10
281.4731800663635
 20
-1382.543849742539
 30
410.4821166992187
 10
268.5914939902268
 20
-1444.956614003908
 30
410.4821166992187
 10
268.5998267394125
 20
-1476.05043786844
 30
410.4821166992187
  0
SPLINE
  5
8EBD6
330
1F
100
AcDbEntity
  8
Default
100
AcDbSpline
210
0.0
220
0.0
230
1.0
 70
     8
 71
     3
 72
    24
 73
    20
 74
     0
 42
0.000000001
 43
0.0000000001
 40
0.0
 40
0.0
 40
0.0
 40
0.0
 40
1.0
 40
2.0
 40
3.0
 40
4.0
 40
5.0
 40
6.0
 40
7.0
 40
8.0
 40
9.0
 40
10.0
 40
11.0
 40
12.0
 40
13.0
 40
14.0
 40
15.0
 40
16.0
 40
17.0
 40
17.0
 40
17.0
 40
17.0
 10
891.8246941471407
 20
-1515.00616134316
 30
410.4821166992187
 10
887.5720233555757
 20
-1506.18245532337
 30
410.4821166992187
 10
877.577568616024
 20
-1489.317901742585
 30
410.4821166992187
 10
860.809185562719
 20
-1465.187851442649
 30
410.4821166992187
 10
842.4948561326914
 20
-1442.220678278568
 30
410.4821166992187
 10
824.0087691898597
 20
-1419.402506921907
 30
410.4821166992187
 10
805.3574755751279
 20
-1396.714337180105
 30
410.4821166992187
 10
786.042779236544
 20
-1374.585906575467
 30
410.4821166992187
 10
765.9804215218018
 20
-1353.130553768345
 30
410.4821166992187
 10
745.2630094904661
 20
-1332.316580797932
 30
410.4821166992187
 10
724.7881094191284
 20
-1311.247032659877
 30
410.4821166992187
 10
702.6942614657891
 20
-1291.856579497681
 30
410.4821166992187
 10
679.0461945941292
 20
-1274.399327368266
 30
410.4821166992187
 10
653.9432010540108
 20
-1259.096717056028
 30
410.4821166992187
 10
627.5369773035231
 20
-1246.169185896804
 30
410.4821166992187
 10
599.9852129706855
 20
-1235.889520501806
 30
410.4821166992187
 10
571.5183149760009
 20
-1228.511591412323
 30
410.4821166992187
 10
542.4441135522552
 20
-1224.099429140799
 30
410.4821166992187
 10
522.8640882364648
 20
-1223.132274028856
 30
410.4821166992187
 10
513.0744981784659
 20
-1223.148570701276
 30
410.4821166992187
  0
SPLINE
  5
8EBD7
330
1F
100
AcDbEntity
  8
Default
100
AcDbSpline
210
0.0
220
0.0
230
1.0
 70
     8
 71
     3
 72
    24
 73
    20
 74
     0
 42
0.000000001
 43
0.0000000001
 40
-17.0
 40
-17.0
 40
-17.0
 40
-17.0
 40
-16.0
 40
-15.0
 40
-14.0
 40
-13.0
 40
-12.0
 40
-11.0
 40
-10.0
 40
-9.0
 40
-8.0
 40
-7.0
 40
-6.0
 40
-5.0
 40
-4.0
 40
-3.0
 40
-2.0
 40
-1.0
 40
0.0
 40
0.0
 40
0.0
 40
0.0
 10
513.0744981784659
 20
-1223.148570701276
 30
410.4821166992187
 10
503.2849081204676
 20
-1223.132274028856
 30
410.4821166992187
 10
483.7048828046772
 20
-1224.099429140799
 30
410.4821166992187
 10
454.6306813809315
 20
-1228.511591412323
 30
410.4821166992187
 10
426.1637833862469
 20
-1235.889520501806
 30
410.4821166992187
 10
398.6120190534093
 20
-1246.169185896804
 30
410.4821166992187
 10
372.2057953029216
 20
-1259.096717056028
 30
410.4821166992187
 10
347.1028017628032
 20
-1274.399327368266
 30
410.4821166992187
 10
323.4547348911433
 20
-1291.856579497681
 30
410.4821166992187
 10
301.360886937804
 20
-1311.247032659877
 30
410.4821166992187
 10
280.8859868664663
 20
-1332.316580797932
 30
410.4821166992187
 10
260.1685748351306
 20
-1353.130553768345
 30
410.4821166992187
 10
240.1062171203885
 20
-1374.585906575467
 30
410.4821166992187
 10
220.7915207818046
 20
-1396.714337180105
 30
410.4821166992187
 10
202.1402271670727
 20
-1419.402506921907
 30
410.4821166992187
 10
183.654140224241
 20
-1442.220678278568
 30
410.4821166992187
 10
165.3398107942134
 20
-1465.187851442649
 30
410.4821166992187
 10
148.5714277409083
 20
-1489.317901742585
 30
410.4821166992187
 10
138.5769730013571
 20
-1506.18245532337
 30
410.4821166992187
 10
134.3243022097917
 20
-1515.00616134316
 30
410.4821166992187
  0
SPLINE
  5
8EBD8
330
1F
100
AcDbEntity
  8
Default
100
AcDbSpline
210
0.0
220
0.0
230
1.0
 70
     8
 71
     3
 72
    10
 73
     6
 74
     0
 42
0.000000001
 43
0.0000000001
 40
0.0
 40
0.0
 40
0.0
 40
0.0
 40
1.0
 40
2.0
 40
3.0
 40
3.0
 40
3.0
 40
3.0
 10
134.3243022097917
 20
-1515.00616134316
 30
410.4821166992187
 10
128.6065166899907
 20
-1526.638221979004
 30
410.4821166992187
 10
123.2136398222756
 20
-1552.417289826309
 30
410.4821166992187
 10
128.3317333610566
 20
-1591.171323186466
 30
410.4821166992187
 10
136.3537219318032
 20
-1615.788954376787
 30
410.4821166992187
 10
141.2780659748177
 20
-1627.737015113005
 30
410.4821166992187
  0
SPLINE
  5
8EBD9
330
1F
100
AcDbEntity
  8
Default
100
AcDbSpline
210
0.0
220
0.0
230
1.0
 70
     8
 71
     3
 72
    10
 73
     6
 74
     0
 42
0.000000001
 43
0.0000000001
 40
-3.0
 40
-3.0
 40
-3.0
 40
-3.0
 40
-2.0
 40
-1.0
 40
0.0
 40
0.0
 40
0.0
 40
0.0
 10
141.2780659748177
 20
-1627.737015113005
 30
410.4821166992187
 10
161.049200753926
 20
-1675.497706595441
 30
410.4821166992187
 10
223.6028241609069
 20
-1760.379877943513
 30
410.4821166992187
 10
358.227260106225
 20
-1842.074350909938
 30
410.4821166992187
 10
461.4677121706981
 20
-1860.779807797522
 30
410.4821166992187
 10
513.0744713772742
 20
-1860.360357371268
 30
410.4821166992187
  0
SPLINE
  5
8EBDA
330
1F
100
AcDbEntity
  8
Default
100
AcDbSpline
210
0.0
220
0.0
230
1.0
 70
     8
 71
     3
 72
    10
 73
     6
 74
     0
 42
0.000000001
 43
0.0000000001
 40
0.0
 40
0.0
 40
0.0
 40
0.0
 40
1.0
 40
2.0
 40
3.0
 40
3.0
 40
3.0
 40
3.0
 10
513.0744713772742
 20
-1860.360357371268
 30
410.4821166992187
 10
564.6812305838507
 20
-1860.779807797522
 30
410.4821166992187
 10
667.9216826483239
 20
-1842.074350909938
 30
410.4821166992187
 10
802.5461185936419
 20
-1760.379877943513
 30
410.4821166992187
 10
865.0997420006229
 20
-1675.497706595441
 30
410.4821166992187
 10
884.8708767797312
 20
-1627.737015113005
 30
410.4821166992187
  0
SPLINE
  5
8EBDB
330
1F
100
AcDbEntity
  8
Default
100
AcDbSpline
210
0.0
220
0.0
230
1.0
 70
     8
 71
     3
 72
    10
 73
     6
 74
     0
 42
0.000000001
 43
0.0000000001
 40
-3.0
 40
-3.0
 40
-3.0
 40
-3.0
 40
-2.0
 40
-1.0
 40
0.0
 40
0.0
 40
0.0
 40
0.0
 10
884.8708767797312
 20
-1627.737015113005
 30
410.4821166992187
 10
889.7952208227456
 20
-1615.788954376787
 30
410.4821166992187
 10
897.8172093934922
 20
-1591.171323186466
 30
410.4821166992187
 10
902.9353029322733
 20
-1552.417289826309
 30
410.4821166992187
 10
897.5424260645587
 20
-1526.638221979004
 30
410.4821166992187
 10
891.8246405447572
 20
-1515.00616134316
 30
410.4821166992187
  0
SPLINE
  5
8EBDC
330
1F
100
AcDbEntity
  8
Default
100
AcDbSpline
210
0.0
220
0.0
230
1.0
 70
     8
 71
     3
 72
    19
 73
    15
 74
     0
 42
0.000000001
 43
0.0000000001
 40
-12.0
 40
-12.0
 40
-12.0
 40
-12.0
 40
-11.0
 40
-10.0
 40
-9.0
 40
-8.0
 40
-7.0
 40
-6.0
 40
-5.0
 40
-4.0
 40
-3.0
 40
-2.0
 40
-1.0
 40
0.0
 40
0.0
 40
0.0
 40
0.0
 10
303.1778375242347
 20
-1309.799009605012
 30
410.4821166992187
 10
285.7780297646727
 20
-1326.556175819626
 30
410.4821166992187
 10
251.2737449171236
 20
-1360.189008625534
 30
410.4821166992187
 10
199.3760804590215
 20
-1411.213177773357
 30
410.4821166992187
 10
156.1006529325159
 20
-1468.430822671995
 30
410.4821166992187
 10
112.2905699720372
 20
-1529.592439211392
 30
410.4821166992187
 10
117.6915347366316
 20
-1604.92599536686
 30
410.4821166992187
 10
148.0291221112011
 20
-1671.082752560597
 30
410.4821166992187
 10
190.3658987598255
 20
-1730.238622014206
 30
410.4821166992187
 10
243.2664185208523
 20
-1780.169738366096
 30
410.4821166992187
 10
303.8946889333001
 20
-1820.245060872491
 30
410.4821166992187
 10
370.3302935410984
 20
-1849.700674691888
 30
410.4821166992187
 10
440.6594831857319
 20
-1867.990839839355
 30
410.4821166992187
 10
488.9289321266928
 20
-1872.252680159956
 30
410.4821166992187
 10
513.0744713772742
 20
-1872.264023205656
 30
410.4821166992187
  0
SPLINE
  5
8EBDD
330
1F
100
AcDbEntity
  8
Default
100
AcDbSpline
210
0.0
220
0.0
230
1.0
 70
     8
 71
     3
 72
    19
 73
    15
 74
     0
 42
0.000000001
 43
0.0000000001
 40
0.0
 40
0.0
 40
0.0
 40
0.0
 40
1.0
 40
2.0
 40
3.0
 40
4.0
 40
5.0
 40
6.0
 40
7.0
 40
8.0
 40
9.0
 40
10.0
 40
11.0
 40
12.0
 40
12.0
 40
12.0
 40
12.0
 10
513.0744713772742
 20
-1872.264023205656
 30
410.4821166992187
 10
537.220010627856
 20
-1872.252680159956
 30
410.4821166992187
 10
585.4894595688169
 20
-1867.990839839355
 30
410.4821166992187
 10
655.8186492134504
 20
-1849.700674691888
 30
410.4821166992187
 10
722.2542538212483
 20
-1820.245060872491
 30
410.4821166992187
 10
782.882524233697
 20
-1780.169738366096
 30
410.4821166992187
 10
835.7830439947228
 20
-1730.238622014206
 30
410.4821166992187
 10
878.1198206433478
 20
-1671.082752560597
 30
410.4821166992187
 10
908.4574080179173
 20
-1604.92599536686
 30
410.4821166992187
 10
913.8583727825116
 20
-1529.592439211392
 30
410.4821166992187
 10
870.0482898220325
 20
-1468.430822671995
 30
410.4821166992187
 10
826.7728622955273
 20
-1411.213177773357
 30
410.4821166992187
 10
774.8751978374253
 20
-1360.189008625534
 30
410.4821166992187
 10
740.3709129898762
 20
-1326.556175819626
 30
410.4821166992187
 10
722.9711052303141
 20
-1309.799009605012
 30
410.4821166992187
  0
ARC
  5
8EBDE
330
1F
100
AcDbEntity
  8
Default
100
AcDbCircle
 10
581.4268558953504
 20
-1702.385033487299
 30
410.4821166992187
 40
455.7859007505599
100
AcDbArc
 50
124.5347986330985
 51
133.3741222382038
  0
SPLINE
  5
8EBDF
330
1F
100
AcDbEntity
  8
Default
100
AcDbSpline
210
0.0
220
0.0
230
1.0
 70
     8
 71
     3
 72
    14
 73
    10
 74
     0
 42
0.000000001
 43
0.0000000001
 40
0.0000000000000002
 40
0.0000000000000002
 40
0.0000000000000002
 40
0.0000000000000002
 40
1.0
 40
2.0
 40
3.0
 40
4.0
 40
5.0
 40
6.0
 40
7.0
 40
7.0
 40
7.0
 40
7.0
 10
268.4116580748455
 20
-1371.081134843789
 30
410.4821166992187
 10
258.07964824091
 20
-1380.842795105845
 30
410.4821166992187
 10
237.6661938315087
 20
-1400.67039152621
 30
410.4821166992187
 10
209.3447128969942
 20
-1432.567752277788
 30
410.4821166992187
 10
181.7996380173413
 20
-1465.175273397695
 30
410.4821166992187
 10
156.5881111227259
 20
-1499.523060132437
 30
410.4821166992187
 10
137.4181558592254
 20
-1538.424135872378
 30
410.4821166992187
 10
138.5957818807396
 20
-1582.118898732712
 30
410.4821166992187
 10
146.5179981933616
 20
-1609.439201619794
 30
410.4821166992187
 10
151.8098256050548
 20
-1622.660267922513
 30
410.4821166992187
  0
ARC
  5
8EBE0
330
1F
100
AcDbEntity
  8
Default
100
AcDbCircle
 10
444.7220868591984
 20
-1702.385033487299
 30
410.4821166992187
 40
455.7859007505599
100
AcDbArc
 50
46.6258777617963
 51
55.46520136690146
  0
SPLINE
  5
8EBE1
330
1F
100
AcDbEntity
  8
Default
100
AcDbSpline
210
0.0
220
0.0
230
1.0
 70
     8
 71
     3
 72
    14
 73
    10
 74
     0
 42
0.000000001
 43
0.0000000001
 40
0.0000000000000002
 40
0.0000000000000002
 40
0.0000000000000002
 40
0.0000000000000002
 40
1.0
 40
2.0
 40
3.0
 40
4.0
 40
5.0
 40
6.0
 40
7.0
 40
7.0
 40
7.0
 40
7.0
 10
757.7372846797033
 20
-1371.081134843789
 30
410.4821166992187
 10
768.0692945136388
 20
-1380.842795105845
 30
410.4821166992187
 10
788.4827489230397
 20
-1400.67039152621
 30
410.4821166992187
 10
816.8042298575546
 20
-1432.567752277788
 30
410.4821166992187
 10
844.3493047372076
 20
-1465.175273397695
 30
410.4821166992187
 10
869.560831631823
 20
-1499.523060132437
 30
410.4821166992187
 10
888.7307868953234
 20
-1538.424135872378
 30
410.4821166992187
 10
887.5531608738093
 20
-1582.118898732712
 30
410.4821166992187
 10
879.6309445611873
 20
-1609.439201619794
 30
410.4821166992187
 10
874.3391171494941
 20
-1622.660267922513
 30
410.4821166992187
  0
SPLINE
  5
8EBE2
330
1F
100
AcDbEntity
  8
Default
100
AcDbSpline
210
0.0
220
0.0
230
1.0
 70
    24
 71
     2
 72
     6
 73
     3
 74
     0
 42
0.000000001
 43
0.0000000001
 40
1.144412679649788
 40
1.144412679649788
 40
1.144412679649788
 40
3.293043573786101
 40
3.293043573786101
 40
3.293043573786101
 10
299.6900780779929
 20
-1313.160615590678
 30
410.4821166992187
 10
283.8568777459514
 20
-1290.7040045377
 30
410.4821166992187
 10
268.0236774139094
 20
-1268.24739348472
 30
410.4821166992187
  0
SPLINE
  5
8EBE3
330
1F
100
AcDbEntity
  8
Default
100
AcDbSpline
210
0.0
220
0.0
230
1.0
 70
    12
 71
     2
 72
     8
 73
     5
 74
     0
 42
0.000000001
 43
0.0000000001
 40
0.0
 40
0.0
 40
0.0
 40
0.197163615910639
 40
0.197163615910639
 40
0.3943272318212779
 40
0.3943272318212779
 40
0.3943272318212779
 10
268.0236774139094
 20
-1268.24739348472
 30
410.4821166992187
 41
1.0
 10
266.2594652501834
 20
-1266.228038912811
 30
410.4821166992187
 41
0.903610101610362
 10
266.7059293019292
 20
-1263.584006519623
 30
410.4821166992187
 41
1.0
 10
267.1523933536755
 20
-1260.939974126435
 30
410.4821166992187
 41
0.903610101610362
 10
269.4835763319652
 20
-1259.610913664348
 30
410.4821166992187
 41
1.0
  0
SPLINE
  5
8EBE4
330
1F
100
AcDbEntity
  8
Default
100
AcDbSpline
210
0.0
220
0.0
230
1.0
 70
    12
 71
     2
 72
     6
 73
     3
 74
     0
 42
0.000000001
 43
0.0000000001
 40
0.0
 40
0.0
 40
0.0
 40
0.3210187875113308
 40
0.3210187875113308
 40
0.3210187875113308
 10
269.4835763319652
 20
-1259.610913664348
 30
410.4821166992187
 41
1.0
 10
273.8745135623531
 20
-1257.194946029603
 30
410.4821166992187
 41
0.742740032477747
 10
276.7301210099022
 20
-1261.311130348631
 30
410.4821166992187
 41
1.0
  0
SPLINE
  5
8EBE5
330
1F
100
AcDbEntity
  8
Default
100
AcDbSpline
210
0.0
220
0.0
230
1.0
 70
    24
 71
     2
 72
     6
 73
     3
 74
     0
 42
0.000000001
 43
0.0000000001
 40
0.0
 40
0.0
 40
0.0
 40
2.103763487843004
 40
2.103763487843004
 40
2.103763487843004
 10
276.7301210099022
 20
-1261.311130348631
 30
410.4821166992187
 10
292.354914759318
 20
-1283.472183036548
 30
410.4821166992187
 10
307.9797085087339
 20
-1305.633235724463
 30
410.4821166992187
  0
LINE
  5
8EBE6
330
1F
100
AcDbEntity
  8
Default
100
AcDbLine
 10
299.314744610675
 20
-1293.343491324416
 30
410.4821166992187
 11
300.0242308493139
 21
-1292.8217939742
 31
410.4821166992187
  0
ARC
  5
8EBE7
330
1F
100
AcDbEntity
  8
Default
100
AcDbCircle
 10
300.8588434077287
 20
-1293.956831605779
 30
410.4821166992187
 40
1.408860726886862
100
AcDbArc
 50
36.56328659497573
 51
126.3276799419462
  0
SPLINE
  5
8EBE8
330
1F
100
AcDbEntity
  8
Default
100
AcDbSpline
210
0.0
220
0.0
230
1.0
 70
    24
 71
     2
 72
     6
 73
     3
 74
     0
 42
0.000000001
 43
0.0000000001
 40
0.0
 40
0.0
 40
0.0
 40
0.5262007377155152
 40
0.5262007377155152
 40
0.5262007377155152
 10
301.9904394323758
 20
-1293.117558715256
 30
410.4821166992187
 10
305.8521329417545
 20
-1298.594516502417
 30
410.4821166992187
 10
309.7138264511332
 20
-1304.071474289578
 30
410.4821166992187
  0
LINE
  5
8EBE9
330
1F
100
AcDbEntity
  8
Default
100
AcDbLine
 10
290.2323680654518
 20
-1299.746516687774
 30
410.4821166992187
 11
289.5029463719734
 21
-1300.239894256632
 31
410.4821166992187
  0
ARC
  5
8EBEA
330
1F
100
AcDbEntity
  8
Default
100
AcDbCircle
 10
290.292902847742
 20
-1301.40778559726
 30
410.4821166992187
 40
1.4099650411
100
AcDbArc
 50
124.0742445701037
 51
215.6466333213679
  0
SPLINE
  5
8EBEB
330
1F
100
AcDbEntity
  8
Default
100
AcDbSpline
210
0.0
220
0.0
230
1.0
 70
    24
 71
     2
 72
     6
 73
     3
 74
     0
 42
0.000000001
 43
0.0000000001
 40
0.0
 40
0.0
 40
0.0
 40
0.6042843821236103
 40
0.6042843821236103
 40
0.6042843821236103
 10
289.1471276107045
 20
-1302.229491459059
 30
410.4821166992187
 10
293.574757388637
 20
-1308.509313874409
 30
410.4821166992187
 10
298.0023871665694
 20
-1314.789136289758
 30
410.4821166992187
  0
SPLINE
  5
8EBEC
330
1F
100
AcDbEntity
  8
Default
100
AcDbSpline
210
0.0
220
0.0
230
1.0
 70
    24
 71
     2
 72
     6
 73
     3
 74
     0
 42
0.000000001
 43
0.0000000001
 40
1.144473090120382
 40
1.144473090120382
 40
1.144473090120382
 40
3.293043573786101
 40
3.293043573786101
 40
3.293043573786101
 10
726.4575555393876
 20
-1313.159352819631
 30
410.4821166992187
 10
742.2903107083789
 20
-1290.703373152176
 30
410.4821166992187
 10
758.1230658773701
 20
-1268.24739348472
 30
410.4821166992187
  0
SPLINE
  5
8EBED
330
1F
100
AcDbEntity
  8
Default
100
AcDbSpline
210
0.0
220
0.0
230
1.0
 70
    12
 71
     2
 72
     8
 73
     5
 74
     0
 42
0.000000001
 43
0.0000000001
 40
0.0
 40
0.0
 40
0.0
 40
0.197163615910639
 40
0.197163615910639
 40
0.3943272318212779
 40
0.3943272318212779
 40
0.3943272318212779
 10
758.1230658773701
 20
-1268.24739348472
 30
410.4821166992187
 41
1.0
 10
759.8872780410961
 20
-1266.228038912811
 30
410.4821166992187
 41
0.903610101610362
 10
759.4408139893503
 20
-1263.584006519623
 30
410.4821166992187
 41
1.0
 10
758.994349937604
 20
-1260.939974126435
 30
410.4821166992187
 41
0.903610101610362
 10
756.6631669593143
 20
-1259.610913664348
 30
410.4821166992187
 41
1.0
  0
SPLINE
  5
8EBEE
330
1F
100
AcDbEntity
  8
Default
100
AcDbSpline
210
0.0
220
0.0
230
1.0
 70
    12
 71
     2
 72
     6
 73
     3
 74
     0
 42
0.000000001
 43
0.0000000001
 40
0.0
 40
0.0
 40
0.0
 40
0.3210187875113308
 40
0.3210187875113308
 40
0.3210187875113308
 10
756.6631669593143
 20
-1259.610913664348
 30
410.4821166992187
 41
1.0
 10
752.2722297289269
 20
-1257.194946029603
 30
410.4821166992187
 41
0.742740032477747
 10
749.4166222813774
 20
-1261.311130348631
 30
410.4821166992187
 41
1.0
  0
SPLINE
  5
8EBEF
330
1F
100
AcDbEntity
  8
Default
100
AcDbSpline
210
0.0
220
0.0
230
1.0
 70
    24
 71
     2
 72
     6
 73
     3
 74
     0
 42
0.000000001
 43
0.0000000001
 40
0.0
 40
0.0
 40
0.0
 40
2.103704346881143
 40
2.103704346881143
 40
2.103704346881143
 10
749.4166222813774
 20
-1261.311130348631
 30
410.4821166992187
 10
733.7922677758861
 20
-1283.471560045427
 30
410.4821166992187
 10
718.1679132703952
 20
-1305.631989742223
 30
410.4821166992187
  0
LINE
  5
8EBF0
330
1F
100
AcDbEntity
  8
Default
100
AcDbLine
 10
726.8319986806045
 20
-1293.343491324416
 30
410.4821166992187
 11
726.1225124419657
 21
-1292.8217939742
 31
410.4821166992187
  0
ARC
  5
8EBF1
330
1F
100
AcDbEntity
  8
Default
100
AcDbCircle
 10
725.2878998835508
 20
-1293.956831605779
 30
410.4821166992187
 40
1.408860726886862
100
AcDbArc
 50
53.67232005805488
 51
143.4367134050243
  0
SPLINE
  5
8EBF2
330
1F
100
AcDbEntity
  8
Default
100
AcDbSpline
210
0.0
220
0.0
230
1.0
 70
    24
 71
     2
 72
     6
 73
     3
 74
     0
 42
0.000000001
 43
0.0000000001
 40
0.0
 40
0.0
 40
0.0
 40
0.5261413565638918
 40
0.5261413565638918
 40
0.5261413565638918
 10
724.1563038589037
 20
-1293.117558715256
 30
410.4821166992187
 10
720.2950461372225
 20
-1298.593898433993
 30
410.4821166992187
 10
716.4337884155411
 20
-1304.07023815273
 30
410.4821166992187
  0
LINE
  5
8EBF3
330
1F
100
AcDbEntity
  8
Default
100
AcDbLine
 10
735.9143752258278
 20
-1299.746516687774
 30
410.4821166992187
 11
736.6437969193062
 21
-1300.239894256632
 31
410.4821166992187
  0
ARC
  5
8EBF4
330
1F
100
AcDbEntity
  8
Default
100
AcDbCircle
 10
735.8538404435376
 20
-1301.40778559726
 30
410.4821166992187
 40
1.4099650411
100
AcDbArc
 50
324.353366678632
 51
55.92575542987414
  0
SPLINE
  5
8EBF5
330
1F
100
AcDbEntity
  8
Default
100
AcDbSpline
210
0.0
220
0.0
230
1.0
 70
    24
 71
     2
 72
     6
 73
     3
 74
     0
 42
0.000000001
 43
0.0000000001
 40
0.0
 40
0.0
 40
0.0
 40
0.6042235994859217
 40
0.6042235994859217
 40
0.6042235994859217
 10
736.9996156805751
 20
-1302.229491459059
 30
410.4821166992187
 10
732.5724312608622
 20
-1308.508682211268
 30
410.4821166992187
 10
728.1452468411498
 20
-1314.787872963477
 30
410.4821166992187
  0
ENDSEC
  0
SECTION
  2
OBJECTS
  0
DICTIONARY
  5
C
330
0
100
AcDbDictionary
281
     1
  3
ACAD_BACKGROUND
350
8E662
  3
ACAD_CIP_PREVIOUS_PRODUCT_INFO
350
8E647
  3
ACAD_COLOR
350
8E63F
  3
ACAD_DETAILVIEWSTYLE
350
8E63C
  3
ACAD_GROUP
350
D
  3
ACAD_LAYOUT
350
1A
  3
ACAD_MATERIAL
350
43
  3
ACAD_MLEADERSTYLE
350
8E63B
  3
ACAD_MLINESTYLE
350
17
  3
ACAD_PLOTSETTINGS
350
19
  3
ACAD_PLOTSTYLENAME
350
E
  3
ACAD_SCALELIST
350
47
  3
ACAD_SECTIONVIEWSTYLE
350
8E63D
  3
ACAD_TABLESTYLE
350
8E63A
  3
ACAD_VISUALSTYLE
350
2A
  3
ACDB_RECOMPOSE_DATA
350
8EC1C
  3
AcDbVariableDictionary
350
8E601
  0
DICTIONARY
  5
8E5FF
330
8
100
AcDbDictionary
280
     1
281
     1
  0
SUN
  5
69
330
29
100
AcDbSun
 90
        1
290
     0
 63
     7
421
 16777215
 40
1.0
291
     1
 91
  2455826
 92
 54000000
292
     0
 70
     0
 71
   256
280
     1
  0
DICTIONARY
  5
8E64F
330
2
100
AcDbDictionary
280
     1
281
     1
  3
ACAD_LAYERSTATES
360
8E650
  0
DICTIONARY
  5
8E648
330
10
100
AcDbDictionary
280
     1
281
     1
  3
ADSK_XREC_LAYER_RECONCILED
360
8E649
  0
DICTIONARY
  5
8E64A
330
6A
100
AcDbDictionary
280
     1
281
     1
  3
ADSK_XREC_LAYER_RECONCILED
360
8E64B
  0
DICTIONARY
  5
8E7A5
330
1F
100
AcDbDictionary
280
     1
281
     1
  3
ACAD_SORTENTS
360
8E7A6
  0
DICTIONARY
  5
8E662
102
{ACAD_REACTORS
330
C
102
}
330
C
100
AcDbDictionary
281
     1
  0
XRECORD
  5
8E647
102
{ACAD_REACTORS
330
C
102
}
330
C
100
AcDbXrecord
280
     1
300
ACD
300
2016
300
ACD_F_S
  0
DICTIONARY
  5
8E63F
102
{ACAD_REACTORS
330
C
102
}
330
C
100
AcDbDictionary
281
     1
  0
DICTIONARY
  5
8E63C
102
{ACAD_REACTORS
330
C
102
}
330
C
100
AcDbDictionary
281
     1
  3
Imperial24
350
8E643
  0
DICTIONARY
  5
D
102
{ACAD_REACTORS
330
C
102
}
330
C
100
AcDbDictionary
281
     1
  0
DICTIONARY
  5
1A
102
{ACAD_REACTORS
330
C
102
}
330
C
100
AcDbDictionary
281
     1
  3
Layout1
350
1E
  3
Layout2
350
26
  3
Model
350
22
  0
DICTIONARY
  5
43
102
{ACAD_REACTORS
330
C
102
}
330
C
100
AcDbDictionary
281
     1
  3
ByBlock
350
45
  3
ByLayer
350
44
  3
Global
350
46
  0
DICTIONARY
  5
8E63B
102
{ACAD_REACTORS
330
C
102
}
330
C
100
AcDbDictionary
281
     1
  3
Standard
350
8E641
  0
DICTIONARY
  5
17
102
{ACAD_REACTORS
330
C
102
}
330
C
100
AcDbDictionary
281
     1
  3
Standard
350
18
  0
DICTIONARY
  5
19
102
{ACAD_REACTORS
330
C
102
}
330
C
100
AcDbDictionary
281
     1
  0
ACDBDICTIONARYWDFLT
  5
E
102
{ACAD_REACTORS
330
C
102
}
330
C
100
AcDbDictionary
281
     1
  3
Normal
350
F
100
AcDbDictionaryWithDefault
340
F
  0
DICTIONARY
  5
47
102
{ACAD_REACTORS
330
C
102
}
330
C
100
AcDbDictionary
281
     1
  3
A0
350
48
  3
A1
350
49
  3
A2
350
4A
  3
A3
350
4B
  3
A4
350
4C
  3
A5
350
4D
  3
A6
350
4E
  3
A7
350
4F
  3
A8
350
50
  3
A9
350
51
  3
B0
350
52
  3
B1
350
53
  3
B2
350
54
  3
B3
350
55
  3
B4
350
56
  3
B5
350
57
  3
B6
350
58
  3
B7
350
59
  3
B8
350
5A
  3
B9
350
5B
  3
C0
350
5C
  3
C1
350
5D
  3
C2
350
5E
  3
C3
350
5F
  3
C4
350
60
  3
C5
350
61
  3
C6
350
62
  3
C7
350
63
  3
C8
350
64
  3
C9
350
65
  3
D0
350
66
  3
D1
350
67
  3
D2
350
68
  0
DICTIONARY
  5
8E63D
102
{ACAD_REACTORS
330
C
102
}
330
C
100
AcDbDictionary
281
     1
  3
Imperial24
350
8E642
  0
DICTIONARY
  5
8E63A
102
{ACAD_REACTORS
330
C
102
}
330
C
100
AcDbDictionary
281
     1
  3
Standard
350
8E640
  0
DICTIONARY
  5
2A
102
{ACAD_REACTORS
330
C
102
}
330
C
100
AcDbDictionary
281
     1
  3
2dWireframe
350
2F
  3
3D Hidden
350
8E681
  3
3dWireframe
350
8E682
  3
Basic
350
32
  3
Brighten
350
36
  3
ColorChange
350
3A
  3
Conceptual
350
34
  3
Dim
350
35
  3
EdgeColorOff
350
3D
  3
Facepattern
350
39
  3
Flat
350
2B
  3
FlatWithEdges
350
2C
  3
Gouraud
350
2D
  3
GouraudWithEdges
350
2E
  3
Hidden
350
31
  3
JitterOff
350
3B
  3
Linepattern
350
38
  3
OverhangOff
350
3C
  3
Realistic
350
33
  3
Shaded
350
42
  3
Shaded with edges
350
41
  3
Shades of Gray
350
3E
  3
Sketchy
350
3F
  3
Thicken
350
37
  3
Wireframe
350
30
  3
X-Ray
350
40
  0
XRECORD
  5
8EC1C
102
{ACAD_REACTORS
330
C
102
}
330
C
100
AcDbXrecord
280
     1
 90
        1
330
8E640
330
8E642
330
8E643
  0
DICTIONARY
  5
8E601
102
{ACAD_REACTORS
330
C
102
}
330
C
100
AcDbDictionary
281
     1
  3
CANNOSCALE
350
8E602
  3
CMLEADERSTYLE
350
8E672
  3
CTABLESTYLE
350
8E671
  3
CVIEWDETAILSTYLE
350
8E673
  3
CVIEWSECTIONSTYLE
350
8E674
  3
LAYEREVAL
350
8E676
  3
LAYERNOTIFY
350
8E677
  3
LIGHTINGUNITS
350
8E675
  3
MSLTSCALE
350
8E603
  0
DICTIONARY
  5
8E650
102
{ACAD_REACTORS
330
8E64F
102
}
330
8E64F
100
AcDbDictionary
281
     1
  0
XRECORD
  5
8E649
102
{ACAD_REACTORS
330
8E648
102
}
330
8E648
100
AcDbXrecord
280
     1
290
     1
  0
XRECORD
  5
8E64B
102
{ACAD_REACTORS
330
8E64A
102
}
330
8E64A
100
AcDbXrecord
280
     1
290
     1
  0
SORTENTSTABLE
  5
8E7A6
102
{ACAD_REACTORS
330
8E7A5
102
}
330
8E7A5
100
AcDbSortentsTable
330
1F
331
8EA37
  5
8EA37
331
8EA33
  5
8EA33
331
8E8B3
  5
8E8B3
331
8E8AF
  5
8E8AF
331
8EA53
  5
8EA53
331
8EA4F
  5
8EA4F
331
8EA4B
  5
8EA4B
331
8EA47
  5
8EA47
331
8EA43
  5
8EA43
331
8EA3F
  5
8EA3F
331
8EA3B
  5
8EA3B
331
8EA36
  5
8EA36
331
8EA32
  5
8EA32
331
8E8B2
  5
8E8B2
331
8E8AE
  5
8E8AE
331
8EA52
  5
8EA52
331
8EA4E
  5
8EA4E
331
8EA4A
  5
8EA4A
331
8EA46
  5
8EA46
331
8EA42
  5
8EA42
331
8EA3E
  5
8EA3E
331
8EA3A
  5
8EA3A
331
8EA35
  5
8EA35
331
8E8B1
  5
8E8B1
331
8E8AD
  5
8E8AD
331
8EA55
  5
8EA55
331
8EA51
  5
8EA51
331
8EA4D
  5
8EA4D
331
8EA49
  5
8EA49
331
8EA45
  5
8EA45
331
8EA41
  5
8EA41
331
8EA3D
  5
8EA3D
331
8EA39
  5
8EA39
331
8EA34
  5
8EA34
331
8E8B0
  5
8E8B0
331
8E8AC
  5
8E8AC
331
8EA54
  5
8EA54
331
8EA50
  5
8EA50
331
8EA4C
  5
8EA4C
331
8EA48
  5
8EA48
331
8EA44
  5
8EA44
331
8EA40
  5
8EA40
331
8EA3C
  5
8EA3C
331
8EA38
  5
8EA38
  0
ACDBDETAILVIEWSTYLE
  5
8E643
102
{ACAD_XDICTIONARY
360
8E66E
102
}
102
{ACAD_REACTORS
330
8E63C
102
}
330
8E63C
100
AcDbModelDocViewStyle
 70
     0
  3
Imperial24
290
     0
100
AcDbDetailViewStyle
 70
     0
 71
     0
 90
        3
 71
     1
340
11
 62
   256
 40
0.24
340
0
 62
   256
 40
0.24
300

 40
0.36
280
     3
 71
     2
340
16
 90
       25
 62
   256
 71
     3
340
11
 62
   256
 40
0.24
 90
        1
 40
0.75
 90
        1
300
%<\AcVar ViewType \f "%tc1">% %<\AcVar ViewDetailId>%\PSCALE %<\AcVar ViewScale \f "%sn">%
 71
     4
340
16
 90
       25
 62
   256
340
16
 90
       25
 62
   256
280
     0
  0
LAYOUT
  5
1E
102
{ACAD_REACTORS
330
1A
102
}
330
1A
100
AcDbPlotSettings
  1

  2
none_device
  4

  6

 40
0.0
 41
0.0
 42
0.0
 43
0.0
 44
0.0
 45
0.0
 46
0.0
 47
0.0
 48
0.0
 49
0.0
140
0.0
141
0.0
142
1.0
143
1.0
 70
   688
 72
     0
 73
     0
 74
     5
  7

 75
    16
147
1.0
 76
     0
 77
     2
 78
   300
148
0.0
149
0.0
100
AcDbLayout
  1
Layout1
 70
     1
 71
     1
 10
0.0
 20
0.0
 11
12.0
 21
9.0
 12
0.0
 22
0.0
 32
0.0
 14
1.000000000000000E+20
 24
1.000000000000000E+20
 34
1.000000000000000E+20
 15
-1.000000000000000E+20
 25
-1.000000000000000E+20
 35
-1.000000000000000E+20
146
0.0
 13
0.0
 23
0.0
 33
0.0
 16
1.0
 26
0.0
 36
0.0
 17
0.0
 27
1.0
 37
0.0
 76
     0
330
1B
  0
LAYOUT
  5
26
102
{ACAD_REACTORS
330
1A
102
}
330
1A
100
AcDbPlotSettings
  1

  2
none_device
  4

  6

 40
0.0
 41
0.0
 42
0.0
 43
0.0
 44
0.0
 45
0.0
 46
0.0
 47
0.0
 48
0.0
 49
0.0
140
0.0
141
0.0
142
1.0
143
1.0
 70
   688
 72
     0
 73
     0
 74
     5
  7

 75
    16
147
1.0
 76
     0
 77
     2
 78
   300
148
0.0
149
0.0
100
AcDbLayout
  1
Layout2
 70
     1
 71
     2
 10
0.0
 20
0.0
 11
0.0
 21
0.0
 12
0.0
 22
0.0
 32
0.0
 14
0.0
 24
0.0
 34
0.0
 15
0.0
 25
0.0
 35
0.0
146
0.0
 13
0.0
 23
0.0
 33
0.0
 16
1.0
 26
0.0
 36
0.0
 17
0.0
 27
1.0
 37
0.0
 76
     0
330
23
  0
LAYOUT
  5
22
102
{ACAD_REACTORS
330
1A
102
}
330
1A
100
AcDbPlotSettings
  1

  2
none_device
  4
Letter_(8.50_x_11.00_Inches)
  6

 40
6.349999999999999
 41
6.349999999999999
 42
6.350005079999999
 43
6.350005079999999
 44
215.9
 45
279.4
 46
0.0
 47
0.0
 48
0.0
 49
0.0
140
0.0
141
0.0
142
1.0
143
1.0
 70
  1712
 72
     0
 73
     0
 74
     0
  7

 75
     0
147
1.0
 76
     0
 77
     2
 78
   300
148
0.0
149
0.0
100
AcDbLayout
  1
Model
 70
     1
 71
     0
 10
0.0
 20
0.0
 11
12.0
 21
9.0
 12
0.0
 22
0.0
 32
0.0
 14
-1499.4951171875
 24
-1499.49365234375
 34
-0.000000000000036
 15
1499.4951171875
 25
1499.49365234375
 35
856.6937255859375
146
0.0
 13
0.0
 23
0.0
 33
0.0
 16
1.0
 26
0.0
 36
0.0
 17
0.0
 27
1.0
 37
0.0
 76
     0
330
1F
331
29
  0
MATERIAL
  5
45
102
{ACAD_REACTORS
330
43
102
}
330
43
100
AcDbMaterial
  1
ByBlock
 73
     1
 78
     1
172
     1
176
     1
270
     1
274
     1
  0
MATERIAL
  5
44
102
{ACAD_REACTORS
330
43
102
}
330
43
100
AcDbMaterial
  1
ByLayer
 73
     1
 78
     1
172
     1
176
     1
270
     1
274
     1
  0
MATERIAL
  5
46
102
{ACAD_REACTORS
330
43
102
}
330
43
100
AcDbMaterial
  1
Global
 73
     1
 78
     1
172
     1
176
     1
270
     1
274
     1
  0
MLEADERSTYLE
  5
8E641
102
{ACAD_REACTORS
330
8E63B
102
}
330
8E63B
100
AcDbMLeaderStyle
179
     2
170
     2
171
     1
172
     0
 90
        2
 40
0.0
 41
0.0
173
     1
 91
-1056964608
340
14
 92
       -2
290
     1
 42
0.09
291
     1
 43
0.36
  3
Standard
 44
0.18
300

342
11
174
     1
178
     6
175
     1
176
     0
 93
-1056964608
 45
0.18
292
     0
297
     0
 46
0.18
 94
-1056964608
 47
1.0
 49
1.0
140
1.0
293
     1
141
0.0
294
     1
177
     0
142
1.0
295
     1
296
     0
143
0.125
271
     0
272
     9
273
     9
298
     1
  0
MLINESTYLE
  5
18
102
{ACAD_REACTORS
330
17
102
}
330
17
100
AcDbMlineStyle
  2
STANDARD
 70
     0
  3

 62
   256
 51
90.0
 52
90.0
 71
     2
 49
0.5
 62
   256
  6
BYLAYER
 49
-0.5
 62
   256
  6
BYLAYER
  0
ACDBPLACEHOLDER
  5
F
102
{ACAD_REACTORS
330
E
102
}
330
E
  0
SCALE
  5
48
102
{ACAD_REACTORS
330
47
102
}
330
47
100
AcDbScale
 70
     0
300
1:1
140
1.0
141
1.0
290
     1
  0
SCALE
  5
49
102
{ACAD_REACTORS
330
47
102
}
330
47
100
AcDbScale
 70
     0
300
1:2
140
1.0
141
2.0
290
     0
  0
SCALE
  5
4A
102
{ACAD_REACTORS
330
47
102
}
330
47
100
AcDbScale
 70
     0
300
1:4
140
1.0
141
4.0
290
     0
  0
SCALE
  5
4B
102
{ACAD_REACTORS
330
47
102
}
330
47
100
AcDbScale
 70
     0
300
1:5
140
1.0
141
5.0
290
     0
  0
SCALE
  5
4C
102
{ACAD_REACTORS
330
47
102
}
330
47
100
AcDbScale
 70
     0
300
1:8
140
1.0
141
8.0
290
     0
  0
SCALE
  5
4D
102
{ACAD_REACTORS
330
47
102
}
330
47
100
AcDbScale
 70
     0
300
1:10
140
1.0
141
10.0
290
     0
  0
SCALE
  5
4E
102
{ACAD_REACTORS
330
47
102
}
330
47
100
AcDbScale
 70
     0
300
1:16
140
1.0
141
16.0
290
     0
  0
SCALE
  5
4F
102
{ACAD_REACTORS
330
47
102
}
330
47
100
AcDbScale
 70
     0
300
1:20
140
1.0
141
20.0
290
     0
  0
SCALE
  5
50
102
{ACAD_REACTORS
330
47
102
}
330
47
100
AcDbScale
 70
     0
300
1:30
140
1.0
141
30.0
290
     0
  0
SCALE
  5
51
102
{ACAD_REACTORS
330
47
102
}
330
47
100
AcDbScale
 70
     0
300
1:40
140
1.0
141
40.0
290
     0
  0
SCALE
  5
52
102
{ACAD_REACTORS
330
47
102
}
330
47
100
AcDbScale
 70
     0
300
1:50
140
1.0
141
50.0
290
     0
  0
SCALE
  5
53
102
{ACAD_REACTORS
330
47
102
}
330
47
100
AcDbScale
 70
     0
300
1:100
140
1.0
141
100.0
290
     0
  0
SCALE
  5
54
102
{ACAD_REACTORS
330
47
102
}
330
47
100
AcDbScale
 70
     0
300
2:1
140
2.0
141
1.0
290
     0
  0
SCALE
  5
55
102
{ACAD_REACTORS
330
47
102
}
330
47
100
AcDbScale
 70
     0
300
4:1
140
4.0
141
1.0
290
     0
  0
SCALE
  5
56
102
{ACAD_REACTORS
330
47
102
}
330
47
100
AcDbScale
 70
     0
300
8:1
140
8.0
141
1.0
290
     0
  0
SCALE
  5
57
102
{ACAD_REACTORS
330
47
102
}
330
47
100
AcDbScale
 70
     0
300
10:1
140
10.0
141
1.0
290
     0
  0
SCALE
  5
58
102
{ACAD_REACTORS
330
47
102
}
330
47
100
AcDbScale
 70
     0
300
100:1
140
100.0
141
1.0
290
     0
  0
SCALE
  5
59
102
{ACAD_REACTORS
330
47
102
}
330
47
100
AcDbScale
 70
     0
300
1/128" = 1'-0"
140
0.0078125
141
12.0
290
     0
  0
SCALE
  5
5A
102
{ACAD_REACTORS
330
47
102
}
330
47
100
AcDbScale
 70
     0
300
1/64" = 1'-0"
140
0.015625
141
12.0
290
     0
  0
SCALE
  5
5B
102
{ACAD_REACTORS
330
47
102
}
330
47
100
AcDbScale
 70
     0
300
1/32" = 1'-0"
140
0.03125
141
12.0
290
     0
  0
SCALE
  5
5C
102
{ACAD_REACTORS
330
47
102
}
330
47
100
AcDbScale
 70
     0
300
1/16" = 1'-0"
140
0.0625
141
12.0
290
     0
  0
SCALE
  5
5D
102
{ACAD_REACTORS
330
47
102
}
330
47
100
AcDbScale
 70
     0
300
3/32" = 1'-0"
140
0.09375
141
12.0
290
     0
  0
SCALE
  5
5E
102
{ACAD_REACTORS
330
47
102
}
330
47
100
AcDbScale
 70
     0
300
1/8" = 1'-0"
140
0.125
141
12.0
290
     0
  0
SCALE
  5
5F
102
{ACAD_REACTORS
330
47
102
}
330
47
100
AcDbScale
 70
     0
300
3/16" = 1'-0"
140
0.1875
141
12.0
290
     0
  0
SCALE
  5
60
102
{ACAD_REACTORS
330
47
102
}
330
47
100
AcDbScale
 70
     0
300
1/4" = 1'-0"
140
0.25
141
12.0
290
     0
  0
SCALE
  5
61
102
{ACAD_REACTORS
330
47
102
}
330
47
100
AcDbScale
 70
     0
300
3/8" = 1'-0"
140
0.375
141
12.0
290
     0
  0
SCALE
  5
62
102
{ACAD_REACTORS
330
47
102
}
330
47
100
AcDbScale
 70
     0
300
1/2" = 1'-0"
140
0.5
141
12.0
290
     0
  0
SCALE
  5
63
102
{ACAD_REACTORS
330
47
102
}
330
47
100
AcDbScale
 70
     0
300
3/4" = 1'-0"
140
0.75
141
12.0
290
     0
  0
SCALE
  5
64
102
{ACAD_REACTORS
330
47
102
}
330
47
100
AcDbScale
 70
     0
300
1" = 1'-0"
140
1.0
141
12.0
290
     0
  0
SCALE
  5
65
102
{ACAD_REACTORS
330
47
102
}
330
47
100
AcDbScale
 70
     0
300
1-1/2" = 1'-0"
140
1.5
141
12.0
290
     0
  0
SCALE
  5
66
102
{ACAD_REACTORS
330
47
102
}
330
47
100
AcDbScale
 70
     0
300
3" = 1'-0"
140
3.0
141
12.0
290
     0
  0
SCALE
  5
67
102
{ACAD_REACTORS
330
47
102
}
330
47
100
AcDbScale
 70
     0
300
6" = 1'-0"
140
6.0
141
12.0
290
     0
  0
SCALE
  5
68
102
{ACAD_REACTORS
330
47
102
}
330
47
100
AcDbScale
 70
     0
300
1'-0" = 1'-0"
140
12.0
141
12.0
290
     0
  0
ACDBSECTIONVIEWSTYLE
  5
8E642
102
{ACAD_XDICTIONARY
360
8E66C
102
}
102
{ACAD_REACTORS
330
8E63D
102
}
330
8E63D
100
AcDbModelDocViewStyle
 70
     0
  3
Imperial24
290
     0
100
AcDbSectionViewStyle
 70
     0
 71
     0
 90
       78
 71
     1
340
11
 62
   256
 40
0.24
340
0
340
0
 62
   256
 40
0.24
300
I, O, Q, S, X, Z
 40
0.48
 90
        3
 40
0.18
 90
        1
 71
     2
340
16
 90
       25
 62
   256
340
16
 90
       50
 62
   256
 40
0.24
 40
0.0
 40
0.24
 71
     3
340
11
 62
   256
 40
0.24
 90
        1
 40
0.75
 90
        1
300
%<\AcVar ViewType \f "%tc1">% %<\AcVar ViewSectionStartId>%-%<\AcVar ViewSectionEndId>%\PSCALE %<\AcVar ViewScale \f "%sn">%
 71
     4
 62
   256
 62
   257
300
ANSI31
 40
1.0
 90
        0
290
     0
290
     0
 90
        6
 40
0.0
 40
1.570796326794896
 40
0.2617993877991494
 40
1.308996938995747
 40
-0.2617993877991494
 40
1.832595714594046
  0
TABLESTYLE
  5
8E640
102
{ACAD_XDICTIONARY
360
8EC18
102
}
102
{ACAD_REACTORS
330
8E63A
102
}
330
8E63A
100
AcDbTableStyle
280
     0
  3
Standard
 70
     0
 71
     0
 40
0.06
 41
0.06
280
     0
281
     0
  7
Standard
140
0.18
170
     2
 62
     0
 63
     7
283
     0
 90
      512
 91
        0
  1

274
    -2
284
     1
 64
     0
275
    -2
285
     1
 65
     0
276
    -2
286
     1
 66
     0
277
    -2
287
     1
 67
     0
278
    -2
288
     1
 68
     0
279
    -2
289
     1
 69
     0
  7
Standard
140
0.25
170
     5
 62
     0
 63
     7
283
     0
 90
      512
 91
        0
  1

274
    -2
284
     1
 64
     0
275
    -2
285
     1
 65
     0
276
    -2
286
     1
 66
     0
277
    -2
287
     1
 67
     0
278
    -2
288
     1
 68
     0
279
    -2
289
     1
 69
     0
  7
Standard
140
0.18
170
     5
 62
     0
 63
     7
283
     0
 90
      512
 91
        0
  1

274
    -2
284
     1
 64
     0
275
    -2
285
     1
 65
     0
276
    -2
286
     1
 66
     0
277
    -2
287
     1
 67
     0
278
    -2
288
     1
 68
     0
279
    -2
289
     1
 69
     0
  0
VISUALSTYLE
  5
2F
102
{ACAD_REACTORS
330
2A
102
}
330
2A
100
AcDbVisualStyle
  2
2dWireframe
 70
     4
177
     3
291
     0
 70
    58
 90
        0
176
     1
 90
        2
176
     1
 90
        0
176
     1
 90
        0
176
     1
 40
0.6
176
     1
 40
30.0
176
     1
 62
     7
420
 16777215
176
     1
 90
        1
176
     1
 90
        4
176
     1
 62
     7
176
     1
 62
   257
176
     1
 90
        1
176
     1
 90
        1
176
     1
 40
1.0
176
     1
 90
        0
176
     1
 62
   257
176
     1
 40
1.0
176
     1
 90
        1
176
     1
 90
        6
176
     1
 90
        2
176
     1
 62
     7
176
     1
 90
        5
176
     1
 90
        0
176
     1
 90
        0
176
     1
290
     0
176
     1
 90
        1
176
     1
 40
0.0
176
     1
 90
        0
176
     1
290
     1
176
     1
290
     1
176
     1
290
     0
176
     1
290
     0
176
     1
290
     0
176
     1
290
     0
176
     1
290
     0
176
     1
290
     0
176
     1
290
     0
176
     1
 90
       50
176
     1
 40
0.0
176
     1
 40
1.0
176
     1
 90
        0
176
     1
 62
    18
420
        0
176
     1
 90
       50
176
     1
 90
        3
176
     1
 62
     5
420
      255
176
     1
290
     0
176
     1
 90
       50
176
     1
 90
       50
176
     1
 90
       50
176
     1
290
     0
176
     1
 90
       50
176
     1
 62
   256
176
     0
 40
1.0
176
     0
 90
        2
176
     1
  1
strokes_ogs.tif
176
     1
290
     0
176
     1
 40
1.0
176
     1
 40
1.0
176
     1
  0
VISUALSTYLE
  5
8E681
102
{ACAD_REACTORS
330
2A
102
}
330
2A
100
AcDbVisualStyle
  2

 70
     6
177
     3
291
     0
 70
    58
 90
        1
176
     1
 90
        2
176
     1
 90
        2
176
     1
 90
        0
176
     1
 40
0.6
176
     1
 40
30.0
176
     1
 62
     7
420
 16777215
176
     1
 90
        2
176
     1
 90
        2
176
     1
 62
     7
176
     1
 62
   257
176
     1
 90
        2
176
     1
 90
        1
176
     1
 40
40.0
176
     1
 90
        0
176
     1
 62
   257
176
     1
 40
1.0
176
     1
 90
        1
176
     1
 90
        6
176
     1
 90
        2
176
     1
 62
     7
176
     1
 90
        3
176
     1
 90
        0
176
     1
 90
        0
176
     1
290
     0
176
     1
 90
        1
176
     1
 40
0.0
176
     1
 90
        0
176
     1
290
     0
176
     1
290
     1
176
     1
290
     1
176
     1
290
     0
176
     1
290
     0
176
     1
290
     0
176
     1
290
     0
176
     1
290
     0
176
     1
290
     0
176
     1
 90
       50
176
     1
 40
0.0
176
     1
 40
1.0
176
     1
 90
        0
176
     1
 62
    18
420
        0
176
     1
 90
       50
176
     1
 90
        3
176
     1
 62
     5
420
      255
176
     1
290
     0
176
     1
 90
       50
176
     1
 90
       50
176
     1
 90
       50
176
     1
290
     0
176
     1
 90
       50
176
     1
 62
   256
176
     0
 40
1.0
176
     0
 90
        2
176
     1
  1
strokes_ogs.tif
176
     1
290
     0
176
     1
 40
1.0
176
     1
 40
1.0
176
     1
  0
VISUALSTYLE
  5
8E682
102
{ACAD_REACTORS
330
2A
102
}
330
2A
100
AcDbVisualStyle
  2

 70
     5
177
     3
291
     0
 70
    58
 90
        0
176
     1
 90
        2
176
     1
 90
        0
176
     1
 90
        0
176
     1
 40
0.6
176
     1
 40
30.0
176
     1
 62
     7
420
 16777215
176
     1
 90
        1
176
     1
 90
        4
176
     1
 62
     7
176
     1
 62
   257
176
     1
 90
        1
176
     1
 90
        1
176
     1
 40
1.0
176
     1
 90
        0
176
     1
 62
   257
176
     1
 40
1.0
176
     1
 90
        1
176
     1
 90
        6
176
     1
 90
        2
176
     1
 62
     7
176
     1
 90
        5
176
     1
 90
        0
176
     1
 90
        0
176
     1
290
     0
176
     1
 90
        1
176
     1
 40
0.0
176
     1
 90
        0
176
     1
290
     0
176
     1
290
     1
176
     1
290
     1
176
     1
290
     0
176
     1
290
     0
176
     1
290
     0
176
     1
290
     0
176
     1
290
     0
176
     1
290
     0
176
     1
 90
       50
176
     1
 40
0.0
176
     1
 40
1.0
176
     1
 90
        0
176
     1
 62
    18
420
        0
176
     1
 90
       50
176
     1
 90
        3
176
     1
 62
     5
420
      255
176
     1
290
     0
176
     1
 90
       50
176
     1
 90
       50
176
     1
 90
       50
176
     1
290
     0
176
     1
 90
       50
176
     1
 62
   256
176
     0
 40
1.0
176
     0
 90
        2
176
     1
  1
strokes_ogs.tif
176
     1
290
     0
176
     1
 40
1.0
176
     1
 40
1.0
176
     1
  0
VISUALSTYLE
  5
32
102
{ACAD_REACTORS
330
2A
102
}
330
2A
100
AcDbVisualStyle
  2
Basic
 70
     7
177
     3
291
     1
 70
    58
 90
        1
176
     1
 90
        0
176
     1
 90
        1
176
     1
 90
        0
176
     1
 40
0.6
176
     1
 40
30.0
176
     1
 62
     7
420
 16777215
176
     1
 90
        0
176
     1
 90
        4
176
     1
 62
     7
176
     1
 62
   257
176
     1
 90
        1
176
     1
 90
        1
176
     1
 40
1.0
176
     1
 90
        8
176
     1
 62
     7
176
     1
 40
1.0
176
     1
 90
        1
176
     1
 90
        6
176
     1
 90
        2
176
     1
 62
     7
176
     1
 90
        5
176
     1
 90
        0
176
     1
 90
        0
176
     1
290
     0
176
     1
 90
        1
176
     1
 40
0.0
176
     1
 90
        0
176
     1
290
     0
176
     1
290
     1
176
     1
290
     1
176
     1
290
     0
176
     1
290
     0
176
     1
290
     0
176
     1
290
     0
176
     1
290
     0
176
     1
290
     0
176
     1
 90
       50
176
     1
 40
0.0
176
     1
 40
1.0
176
     1
 90
        0
176
     1
 62
    18
420
        0
176
     1
 90
       50
176
     1
 90
        3
176
     1
 62
     5
420
      255
176
     1
290
     0
176
     1
 90
       50
176
     1
 90
       50
176
     1
 90
       50
176
     1
290
     0
176
     1
 90
       50
176
     1
 62
   256
176
     0
 40
1.0
176
     0
 90
        2
176
     1
  1
strokes_ogs.tif
176
     1
290
     0
176
     1
 40
1.0
176
     1
 40
1.0
176
     1
  0
VISUALSTYLE
  5
36
102
{ACAD_REACTORS
330
2A
102
}
330
2A
100
AcDbVisualStyle
  2
Brighten
 70
    12
177
     3
291
     1
 70
    58
 90
        2
176
     1
 90
        2
176
     1
 90
        0
176
     1
 90
        0
176
     1
 40
0.6
176
     1
 40
30.0
176
     1
 62
     7
420
 16777215
176
     1
 90
        1
176
     1
 90
        4
176
     1
 62
     7
176
     1
 62
   257
176
     1
 90
        1
176
     1
 90
        1
176
     1
 40
1.0
176
     1
 90
        8
176
     1
 62
     7
176
     1
 40
1.0
176
     1
 90
        1
176
     1
 90
        6
176
     1
 90
        2
176
     1
 62
     7
176
     1
 90
        5
176
     1
 90
        0
176
     1
 90
        0
176
     1
290
     0
176
     1
 90
        1
176
     1
 40
50.0
176
     1
 90
        0
176
     1
290
     0
176
     1
290
     1
176
     1
290
     1
176
     1
290
     0
176
     1
290
     0
176
     1
290
     0
176
     1
290
     0
176
     1
290
     0
176
     1
290
     0
176
     1
 90
       50
176
     1
 40
0.0
176
     1
 40
1.0
176
     1
 90
        0
176
     1
 62
    18
420
        0
176
     1
 90
       50
176
     1
 90
        3
176
     1
 62
     5
420
      255
176
     1
290
     0
176
     1
 90
       50
176
     1
 90
       50
176
     1
 90
       50
176
     1
290
     0
176
     1
 90
       50
176
     1
 62
   256
176
     0
 40
1.0
176
     0
 90
        2
176
     1
  1
strokes_ogs.tif
176
     1
290
     0
176
     1
 40
1.0
176
     1
 40
1.0
176
     1
  0
VISUALSTYLE
  5
3A
102
{ACAD_REACTORS
330
2A
102
}
330
2A
100
AcDbVisualStyle
  2
ColorChange
 70
    16
177
     3
291
     1
 70
    58
 90
        2
176
     1
 90
        2
176
     1
 90
        3
176
     1
 90
        0
176
     1
 40
0.6
176
     1
 40
30.0
176
     1
 62
     8
420
  8421504
176
     1
 90
        1
176
     1
 90
        4
176
     1
 62
     7
176
     1
 62
   257
176
     1
 90
        1
176
     1
 90
        1
176
     1
 40
1.0
176
     1
 90
        8
176
     1
 62
     8
420
  8421504
176
     1
 40
1.0
176
     1
 90
        1
176
     1
 90
        6
176
     1
 90
        2
176
     1
 62
     7
176
     1
 90
        5
176
     1
 90
        0
176
     1
 90
        0
176
     1
290
     0
176
     1
 90
        1
176
     1
 40
0.0
176
     1
 90
        0
176
     1
290
     0
176
     1
290
     1
176
     1
290
     1
176
     1
290
     0
176
     1
290
     0
176
     1
290
     0
176
     1
290
     0
176
     1
290
     0
176
     1
290
     0
176
     1
 90
       50
176
     1
 40
0.0
176
     1
 40
1.0
176
     1
 90
        0
176
     1
 62
    18
420
        0
176
     1
 90
       50
176
     1
 90
        3
176
     1
 62
     5
420
      255
176
     1
290
     0
176
     1
 90
       50
176
     1
 90
       50
176
     1
 90
       50
176
     1
290
     0
176
     1
 90
       50
176
     1
 62
   256
176
     0
 40
1.0
176
     0
 90
        2
176
     1
  1
strokes_ogs.tif
176
     1
290
     0
176
     1
 40
1.0
176
     1
 40
1.0
176
     1
  0
VISUALSTYLE
  5
34
102
{ACAD_REACTORS
330
2A
102
}
330
2A
100
AcDbVisualStyle
  2
Conceptual
 70
     9
177
     3
291
     0
 70
    58
 90
        3
176
     1
 90
        2
176
     1
 90
        0
176
     1
 90
        0
176
     1
 40
0.6
176
     1
 40
30.0
176
     1
 62
     7
420
 16777215
176
     1
 90
        2
176
     1
 90
        2
176
     1
 62
     7
176
     1
 62
   257
176
     1
 90
        1
176
     1
 90
        1
176
     1
 40
179.0
176
     1
 90
        8
176
     1
 62
     7
176
     1
 40
1.0
176
     1
 90
        1
176
     1
 90
        6
176
     1
 90
        2
176
     1
 62
     7
176
     1
 90
        3
176
     1
 90
        0
176
     1
 90
        0
176
     1
290
     0
176
     1
 90
        1
176
     1
 40
0.0
176
     1
 90
        0
176
     1
290
     0
176
     1
290
     1
176
     1
290
     1
176
     1
290
     0
176
     1
290
     0
176
     1
290
     0
176
     1
290
     0
176
     1
290
     0
176
     1
290
     0
176
     1
 90
       50
176
     1
 40
0.0
176
     1
 40
1.0
176
     1
 90
        0
176
     1
 62
    18
420
        0
176
     1
 90
       50
176
     1
 90
        3
176
     1
 62
     5
420
      255
176
     1
290
     0
176
     1
 90
       50
176
     1
 90
       50
176
     1
 90
       50
176
     1
290
     0
176
     1
 90
       50
176
     1
 62
   256
176
     0
 40
1.0
176
     0
 90
        2
176
     1
  1
strokes_ogs.tif
176
     1
290
     0
176
     1
 40
1.0
176
     1
 40
1.0
176
     1
  0
VISUALSTYLE
  5
35
102
{ACAD_REACTORS
330
2A
102
}
330
2A
100
AcDbVisualStyle
  2
Dim
 70
    11
177
     3
291
     1
 70
    58
 90
        2
176
     1
 90
        2
176
     1
 90
        0
176
     1
 90
        0
176
     1
 40
0.6
176
     1
 40
30.0
176
     1
 62
     7
420
 16777215
176
     1
 90
        1
176
     1
 90
        4
176
     1
 62
     7
176
     1
 62
   257
176
     1
 90
        1
176
     1
 90
        1
176
     1
 40
1.0
176
     1
 90
        8
176
     1
 62
     7
176
     1
 40
1.0
176
     1
 90
        1
176
     1
 90
        6
176
     1
 90
        2
176
     1
 62
     7
176
     1
 90
        5
176
     1
 90
        0
176
     1
 90
        0
176
     1
290
     0
176
     1
 90
        1
176
     1
 40
-50.0
176
     1
 90
        0
176
     1
290
     0
176
     1
290
     1
176
     1
290
     1
176
     1
290
     0
176
     1
290
     0
176
     1
290
     0
176
     1
290
     0
176
     1
290
     0
176
     1
290
     0
176
     1
 90
       50
176
     1
 40
0.0
176
     1
 40
1.0
176
     1
 90
        0
176
     1
 62
    18
420
        0
176
     1
 90
       50
176
     1
 90
        3
176
     1
 62
     5
420
      255
176
     1
290
     0
176
     1
 90
       50
176
     1
 90
       50
176
     1
 90
       50
176
     1
290
     0
176
     1
 90
       50
176
     1
 62
   256
176
     0
 40
1.0
176
     0
 90
        2
176
     1
  1
strokes_ogs.tif
176
     1
290
     0
176
     1
 40
1.0
176
     1
 40
1.0
176
     1
  0
VISUALSTYLE
  5
3D
102
{ACAD_REACTORS
330
2A
102
}
330
2A
100
AcDbVisualStyle
  2
EdgeColorOff
 70
    22
177
     3
291
     1
 70
    58
 90
        2
176
     0
 90
        2
176
     0
 90
        0
176
     0
 90
        0
176
     0
 40
0.6
176
     0
 40
30.0
176
     0
 62
     7
420
 16777215
176
     0
 90
        1
176
     0
 90
        4
176
     0
 62
     7
176
     0
 62
   257
176
     0
 90
        1
176
     0
 90
        1
176
     0
 40
1.0
176
     0
 90
        8
176
     2
 62
     7
176
     0
 40
1.0
176
     0
 90
        1
176
     0
 90
        6
176
     0
 90
        2
176
     0
 62
     7
176
     0
 90
        5
176
     0
 90
        0
176
     0
 90
        0
176
     0
290
     0
176
     0
 90
        1
176
     0
 40
0.0
176
     0
 90
        0
176
     0
290
     0
176
     0
290
     1
176
     0
290
     1
176
     0
290
     0
176
     0
290
     0
176
     0
290
     0
176
     0
290
     0
176
     0
290
     0
176
     0
290
     0
176
     0
 90
       50
176
     0
 40
0.0
176
     0
 40
1.0
176
     0
 90
        0
176
     0
 62
    18
420
        0
176
     0
 90
       50
176
     0
 90
        3
176
     0
 62
     5
420
      255
176
     0
290
     0
176
     0
 90
       50
176
     0
 90
       50
176
     0
 90
       50
176
     0
290
     0
176
     0
 90
       50
176
     0
 62
   256
176
     0
 40
1.0
176
     0
 90
        2
176
     0
  1
strokes_ogs.tif
176
     0
290
     0
176
     0
 40
1.0
176
     0
 40
1.0
176
     0
  0
VISUALSTYLE
  5
39
102
{ACAD_REACTORS
330
2A
102
}
330
2A
100
AcDbVisualStyle
  2
Facepattern
 70
    15
177
     3
291
     1
 70
    58
 90
        2
176
     1
 90
        2
176
     1
 90
        0
176
     1
 90
        0
176
     1
 40
0.6
176
     1
 40
30.0
176
     1
 62
     7
420
 16777215
176
     1
 90
        1
176
     1
 90
        4
176
     1
 62
     7
176
     1
 62
   257
176
     1
 90
        1
176
     1
 90
        1
176
     1
 40
1.0
176
     1
 90
        8
176
     1
 62
     7
176
     1
 40
1.0
176
     1
 90
        1
176
     1
 90
        6
176
     1
 90
        2
176
     1
 62
     7
176
     1
 90
        5
176
     1
 90
        0
176
     1
 90
        0
176
     1
290
     0
176
     1
 90
        1
176
     1
 40
0.0
176
     1
 90
        0
176
     1
290
     0
176
     1
290
     1
176
     1
290
     1
176
     1
290
     0
176
     1
290
     0
176
     1
290
     0
176
     1
290
     0
176
     1
290
     0
176
     1
290
     0
176
     1
 90
       50
176
     1
 40
0.0
176
     1
 40
1.0
176
     1
 90
        0
176
     1
 62
    18
420
        0
176
     1
 90
       50
176
     1
 90
        3
176
     1
 62
     5
420
      255
176
     1
290
     0
176
     1
 90
       50
176
     1
 90
       50
176
     1
 90
       50
176
     1
290
     0
176
     1
 90
       50
176
     1
 62
   256
176
     0
 40
1.0
176
     0
 90
        2
176
     1
  1
strokes_ogs.tif
176
     1
290
     0
176
     1
 40
1.0
176
     1
 40
1.0
176
     1
  0
VISUALSTYLE
  5
2B
102
{ACAD_REACTORS
330
2A
102
}
330
2A
100
AcDbVisualStyle
  2
Flat
 70
     0
177
     3
291
     1
 70
    58
 90
        2
176
     1
 90
        1
176
     1
 90
        1
176
     1
 90
        2
176
     1
 40
0.6
176
     1
 40
30.0
176
     1
 62
     7
420
 16777215
176
     1
 90
        0
176
     1
 90
        0
176
     1
 62
     7
176
     1
 62
   257
176
     1
 90
        1
176
     1
 90
        1
176
     1
 40
1.0
176
     1
 90
        8
176
     1
 62
     7
176
     1
 40
1.0
176
     1
 90
        1
176
     1
 90
        6
176
     1
 90
        2
176
     1
 62
     7
176
     1
 90
        5
176
     1
 90
        0
176
     1
 90
        0
176
     1
290
     0
176
     1
 90
       13
176
     1
 40
0.0
176
     1
 90
        0
176
     1
290
     0
176
     1
290
     1
176
     1
290
     1
176
     1
290
     0
176
     1
290
     0
176
     1
290
     0
176
     1
290
     0
176
     1
290
     0
176
     1
290
     0
176
     1
 90
       50
176
     1
 40
0.0
176
     1
 40
1.0
176
     1
 90
        0
176
     1
 62
    18
420
        0
176
     1
 90
       50
176
     1
 90
        3
176
     1
 62
     5
420
      255
176
     1
290
     0
176
     1
 90
       50
176
     1
 90
       50
176
     1
 90
       50
176
     1
290
     0
176
     1
 90
       50
176
     1
 62
   256
176
     0
 40
1.0
176
     0
 90
        2
176
     1
  1
strokes_ogs.tif
176
     1
290
     0
176
     1
 40
1.0
176
     1
 40
1.0
176
     1
  0
VISUALSTYLE
  5
2C
102
{ACAD_REACTORS
330
2A
102
}
330
2A
100
AcDbVisualStyle
  2
FlatWithEdges
 70
     1
177
     3
291
     1
 70
    58
 90
        2
176
     1
 90
        1
176
     1
 90
        1
176
     1
 90
        2
176
     1
 40
0.6
176
     1
 40
30.0
176
     1
 62
     7
420
 16777215
176
     1
 90
        1
176
     1
 90
        0
176
     1
 62
     7
176
     1
 62
   257
176
     1
 90
        1
176
     1
 90
        1
176
     1
 40
1.0
176
     1
 90
        0
176
     1
 62
   257
176
     1
 40
1.0
176
     1
 90
        1
176
     1
 90
        6
176
     1
 90
        2
176
     1
 62
     7
176
     1
 90
        5
176
     1
 90
        0
176
     1
 90
        0
176
     1
290
     0
176
     1
 90
       13
176
     1
 40
0.0
176
     1
 90
        0
176
     1
290
     0
176
     1
290
     1
176
     1
290
     1
176
     1
290
     0
176
     1
290
     0
176
     1
290
     0
176
     1
290
     0
176
     1
290
     0
176
     1
290
     0
176
     1
 90
       50
176
     1
 40
0.0
176
     1
 40
1.0
176
     1
 90
        0
176
     1
 62
    18
420
        0
176
     1
 90
       50
176
     1
 90
        3
176
     1
 62
     5
420
      255
176
     1
290
     0
176
     1
 90
       50
176
     1
 90
       50
176
     1
 90
       50
176
     1
290
     0
176
     1
 90
       50
176
     1
 62
   256
176
     0
 40
1.0
176
     0
 90
        2
176
     1
  1
strokes_ogs.tif
176
     1
290
     0
176
     1
 40
1.0
176
     1
 40
1.0
176
     1
  0
VISUALSTYLE
  5
2D
102
{ACAD_REACTORS
330
2A
102
}
330
2A
100
AcDbVisualStyle
  2
Gouraud
 70
     2
177
     3
291
     1
 70
    58
 90
        2
176
     1
 90
        2
176
     1
 90
        1
176
     1
 90
        2
176
     1
 40
0.6
176
     1
 40
30.0
176
     1
 62
     7
420
 16777215
176
     1
 90
        0
176
     1
 90
        0
176
     1
 62
     7
176
     1
 62
   257
176
     1
 90
        1
176
     1
 90
        1
176
     1
 40
1.0
176
     1
 90
        0
176
     1
 62
     7
176
     1
 40
1.0
176
     1
 90
        1
176
     1
 90
        6
176
     1
 90
        2
176
     1
 62
     7
176
     1
 90
        5
176
     1
 90
        0
176
     1
 90
        0
176
     1
290
     0
176
     1
 90
       13
176
     1
 40
0.0
176
     1
 90
        0
176
     1
290
     0
176
     1
290
     1
176
     1
290
     1
176
     1
290
     0
176
     1
290
     0
176
     1
290
     0
176
     1
290
     0
176
     1
290
     0
176
     1
290
     0
176
     1
 90
       50
176
     1
 40
0.0
176
     1
 40
1.0
176
     1
 90
        0
176
     1
 62
    18
420
        0
176
     1
 90
       50
176
     1
 90
        3
176
     1
 62
     5
420
      255
176
     1
290
     0
176
     1
 90
       50
176
     1
 90
       50
176
     1
 90
       50
176
     1
290
     0
176
     1
 90
       50
176
     1
 62
   256
176
     0
 40
1.0
176
     0
 90
        2
176
     1
  1
strokes_ogs.tif
176
     1
290
     0
176
     1
 40
1.0
176
     1
 40
1.0
176
     1
  0
VISUALSTYLE
  5
2E
102
{ACAD_REACTORS
330
2A
102
}
330
2A
100
AcDbVisualStyle
  2
GouraudWithEdges
 70
     3
177
     3
291
     1
 70
    58
 90
        2
176
     1
 90
        2
176
     1
 90
        1
176
     1
 90
        2
176
     1
 40
0.6
176
     1
 40
30.0
176
     1
 62
     7
420
 16777215
176
     1
 90
        1
176
     1
 90
        0
176
     1
 62
     7
176
     1
 62
   257
176
     1
 90
        1
176
     1
 90
        1
176
     1
 40
1.0
176
     1
 90
        0
176
     1
 62
   257
176
     1
 40
1.0
176
     1
 90
        1
176
     1
 90
        6
176
     1
 90
        2
176
     1
 62
     7
176
     1
 90
        5
176
     1
 90
        0
176
     1
 90
        0
176
     1
290
     0
176
     1
 90
       13
176
     1
 40
0.0
176
     1
 90
        0
176
     1
290
     0
176
     1
290
     1
176
     1
290
     1
176
     1
290
     0
176
     1
290
     0
176
     1
290
     0
176
     1
290
     0
176
     1
290
     0
176
     1
290
     0
176
     1
 90
       50
176
     1
 40
0.0
176
     1
 40
1.0
176
     1
 90
        0
176
     1
 62
    18
420
        0
176
     1
 90
       50
176
     1
 90
        3
176
     1
 62
     5
420
      255
176
     1
290
     0
176
     1
 90
       50
176
     1
 90
       50
176
     1
 90
       50
176
     1
290
     0
176
     1
 90
       50
176
     1
 62
   256
176
     0
 40
1.0
176
     0
 90
        2
176
     1
  1
strokes_ogs.tif
176
     1
290
     0
176
     1
 40
1.0
176
     1
 40
1.0
176
     1
  0
VISUALSTYLE
  5
31
102
{ACAD_REACTORS
330
2A
102
}
330
2A
100
AcDbVisualStyle
  2
Hidden
 70
     6
177
     3
291
     0
 70
    58
 90
        1
176
     1
 90
        2
176
     1
 90
        2
176
     1
 90
        0
176
     1
 40
0.6
176
     1
 40
30.0
176
     1
 62
     7
420
 16777215
176
     1
 90
        2
176
     1
 90
        2
176
     1
 62
     7
176
     1
 62
   257
176
     1
 90
        2
176
     1
 90
        1
176
     1
 40
40.0
176
     1
 90
        0
176
     1
 62
   257
176
     1
 40
1.0
176
     1
 90
        1
176
     1
 90
        6
176
     1
 90
        2
176
     1
 62
     7
176
     1
 90
        3
176
     1
 90
        0
176
     1
 90
        0
176
     1
290
     0
176
     1
 90
        1
176
     1
 40
0.0
176
     1
 90
        0
176
     1
290
     0
176
     1
290
     1
176
     1
290
     1
176
     1
290
     0
176
     1
290
     0
176
     1
290
     0
176
     1
290
     0
176
     1
290
     0
176
     1
290
     0
176
     1
 90
       50
176
     1
 40
0.0
176
     1
 40
1.0
176
     1
 90
        0
176
     1
 62
    18
420
        0
176
     1
 90
       50
176
     1
 90
        3
176
     1
 62
     5
420
      255
176
     1
290
     0
176
     1
 90
       50
176
     1
 90
       50
176
     1
 90
       50
176
     1
290
     0
176
     1
 90
       50
176
     1
 62
   256
176
     0
 40
1.0
176
     0
 90
        2
176
     1
  1
strokes_ogs.tif
176
     1
290
     0
176
     1
 40
1.0
176
     1
 40
1.0
176
     1
  0
VISUALSTYLE
  5
3B
102
{ACAD_REACTORS
330
2A
102
}
330
2A
100
AcDbVisualStyle
  2
JitterOff
 70
    20
177
     3
291
     1
 70
    58
 90
        2
176
     0
 90
        2
176
     0
 90
        0
176
     0
 90
        0
176
     0
 40
0.6
176
     0
 40
30.0
176
     0
 62
     7
420
 16777215
176
     0
 90
        1
176
     0
 90
        4
176
     0
 62
     7
176
     0
 62
   257
176
     0
 90
        1
176
     0
 90
        1
176
     0
 40
1.0
176
     0
 90
       10
176
     2
 62
     7
176
     0
 40
1.0
176
     0
 90
        1
176
     0
 90
        6
176
     0
 90
        2
176
     0
 62
     7
176
     0
 90
        5
176
     0
 90
        0
176
     0
 90
        0
176
     0
290
     0
176
     0
 90
        1
176
     0
 40
0.0
176
     0
 90
        0
176
     0
290
     0
176
     0
290
     1
176
     0
290
     1
176
     0
290
     0
176
     0
290
     0
176
     0
290
     0
176
     0
290
     0
176
     0
290
     0
176
     0
290
     0
176
     0
 90
       50
176
     0
 40
0.0
176
     0
 40
1.0
176
     0
 90
        0
176
     0
 62
    18
420
        0
176
     0
 90
       50
176
     0
 90
        3
176
     0
 62
     5
420
      255
176
     0
290
     0
176
     0
 90
       50
176
     0
 90
       50
176
     0
 90
       50
176
     0
290
     0
176
     0
 90
       50
176
     0
 62
   256
176
     0
 40
1.0
176
     0
 90
        2
176
     0
  1
strokes_ogs.tif
176
     0
290
     0
176
     0
 40
1.0
176
     0
 40
1.0
176
     0
  0
VISUALSTYLE
  5
38
102
{ACAD_REACTORS
330
2A
102
}
330
2A
100
AcDbVisualStyle
  2
Linepattern
 70
    14
177
     3
291
     1
 70
    58
 90
        2
176
     1
 90
        2
176
     1
 90
        0
176
     1
 90
        0
176
     1
 40
0.6
176
     1
 40
30.0
176
     1
 62
     7
420
 16777215
176
     1
 90
        1
176
     1
 90
        4
176
     1
 62
     7
176
     1
 62
   257
176
     1
 90
        7
176
     1
 90
        7
176
     1
 40
1.0
176
     1
 90
        8
176
     1
 62
     7
176
     1
 40
1.0
176
     1
 90
        1
176
     1
 90
        6
176
     1
 90
        2
176
     1
 62
     7
176
     1
 90
        5
176
     1
 90
        0
176
     1
 90
        0
176
     1
290
     0
176
     1
 90
        1
176
     1
 40
0.0
176
     1
 90
        0
176
     1
290
     0
176
     1
290
     1
176
     1
290
     1
176
     1
290
     0
176
     1
290
     0
176
     1
290
     0
176
     1
290
     0
176
     1
290
     0
176
     1
290
     0
176
     1
 90
       50
176
     1
 40
0.0
176
     1
 40
1.0
176
     1
 90
        0
176
     1
 62
    18
420
        0
176
     1
 90
       50
176
     1
 90
        3
176
     1
 62
     5
420
      255
176
     1
290
     0
176
     1
 90
       50
176
     1
 90
       50
176
     1
 90
       50
176
     1
290
     0
176
     1
 90
       50
176
     1
 62
   256
176
     0
 40
1.0
176
     0
 90
        2
176
     1
  1
strokes_ogs.tif
176
     1
290
     0
176
     1
 40
1.0
176
     1
 40
1.0
176
     1
  0
VISUALSTYLE
  5
3C
102
{ACAD_REACTORS
330
2A
102
}
330
2A
100
AcDbVisualStyle
  2
OverhangOff
 70
    21
177
     3
291
     1
 70
    58
 90
        2
176
     0
 90
        2
176
     0
 90
        0
176
     0
 90
        0
176
     0
 40
0.6
176
     0
 40
30.0
176
     0
 62
     7
420
 16777215
176
     0
 90
        1
176
     0
 90
        4
176
     0
 62
     7
176
     0
 62
   257
176
     0
 90
        1
176
     0
 90
        1
176
     0
 40
1.0
176
     0
 90
        9
176
     2
 62
     7
176
     0
 40
1.0
176
     0
 90
        1
176
     0
 90
        6
176
     0
 90
        2
176
     0
 62
     7
176
     0
 90
        5
176
     0
 90
        0
176
     0
 90
        0
176
     0
290
     0
176
     0
 90
        1
176
     0
 40
0.0
176
     0
 90
        0
176
     0
290
     0
176
     0
290
     1
176
     0
290
     1
176
     0
290
     0
176
     0
290
     0
176
     0
290
     0
176
     0
290
     0
176
     0
290
     0
176
     0
290
     0
176
     0
 90
       50
176
     0
 40
0.0
176
     0
 40
1.0
176
     0
 90
        0
176
     0
 62
    18
420
        0
176
     0
 90
       50
176
     0
 90
        3
176
     0
 62
     5
420
      255
176
     0
290
     0
176
     0
 90
       50
176
     0
 90
       50
176
     0
 90
       50
176
     0
290
     0
176
     0
 90
       50
176
     0
 62
   256
176
     0
 40
1.0
176
     0
 90
        2
176
     0
  1
strokes_ogs.tif
176
     0
290
     0
176
     0
 40
1.0
176
     0
 40
1.0
176
     0
  0
VISUALSTYLE
  5
33
102
{ACAD_REACTORS
330
2A
102
}
330
2A
100
AcDbVisualStyle
  2
Realistic
 70
     8
177
     3
291
     0
 70
    58
 90
        2
176
     1
 90
        3
176
     1
 90
        0
176
     1
 90
        2
176
     1
 40
0.6
176
     1
 40
30.0
176
     1
 62
     7
420
 16777215
176
     1
 90
        0
176
     1
 90
        0
176
     1
 62
     7
176
     1
 62
   257
176
     1
 90
        1
176
     1
 90
        1
176
     1
 40
1.0
176
     1
 90
        8
176
     1
 62
   257
176
     1
 40
1.0
176
     1
 90
        1
176
     1
 90
        6
176
     1
 90
        2
176
     1
 62
     7
176
     1
 90
        3
176
     1
 90
        0
176
     1
 90
        0
176
     1
290
     0
176
     1
 90
       13
176
     1
 40
0.0
176
     1
 90
        0
176
     1
290
     0
176
     1
290
     1
176
     1
290
     1
176
     1
290
     0
176
     1
290
     0
176
     1
290
     0
176
     1
290
     0
176
     1
290
     0
176
     1
290
     0
176
     1
 90
       50
176
     1
 40
0.0
176
     1
 40
1.0
176
     1
 90
        0
176
     1
 62
    18
420
        0
176
     1
 90
       50
176
     1
 90
        3
176
     1
 62
     5
420
      255
176
     1
290
     0
176
     1
 90
       50
176
     1
 90
       50
176
     1
 90
       50
176
     1
290
     0
176
     1
 90
       50
176
     1
 62
   256
176
     0
 40
1.0
176
     0
 90
        2
176
     1
  1
strokes_ogs.tif
176
     1
290
     0
176
     1
 40
1.0
176
     1
 40
1.0
176
     1
  0
VISUALSTYLE
  5
42
102
{ACAD_REACTORS
330
2A
102
}
330
2A
100
AcDbVisualStyle
  2
Shaded
 70
    27
177
     3
291
     0
 70
    58
 90
        2
176
     1
 90
        2
176
     1
 90
        1
176
     1
 90
        2
176
     1
 40
0.6
176
     1
 40
30.0
176
     1
 62
     7
420
 16777215
176
     1
 90
        0
176
     1
 90
        4
176
     1
 62
     7
176
     1
 62
   257
176
     1
 90
        1
176
     1
 90
        1
176
     1
 40
1.0
176
     1
 90
        8
176
     1
 62
   257
176
     1
 40
1.0
176
     1
 90
        1
176
     1
 90
        6
176
     1
 90
        2
176
     1
 62
     8
420
  7895160
176
     1
 90
        3
176
     1
 90
        0
176
     1
 90
        0
176
     1
290
     0
176
     1
 90
        5
176
     1
 40
0.0
176
     1
 90
        0
176
     1
290
     0
176
     1
290
     1
176
     1
290
     1
176
     1
290
     0
176
     1
290
     0
176
     1
290
     0
176
     1
290
     0
176
     1
290
     0
176
     1
290
     0
176
     1
 90
       50
176
     1
 40
0.0
176
     1
 40
1.0
176
     1
 90
        0
176
     1
 62
    18
420
        0
176
     1
 90
       50
176
     1
 90
        3
176
     1
 62
     5
420
      255
176
     1
290
     0
176
     1
 90
       50
176
     1
 90
       50
176
     1
 90
       50
176
     1
290
     0
176
     1
 90
       50
176
     1
 62
   256
176
     0
 40
1.0
176
     0
 90
        2
176
     1
  1
strokes_ogs.tif
176
     1
290
     0
176
     1
 40
1.0
176
     1
 40
1.0
176
     1
  0
VISUALSTYLE
  5
41
102
{ACAD_REACTORS
330
2A
102
}
330
2A
100
AcDbVisualStyle
  2
Shaded with edges
 70
    26
177
     3
291
     0
 70
    58
 90
        2
176
     1
 90
        2
176
     1
 90
        1
176
     1
 90
        2
176
     1
 40
0.6
176
     1
 40
30.0
176
     1
 62
     7
420
 16777215
176
     1
 90
        1
176
     1
 90
       10
176
     1
 62
     7
176
     1
 62
   257
176
     1
 90
        2
176
     1
 90
        1
176
     1
 40
1.0
176
     1
 90
        8
176
     1
 62
   257
176
     1
 40
1.0
176
     1
 90
        1
176
     1
 90
        6
176
     1
 90
        2
176
     1
 62
     7
176
     1
 90
        3
176
     1
 90
        0
176
     1
 90
        0
176
     1
290
     0
176
     1
 90
        5
176
     1
 40
0.0
176
     1
 90
        0
176
     1
290
     0
176
     1
290
     1
176
     1
290
     1
176
     1
290
     0
176
     1
290
     0
176
     1
290
     0
176
     1
290
     0
176
     1
290
     0
176
     1
290
     0
176
     1
 90
       50
176
     1
 40
0.0
176
     1
 40
1.0
176
     1
 90
        0
176
     1
 62
    18
420
        0
176
     1
 90
       50
176
     1
 90
        3
176
     1
 62
     5
420
      255
176
     1
290
     0
176
     1
 90
       50
176
     1
 90
       50
176
     1
 90
       50
176
     1
290
     0
176
     1
 90
       50
176
     1
 62
   256
176
     0
 40
1.0
176
     0
 90
        2
176
     1
  1
strokes_ogs.tif
176
     1
290
     0
176
     1
 40
1.0
176
     1
 40
1.0
176
     1
  0
VISUALSTYLE
  5
3E
102
{ACAD_REACTORS
330
2A
102
}
330
2A
100
AcDbVisualStyle
  2
Shades of Gray
 70
    23
177
     3
291
     0
 70
    58
 90
        2
176
     1
 90
        2
176
     1
 90
        3
176
     1
 90
        0
176
     1
 40
0.6
176
     1
 40
30.0
176
     1
 62
     7
420
 16777215
176
     1
 90
        2
176
     1
 90
        2
176
     1
 62
     7
176
     1
 62
     7
176
     1
 90
        1
176
     1
 90
        1
176
     1
 40
40.0
176
     1
 90
        8
176
     1
 62
     7
176
     1
 40
1.0
176
     1
 90
        1
176
     1
 90
        6
176
     1
 90
        2
176
     1
 62
     7
176
     1
 90
        3
176
     1
 90
        0
176
     1
 90
        0
176
     1
290
     0
176
     1
 90
        1
176
     1
 40
0.0
176
     1
 90
        0
176
     1
290
     0
176
     1
290
     1
176
     1
290
     1
176
     1
290
     0
176
     1
290
     0
176
     1
290
     0
176
     1
290
     0
176
     1
290
     0
176
     1
290
     0
176
     1
 90
       50
176
     1
 40
0.0
176
     1
 40
1.0
176
     1
 90
        0
176
     1
 62
    18
420
        0
176
     1
 90
       50
176
     1
 90
        3
176
     1
 62
     5
420
      255
176
     1
290
     0
176
     1
 90
       50
176
     1
 90
       50
176
     1
 90
       50
176
     1
290
     0
176
     1
 90
       50
176
     1
 62
   256
176
     0
 40
1.0
176
     0
 90
        2
176
     1
  1
strokes_ogs.tif
176
     1
290
     0
176
     1
 40
1.0
176
     1
 40
1.0
176
     1
  0
VISUALSTYLE
  5
3F
102
{ACAD_REACTORS
330
2A
102
}
330
2A
100
AcDbVisualStyle
  2
Sketchy
 70
    24
177
     3
291
     0
 70
    58
 90
        1
176
     1
 90
        2
176
     1
 90
        2
176
     1
 90
        0
176
     1
 40
0.6
176
     1
 40
30.0
176
     1
 62
     7
420
 16777215
176
     1
 90
        2
176
     1
 90
        2
176
     1
 62
     7
176
     1
 62
     7
176
     1
 90
        1
176
     1
 90
        1
176
     1
 40
40.0
176
     1
 90
       11
176
     1
 62
     7
176
     1
 40
1.0
176
     1
 90
        1
176
     1
 90
        6
176
     1
 90
        2
176
     1
 62
     7
176
     1
 90
        6
176
     1
 90
        0
176
     1
 90
        0
176
     1
290
     0
176
     1
 90
        1
176
     1
 40
0.0
176
     1
 90
        0
176
     1
290
     0
176
     1
290
     1
176
     1
290
     1
176
     1
290
     0
176
     1
290
     0
176
     1
290
     0
176
     1
290
     0
176
     1
290
     0
176
     1
290
     0
176
     1
 90
       50
176
     1
 40
0.0
176
     1
 40
1.0
176
     1
 90
        0
176
     1
 62
    18
420
        0
176
     1
 90
       50
176
     1
 90
        3
176
     1
 62
     5
420
      255
176
     1
290
     0
176
     1
 90
       50
176
     1
 90
       50
176
     1
 90
       50
176
     1
290
     0
176
     1
 90
       50
176
     1
 62
   256
176
     0
 40
1.0
176
     0
 90
        2
176
     1
  1
strokes_ogs.tif
176
     1
290
     0
176
     1
 40
1.0
176
     1
 40
1.0
176
     1
  0
VISUALSTYLE
  5
37
102
{ACAD_REACTORS
330
2A
102
}
330
2A
100
AcDbVisualStyle
  2
Thicken
 70
    13
177
     3
291
     1
 70
    58
 90
        2
176
     1
 90
        2
176
     1
 90
        0
176
     1
 90
        0
176
     1
 40
0.6
176
     1
 40
30.0
176
     1
 62
     7
420
 16777215
176
     1
 90
        1
176
     1
 90
        4
176
     1
 62
     7
176
     1
 62
   257
176
     1
 90
        1
176
     1
 90
        1
176
     1
 40
1.0
176
     1
 90
       12
176
     1
 62
     7
176
     1
 40
1.0
176
     1
 90
        1
176
     1
 90
        6
176
     1
 90
        2
176
     1
 62
     7
176
     1
 90
        5
176
     1
 90
        0
176
     1
 90
        0
176
     1
290
     0
176
     1
 90
        1
176
     1
 40
0.0
176
     1
 90
        0
176
     1
290
     0
176
     1
290
     1
176
     1
290
     1
176
     1
290
     0
176
     1
290
     0
176
     1
290
     0
176
     1
290
     0
176
     1
290
     0
176
     1
290
     0
176
     1
 90
       50
176
     1
 40
0.0
176
     1
 40
1.0
176
     1
 90
        0
176
     1
 62
    18
420
        0
176
     1
 90
       50
176
     1
 90
        3
176
     1
 62
     5
420
      255
176
     1
290
     0
176
     1
 90
       50
176
     1
 90
       50
176
     1
 90
       50
176
     1
290
     0
176
     1
 90
       50
176
     1
 62
   256
176
     0
 40
1.0
176
     0
 90
        2
176
     1
  1
strokes_ogs.tif
176
     1
290
     0
176
     1
 40
1.0
176
     1
 40
1.0
176
     1
  0
VISUALSTYLE
  5
30
102
{ACAD_REACTORS
330
2A
102
}
330
2A
100
AcDbVisualStyle
  2
Wireframe
 70
     5
177
     3
291
     0
 70
    58
 90
        0
176
     1
 90
        2
176
     1
 90
        0
176
     1
 90
        0
176
     1
 40
0.6
176
     1
 40
30.0
176
     1
 62
     7
420
 16777215
176
     1
 90
        1
176
     1
 90
        4
176
     1
 62
     7
176
     1
 62
   257
176
     1
 90
        1
176
     1
 90
        1
176
     1
 40
1.0
176
     1
 90
        0
176
     1
 62
   257
176
     1
 40
1.0
176
     1
 90
        1
176
     1
 90
        6
176
     1
 90
        2
176
     1
 62
     7
176
     1
 90
        3
176
     1
 90
        0
176
     1
 90
        0
176
     1
290
     0
176
     1
 90
        1
176
     1
 40
0.0
176
     1
 90
        0
176
     1
290
     0
176
     1
290
     1
176
     1
290
     1
176
     1
290
     0
176
     1
290
     0
176
     1
290
     0
176
     1
290
     0
176
     1
290
     0
176
     1
290
     0
176
     1
 90
       50
176
     1
 40
0.0
176
     1
 40
1.0
176
     1
 90
        0
176
     1
 62
    18
420
        0
176
     1
 90
       50
176
     1
 90
        3
176
     1
 62
     5
420
      255
176
     1
290
     0
176
     1
 90
       50
176
     1
 90
       50
176
     1
 90
       50
176
     1
290
     0
176
     1
 90
       50
176
     1
 62
   256
176
     0
 40
1.0
176
     0
 90
        2
176
     1
  1
strokes_ogs.tif
176
     1
290
     0
176
     1
 40
1.0
176
     1
 40
1.0
176
     1
  0
VISUALSTYLE
  5
40
102
{ACAD_REACTORS
330
2A
102
}
330
2A
100
AcDbVisualStyle
  2
X-Ray
 70
    25
177
     3
291
     0
 70
    58
 90
        2
176
     1
 90
        2
176
     1
 90
        1
176
     1
 90
        1
176
     1
 40
0.5
176
     1
 40
30.0
176
     1
 62
     7
420
 16777215
176
     1
 90
        1
176
     1
 90
        0
176
     1
 62
     7
176
     1
 62
   257
176
     1
 90
        1
176
     1
 90
        1
176
     1
 40
1.0
176
     1
 90
        8
176
     1
 62
     7
176
     1
 40
1.0
176
     1
 90
        1
176
     1
 90
        6
176
     1
 90
        2
176
     1
 62
     7
176
     1
 90
        3
176
     1
 90
        0
176
     1
 90
        0
176
     1
290
     0
176
     1
 90
       13
176
     1
 40
0.0
176
     1
 90
        0
176
     1
290
     0
176
     1
290
     1
176
     1
290
     1
176
     1
290
     0
176
     1
290
     0
176
     1
290
     0
176
     1
290
     0
176
     1
290
     0
176
     1
290
     0
176
     1
 90
       50
176
     1
 40
0.0
176
     1
 40
1.0
176
     1
 90
        0
176
     1
 62
    18
420
        0
176
     1
 90
       50
176
     1
 90
        3
176
     1
 62
     5
420
      255
176
     1
290
     0
176
     1
 90
       50
176
     1
 90
       50
176
     1
 90
       50
176
     1
290
     0
176
     1
 90
       50
176
     1
 62
   256
176
     0
 40
1.0
176
     0
 90
        2
176
     1
  1
strokes_ogs.tif
176
     1
290
     0
176
     1
 40
1.0
176
     1
 40
1.0
176
     1
  0
DICTIONARYVAR
  5
8E602
102
{ACAD_REACTORS
330
8E601
102
}
330
8E601
100
DictionaryVariables
280
     0
  1
1:1
  0
DICTIONARYVAR
  5
8E672
102
{ACAD_REACTORS
330
8E601
102
}
330
8E601
100
DictionaryVariables
280
     0
  1
STANDARD
  0
DICTIONARYVAR
  5
8E671
102
{ACAD_REACTORS
330
8E601
102
}
330
8E601
100
DictionaryVariables
280
     0
  1
STANDARD
  0
DICTIONARYVAR
  5
8E673
102
{ACAD_REACTORS
330
8E601
102
}
330
8E601
100
DictionaryVariables
280
     0
  1
Imperial24
  0
DICTIONARYVAR
  5
8E674
102
{ACAD_REACTORS
330
8E601
102
}
330
8E601
100
DictionaryVariables
280
     0
  1
Imperial24
  0
DICTIONARYVAR
  5
8E676
102
{ACAD_REACTORS
330
8E601
102
}
330
8E601
100
DictionaryVariables
280
     0
  1
1
  0
DICTIONARYVAR
  5
8E677
102
{ACAD_REACTORS
330
8E601
102
}
330
8E601
100
DictionaryVariables
280
     0
  1
15
  0
DICTIONARYVAR
  5
8E675
102
{ACAD_REACTORS
330
8E601
102
}
330
8E601
100
DictionaryVariables
280
     0
  1
0
  0
DICTIONARYVAR
  5
8E603
102
{ACAD_REACTORS
330
8E601
102
}
330
8E601
100
DictionaryVariables
280
     0
  1
1
  0
DICTIONARY
  5
8E66E
330
8E643
100
AcDbDictionary
280
     1
281
     1
  3
ACAD_XREC_ROUNDTRIP
360
8EC1B
  0
DICTIONARY
  5
8E66C
330
8E642
100
AcDbDictionary
280
     1
281
     1
  3
ACAD_XREC_ROUNDTRIP
360
8EC1A
  0
DICTIONARY
  5
8EC18
330
8E640
100
AcDbDictionary
280
     1
281
     1
  3
ACAD_ROUNDTRIP_2008_TABLESTYLE_CELLSTYLEMAP
360
8EC19
  0
XRECORD
  5
8EC1B
102
{ACAD_REACTORS
330
8E66E
102
}
330
8E66E
100
AcDbXrecord
280
     1
102
DISPLAYNAME
  1
Imperial24
102
FLAGS
 90
        0
  0
XRECORD
  5
8EC1A
102
{ACAD_REACTORS
330
8E66C
102
}
330
8E66C
100
AcDbXrecord
280
     1
102
DISPLAYNAME
  1
Imperial24
102
FLAGS
 90
        0
  0
CELLSTYLEMAP
  5
8EC19
102
{ACAD_REACTORS
330
8EC18
102
}
330
8EC18
100
AcDbCellStyleMap
 90
        3
300
CELLSTYLE
  1
TABLEFORMAT_BEGIN
 90
        5
170
     1
 91
        0
 92
    32768
 62
   257
 93
        1
300
CONTENTFORMAT
  1
CONTENTFORMAT_BEGIN
 90
        0
 91
        0
 92
      512
 93
        0
300

 40
0.0
140
1.0
 94
        5
 62
     0
340
11
144
0.25
309
CONTENTFORMAT_END
171
     0
 94
        0
309
TABLEFORMAT_END
  1
CELLSTYLE_BEGIN
 90
        1
 91
        1
300
_TITLE
309
CELLSTYLE_END
300
CELLSTYLE
  1
TABLEFORMAT_BEGIN
 90
        5
170
     1
 91
        0
 92
        0
 62
   257
 93
        1
300
CONTENTFORMAT
  1
CONTENTFORMAT_BEGIN
 90
        0
 91
        0
 92
      512
 93
        0
300

 40
0.0
140
1.0
 94
        5
 62
     0
340
11
144
0.18
309
CONTENTFORMAT_END
171
     0
 94
        0
309
TABLEFORMAT_END
  1
CELLSTYLE_BEGIN
 90
        2
 91
        1
300
_HEADER
309
CELLSTYLE_END
300
CELLSTYLE
  1
TABLEFORMAT_BEGIN
 90
        5
170
     1
 91
        0
 92
        0
 62
   257
 93
        1
300
CONTENTFORMAT
  1
CONTENTFORMAT_BEGIN
 90
        0
 91
        0
 92
      512
 93
        0
300

 40
0.0
140
1.0
 94
        2
 62
     0
340
11
144
0.18
309
CONTENTFORMAT_END
171
     0
 94
        0
309
TABLEFORMAT_END
  1
CELLSTYLE_BEGIN
 90
        3
 91
        2
300
_DATA
309
CELLSTYLE_END
  0
ENDSEC
  0
SECTION
  2
ACDSDATA
 70
     2
 71
     8
  0
ACDSSCHEMA
 90
        0
  1
AcDb_Thumbnail_Schema
  2
AcDbDs::ID
280
    10
 91
        8
  2
Thumbnail_Data
280
    15
 91
        0
101
ACDSRECORD
 95
        0
 90
        1
  2
AcDbDs::TreatedAsObjectData
280
     1
291
     1
101
ACDSRECORD
 95
        0
 90
        2
  2
AcDbDs::Legacy
280
     1
291
     1
101
ACDSRECORD
  1
AcDbDs::ID
 90
        3
  2
AcDs:Indexable
280
     1
291
     1
101
ACDSRECORD
  1
AcDbDs::ID
 90
        4
  2
AcDbDs::HandleAttribute
280
     7
282
     1
  0
ACDSSCHEMA
 90
        1
  1
AcDbDs::TreatedAsObjectDataSchema
  2
AcDbDs::TreatedAsObjectData
280
     1
 91
        0
  0
ACDSSCHEMA
 90
        2
  1
AcDbDs::LegacySchema
  2
AcDbDs::Legacy
280
     1
 91
        0
  0
ACDSSCHEMA
 90
        3
  1
AcDbDs::IndexedPropertySchema
  2
AcDs:Indexable
280
     1
 91
        0
  0
ACDSSCHEMA
 90
        4
  1
AcDbDs::HandleAttributeSchema
  2
AcDbDs::HandleAttribute
280
     7
 91
        1
284
     1
  0
ACDSRECORD
 90
        0
  2
AcDbDs::ID
280
    10
320
22
  2
Thumbnail_Data
280
    15
 94
     1676
310
89504E470D0A1A0A0000000D4948445200000100000000670803000000D82A6C0200000300504C5445000000000000C8C8C80000000000000000000000000000000000000000000000000000330000660000990000CC0000FF0033000033330033660033990033CC0033FF0066000066330066660066990066CC0066FF0099
310
000099330099660099990099CC0099FF00CC0000CC3300CC6600CC9900CCCC00CCFF00FF0000FF3300FF6600FF9900FFCC00FFFF3300003300333300663300993300CC3300FF3333003333333333663333993333CC3333FF3366003366333366663366993366CC3366FF3399003399333399663399993399CC3399FF33CC00
310
33CC3333CC6633CC9933CCCC33CCFF33FF0033FF3333FF6633FF9933FFCC33FFFF6600006600336600666600996600CC6600FF6633006633336633666633996633CC6633FF6666006666336666666666996666CC6666FF6699006699336699666699996699CC6699FF66CC0066CC3366CC6666CC9966CCCC66CCFF66FF0066
310
FF3366FF6666FF9966FFCC66FFFF9900009900339900669900999900CC9900FF9933009933339933669933999933CC9933FF9966009966339966669966999966CC9966FF9999009999339999669999999999CC9999FF99CC0099CC3399CC6699CC9999CCCC99CCFF99FF0099FF3399FF6699FF9999FFCC99FFFFCC0000CC00
310
33CC0066CC0099CC00CCCC00FFCC3300CC3333CC3366CC3399CC33CCCC33FFCC6600CC6633CC6666CC6699CC66CCCC66FFCC9900CC9933CC9966CC9999CC99CCCC99FFCCCC00CCCC33CCCC66CCCC99CCCCCCCCCCFFCCFF00CCFF33CCFF66CCFF99CCFFCCCCFFFFFF0000FF0033FF0066FF0099FF00CCFF00FFFF3300FF3333
310
FF3366FF3399FF33CCFF33FFFF6600FF6633FF6666FF6699FF66CCFF66FFFF9900FF9933FF9966FF9999FF99CCFF99FFFFCC00FFCC33FFCC66FFCC99FFCCCCFFCCFFFFFF00FFFF33FFFF66FFFF99FFFFCCFFFFFF0000000D0D0D1A1A1A2828283535354343435050505D5D5D6B6B6B787878868686939393A1A1A1AEAEAEBB
310
BBBBC9C9C9D6D6D6E4E4E4F1F1F1FFFFFF00000000000000000000000000000000000000000000000000000000000008F1915C000001EF4944415478DAED9BCD8EC3200C84FDFEEF3BF7D5AE42C0C19108D156B567BE435B5171F0F0671B6C2684104208218410420821841042FC1BF865A1ADB0F9EDB3B71DFF50D8DF85B8
310
3619810218A6FB612E607D468060FCDB7C6FD6FA26949F00CD449C63DFC71D1402F4C9D00440F077DD2530581B08002601CE4D701480C00BB8FE1A05603807BBDD936FC0E2098DE7FE683889338C8361B9C3A626218410C53C9FCFF6FDAA33EF4DE702F98FCD201F2FFA7E95FDD89A0567AFD402A0CD812D012C7F8EC8E57A
310
76D64EF61489CFFF4CD1C0957903482E80CF7ECCA37B33E8FE3724406E01B029000211CB6C820B02D4D904A3637049004C9328E71A881CA13501CE0BB4DCA140E4CEAE0850C415FE9BFB931BB82640DCB74438BC2880957D338147CD124002A4DF04B605A8B005842FC21E6C822553624FFC80EC6E4077EA1EC702FE2555DE
310
E51F58B1E80A9B7F3F94351A0C16C1B36088331C564AACC4B321A5C4EE04C08325503125662C69F19E12B38D9BA112A7008637511B2E34B2FB01AFD25A555262FB36E4F784DF46744475444208C1447459C2B3E1E3B8F2F2F502008D0673A590054524E5EDE72D9D9DADA52A9ABA1409BA6F63289B1BC35BCECA51FFFC8953
310
80FBE2695094CEB637E4FD40B4DB3BA4B20A785BA3B6FAE720AD23145750004AFF0821841042888FF303E9BBA3C93C7E85270000000049454E44AE426082F7AD6CB07A1CEE82F97EFF005202BBEF20A14D54042018135C897108B40A073B00B09E00FD283103D86F373977D7C44022BB07F65B6AC296EE03F0036C5FF0E41A
310
A9608A0000000049454E44AE426082000049454E44AE426082CD9FCC42402283587B82BF0E6AA29688F3C11ED08174FD80C0312F2F04AA9E58C01BB3827003105E0023A9DB2B20898E0F476ABB1D01E08916D8E419787913BCE2E8E179D5695DB62964EE8B3E00609EA15CB723683705DBB3C15300CD7EC0B0E7B82A00F71A
310
0E3CF39607D0E9DFCECE3FFA93A8D91E5D7B05CCCF3778CED45A58690004BE31027200CF6E6B2058FADB0D7B00003980C1BEC06FCA5E083B00B79CF57C6750167F0EF4AECE258E6300643F00B22F00A346F2D43EC65222065036C13B1130AB7A5800B439B0AA736C57204DC5547F122B00979877543D9CFF4B007691E8AAA5
310
3EB5EABF00226BC1D0318F2F6C0000000049454E44AE426082
  0
ENDSEC
  0
EOF
